  0
SECTION
  2
HEADER
  9
$ACADVER
  1
AC1009
  9
$INSBASE
 10
0.0
 20
0.0
 30
0.0
  9
$EXTMIN
 10
9.3174476616863942
 20
-2.9604366082335098
 30
0.0
  9
$EXTMAX
 10
93.949098412027453
 20
117.9348954013585
 30
0.0
  9
$LIMMIN
 10
0.0
 20
0.0
  9
$LIMMAX
 10
750.0
 20
540.0
  9
$ORTHOMODE
 70
     1
  9
$REGENMODE
 70
     1
  9
$FILLMODE
 70
     1
  9
$QTEXTMODE
 70
     0
  9
$MIRRTEXT
 70
     0
  9
$DRAGMODE
 70
     2
  9
$LTSCALE
 40
10.0
  9
$OSMODE
 70
  3071
  9
$ATTMODE
 70
     1
  9
$TEXTSIZE
 40
0.2
  9
$TRACEWID
 40
0.05
  9
$TEXTSTYLE
  7
STANDARD
  9
$CLAYER
  8
0
  9
$CELTYPE
  6
BYLAYER
  9
$CECOLOR
 62
   256
  9
$DIMSCALE
 40
1.0
  9
$DIMASZ
 40
3.0
  9
$DIMEXO
 40
2.0
  9
$DIMDLI
 40
0.38
  9
$DIMRND
 40
0.0
  9
$DIMDLE
 40
0.0
  9
$DIMEXE
 40
2.0
  9
$DIMTP
 40
0.0
  9
$DIMTM
 40
0.0
  9
$DIMTXT
 40
3.2000000000000002
  9
$DIMCEN
 40
0.0
  9
$DIMTSZ
 40
0.0
  9
$DIMTOL
 70
     0
  9
$DIMLIM
 70
     0
  9
$DIMTIH
 70
     0
  9
$DIMTOH
 70
     0
  9
$DIMSE1
 70
     0
  9
$DIMSE2
 70
     0
  9
$DIMTAD
 70
     1
  9
$DIMZIN
 70
     0
  9
$DIMBLK
  1

  9
$DIMASO
 70
     0
  9
$DIMSHO
 70
     0
  9
$DIMPOST
  1

  9
$DIMAPOST
  1

  9
$DIMALT
 70
     0
  9
$DIMALTD
 70
     2
  9
$DIMALTF
 40
25.399999999999999
  9
$DIMLFAC
 40
1.0
  9
$DIMTOFL
 70
     0
  9
$DIMTVP
 40
1.6000000000000001
  9
$DIMTIX
 70
     1
  9
$DIMSOXD
 70
     0
  9
$DIMSAH
 70
     0
  9
$DIMBLK1
  1

  9
$DIMBLK2
  1

  9
$DIMSTYLE
  2
STANDARD
  9
$DIMCLRD
 70
     0
  9
$DIMCLRE
 70
     0
  9
$DIMCLRT
 70
     0
  9
$DIMTFAC
 40
1.0
  9
$DIMGAP
 40
0.09
  9
$LUNITS
 70
     2
  9
$LUPREC
 70
     4
  9
$SKETCHINC
 40
0.1
  9
$FILLETRAD
 40
0.0
  9
$AUNITS
 70
     0
  9
$AUPREC
 70
     4
  9
$MENU
  1
E:\r13\win\SUPPORT\ACAD
  9
$ELEVATION
 40
0.0
  9
$PELEVATION
 40
0.0
  9
$THICKNESS
 40
0.0
  9
$LIMCHECK
 70
     0
  9
$BLIPMODE
 70
     0
  9
$CHAMFERA
 40
0.0
  9
$CHAMFERB
 40
0.0
  9
$SKPOLY
 70
     0
  9
$TDCREATE
 40
2449840.6227546302
  9
$TDUPDATE
 40
2456602.6147609139
  9
$TDINDWG
 40
0.0123749653
  9
$TDUSRTIMER
 40
2456598.349062534
  9
$USRTIMER
 70
     1
  9
$ANGBASE
 50
0.0
  9
$ANGDIR
 70
     0
  9
$PDMODE
 70
     0
  9
$PDSIZE
 40
0.0
  9
$PLINEWID
 40
0.0
  9
$COORDS
 70
     1
  9
$SPLFRAME
 70
     0
  9
$SPLINETYPE
 70
     6
  9
$SPLINESEGS
 70
     8
  9
$ATTDIA
 70
     0
  9
$ATTREQ
 70
     1
  9
$HANDLING
 70
     1
  9
$HANDSEED
  5
4C1
  9
$SURFTAB1
 70
     6
  9
$SURFTAB2
 70
     6
  9
$SURFTYPE
 70
     6
  9
$SURFU
 70
     6
  9
$SURFV
 70
     6
  9
$UCSNAME
  2

  9
$UCSORG
 10
0.0
 20
0.0
 30
0.0
  9
$UCSXDIR
 10
1.0
 20
0.0
 30
0.0
  9
$UCSYDIR
 10
0.0
 20
1.0
 30
0.0
  9
$PUCSNAME
  2

  9
$PUCSORG
 10
0.0
 20
0.0
 30
0.0
  9
$PUCSXDIR
 10
1.0
 20
0.0
 30
0.0
  9
$PUCSYDIR
 10
0.0
 20
1.0
 30
0.0
  9
$USERI1
 70
     0
  9
$USERI2
 70
     1
  9
$USERI3
 70
     0
  9
$USERI4
 70
     0
  9
$USERI5
 70
     0
  9
$USERR1
 40
0.0
  9
$USERR2
 40
0.0
  9
$USERR3
 40
0.0
  9
$USERR4
 40
0.0
  9
$USERR5
 40
0.0
  9
$WORLDVIEW
 70
     1
  9
$SHADEDGE
 70
     3
  9
$SHADEDIF
 70
    70
  9
$TILEMODE
 70
     1
  9
$MAXACTVP
 70
    16
  9
$PLIMCHECK
 70
     0
  9
$PEXTMIN
 10
1.0000000000000000E+020
 20
1.0000000000000000E+020
 30
1.0000000000000000E+020
  9
$PEXTMAX
 10
-1.0000000000000000E+020
 20
-1.0000000000000000E+020
 30
-1.0000000000000000E+020
  9
$PLIMMIN
 10
0.0
 20
0.0
  9
$PLIMMAX
 10
12.0
 20
9.0
  9
$UNITMODE
 70
     0
  9
$VISRETAIN
 70
     0
  9
$PLINEGEN
 70
     0
  9
$PSLTSCALE
 70
     0
  0
ENDSEC
  0
SECTION
  2
TABLES
  0
TABLE
  2
VPORT
 70
     1
  0
VPORT
  2
*ACTIVE
 70
     0
 10
0.0
 20
0.0
 11
1.0
 21
1.0
 12
143.84574514657589
 22
55.429817512734928
 13
0.0
 23
0.0
 14
20.0
 24
20.0
 15
20.0
 25
20.0
 16
0.0
 26
0.0
 36
1.0
 17
0.0
 27
0.0
 37
0.0
 40
253.6134836042869
 41
1.831871345029239
 42
50.0
 43
0.0
 44
0.0
 50
0.0
 51
0.0
 71
    16
 72
   100
 73
     1
 74
     0
 75
     0
 76
     0
 77
     0
 78
     2
  0
ENDTAB
  0
TABLE
  2
LTYPE
 70
     7
  0
LTYPE
  2
CONTINUOUS
 70
     0
  3
Solid Line
 72
    65
 73
     0
 40
0.0
  0
LTYPE
  2
CENTER
 70
     0
  3
____ _ ____ _ ____ _ ____ _ ____ _ ____ _ ____
 72
    65
 73
     4
 40
2.0
 49
1.25
 49
-0.25
 49
0.25
 49
-0.25
  0
LTYPE
  2
HIDDEN
 70
     0
  3
_ _ _ _ _ _ _ _ _ _ _ _ _ _ _ _ _ _ _ _ _ _ _
 72
    65
 73
     2
 40
0.375
 49
0.25
 49
-0.125
  0
LTYPE
  2
PHANTOM2
 70
     0
  3
___ _ _ ___ _ _ ___ _ _ ___ _ _
 72
    65
 73
     6
 40
1.25
 49
0.625
 49
-0.125
 49
0.125
 49
-0.125
 49
0.125
 49
-0.125
  0
LTYPE
  2
CNS_SOLID
 70
     0
  3

 72
    65
 73
     0
 40
0.0
  0
LTYPE
  2
CNS_DASHED
 70
     0
  3

 72
    65
 73
     2
 40
2.0
 49
1.0
 49
-1.0
  0
LTYPE
  2
CNS_CENTER
 70
     0
  3

 72
    65
 73
     4
 40
2.0
 49
0.45
 49
-0.5
 49
0.05
 49
-0.5
  0
ENDTAB
  0
TABLE
  2
LAYER
 70
     4
  0
LAYER
  2
0
 70
     0
 62
     7
  6
CONTINUOUS
  0
LAYER
  2
1
 70
     0
 62
     1
  6
CENTER
  0
LAYER
  2
2
 70
     0
 62
     2
  6
HIDDEN
  0
LAYER
  2
3
 70
     0
 62
     3
  6
CONTINUOUS
  0
ENDTAB
  0
TABLE
  2
STYLE
 70
     2
  0
STYLE
  2
STANDARD
 70
     0
 40
0.0
 41
1.0
 50
0.0
 71
     0
 42
0.2
  3
TXT
  4
BIGFONT
  0
STYLE
  2
STANDARD1
 70
     0
 40
0.0
 41
1.0
 50
0.0
 71
     0
 42
3.0
  3
txt
  4

  0
ENDTAB
  0
TABLE
  2
VIEW
 70
     1
  0
VIEW
  2
ALL
 70
     0
 40
540.0
 10
441.98319299999991
 20
270.0
 41
0.0
 11
0.0
 21
0.0
 31
1.0
 12
0.0
 22
0.0
 32
0.0
 42
0.0
 43
0.0
 44
0.0
 50
0.0
 71
     0
  0
ENDTAB
  0
TABLE
  2
UCS
 70
     0
  0
ENDTAB
  0
TABLE
  2
APPID
 70
     6
  0
APPID
  2
ACAD
 70
     0
  0
APPID
  2
ACAD_NAV_VCDISPLAY
 70
     0
  0
APPID
  2
ACAD_EXEMPT_FROM_CAD_STANDARDS
 70
     0
  0
APPID
  2
ACAD_DSTYLE_DIMJAG
 70
     0
  0
APPID
  2
ACAD_DSTYLE_DIMTALN
 70
     0
  0
APPID
  2
ACAD_MLEADERVER
 70
     0
  0
ENDTAB
  0
TABLE
  2
DIMSTYLE
 70
     2
  0
DIMSTYLE
  2
STANDARD
 70
     0
  3

  4

  5

  6

  7

 40
1.0
 41
0.18
 42
0.0625
 43
0.38
 44
0.18
 45
0.0
 46
0.0
 47
0.0
 48
0.0
140
0.18
141
0.09
142
0.0
143
25.399999999999999
144
1.0
145
0.0
146
1.0
147
0.09
 71
     0
 72
     0
 73
     1
 74
     1
 75
     0
 76
     0
 77
     0
 78
     0
170
     0
171
     2
172
     0
173
     0
174
     0
175
     0
176
     0
177
     0
178
     0
  0
DIMSTYLE
  2
ISO-25
 70
     0
  3

  4

  5

  6

  7

 40
1.0
 41
2.5
 42
0.625
 43
3.75
 44
1.25
 45
0.0
 46
0.0
 47
0.0
 48
0.0
140
2.5
141
2.5
142
0.0
143
0.03937007874016
144
1.0
145
0.0
146
1.0
147
0.625
 71
     0
 72
     0
 73
     0
 74
     0
 75
     0
 76
     0
 77
     1
 78
     8
170
     0
171
     3
172
     1
173
     0
174
     0
175
     0
176
     0
177
     0
178
     0
  0
ENDTAB
  0
ENDSEC
  0
SECTION
  2
BLOCKS
  0
BLOCK
  8
0
  2
$MODEL_SPACE
 70
     0
 10
0.0
 20
0.0
 30
0.0
  3
$MODEL_SPACE
  1

  0
ENDBLK
  5
11D
  8
0
  0
BLOCK
 67
     1
  8
0
  2
$PAPER_SPACE
 70
     0
 10
0.0
 20
0.0
 30
0.0
  3
$PAPER_SPACE
  1

  0
ENDBLK
  5
11B
 67
     1
  8
0
  0
ENDSEC
  0
SECTION
  2
ENTITIES
  0
ARC
  5
378
  8
0
 10
23.274895385486399
 20
73.059315737999341
 30
0.0
 40
22.859999999999999
 50
350.09931603009949
 51
5.9985732042999036
  0
ARC
  5
379
  8
0
 10
55.3599999378864
 20
73.059315737999341
 30
0.0
 40
22.86000000000001
 50
174.0014267957001
 51
189.90068396990031
  0
ARC
  5
37A
  8
0
 10
71.270647661686397
 20
78.102664173099313
 30
0.0
 40
25.399999999999991
 50
180.0
 51
185.9985732042999
  0
ARC
  5
37B
  8
0
 10
7.3642476616863979
 20
78.102664173099313
 30
0.0
 40
25.400000000000009
 50
354.00142679570001
 51
0.0
  0
LINE
  5
37C
  8
0
 10
45.870647661686398
 20
80.504352661399324
 30
0.0
 11
44.092647661686392
 21
81.333447677599324
 31
0.0
  0
LINE
  5
37D
  8
0
 10
34.542247661686403
 20
81.333447677599324
 30
0.0
 11
32.764247661686397
 21
80.504352661399324
 31
0.0
  0
LINE
  5
37E
  8
0
 10
45.870647661686398
 20
78.102664173099313
 30
0.0
 11
45.870647661686398
 21
80.504352661399324
 31
0.0
  0
LINE
  5
37F
  8
0
 10
32.764247661686397
 20
80.504352661399324
 30
0.0
 11
32.764247661686397
 21
78.102664173099313
 31
0.0
  0
LINE
  5
380
  8
0
 10
45.794447661686398
 20
66.601447677599324
 30
0.0
 11
45.794447661686398
 21
68.125447677599325
 31
0.0
  0
LINE
  5
381
  8
0
 10
32.840447661686412
 20
68.125447677599325
 30
0.0
 11
32.840447661686412
 21
66.601447677599324
 31
0.0
  0
LINE
  5
382
  8
0
 10
32.840447661686412
 20
69.128747677599321
 30
0.0
 11
33.983447661686412
 21
68.492096672299326
 31
0.0
  0
LINE
  5
383
  8
0
 10
44.651447661686397
 20
68.492096672299326
 30
0.0
 11
45.794447661686398
 21
69.128747677599321
 31
0.0
  0
LINE
  5
384
  8
0
 10
45.794447661586403
 20
68.125447677599325
 30
0.0
 11
44.651447661686397
 21
68.492096672299326
 31
0.0
  0
LINE
  5
385
  8
0
 10
33.983447661686412
 20
68.492096672299326
 30
0.0
 11
32.840447661786413
 21
68.125447677599325
 31
0.0
  0
LINE
  5
386
  8
0
 10
32.840447661686412
 20
69.128747677599321
 30
0.0
 11
45.794447661686398
 21
69.128747677599321
 31
0.0
  0
LINE
  5
387
  8
0
 10
45.870647661686398
 20
80.504352661399324
 30
0.0
 11
32.764247661686397
 21
80.504352661399324
 31
0.0
  0
LINE
  5
388
  8
0
 10
44.092647661686392
 20
81.333447677599324
 30
0.0
 11
34.542247661686403
 21
81.333447677599324
 31
0.0
  0
LINE
  5
389
  8
0
 10
32.840447661686412
 20
68.125447677599325
 30
0.0
 11
45.794447661686398
 21
68.125447677599325
 31
0.0
  0
LINE
  5
38A
  8
0
 10
32.840447661686412
 20
66.601447677599324
 30
0.0
 11
45.794447661686398
 21
66.601447677599324
 31
0.0
  0
LINE
  5
38B
  8
0
 10
33.983447661686412
 20
68.492096672299326
 30
0.0
 11
44.651447661686397
 21
68.49209667229934
 31
0.0
  0
CIRCLE
  5
38C
  8
0
 10
39.317447661686401
 20
108.6174476775993
 30
0.0
 40
6.817447723759158
  0
CIRCLE
  5
38D
  8
0
 10
39.317447661686401
 20
108.6174476775993
 30
0.0
 40
4.3180000000000121
  0
CIRCLE
  5
38E
  8
0
 10
39.317447661686401
 20
108.6174476775993
 30
0.0
 40
4.7752000000400576
  0
CIRCLE
  5
38F
  8
0
 10
39.317447661686401
 20
108.6174476775993
 30
0.0
 40
6.553200000000003
  0
CIRCLE
  5
390
  8
0
 10
39.317447661686401
 20
108.6174476775993
 30
0.0
 40
2.2859999999999729
  0
ARC
  5
391
  8
2
 10
27.531431725986391
 20
73.983817261399324
 30
0.0
 40
16.57764563306576
 50
346.77085573170012
 51
8.0281337777997965
  0
ARC
  5
392
  8
2
 10
75.385447661686399
 20
80.733223995399314
 30
0.0
 40
31.75
 50
180.0
 51
188.0281337777997
  0
LINE
  5
393
  8
2
 10
43.635447661686392
 20
81.333447677599324
 30
0.0
 11
43.635447661686392
 21
80.733223995399314
 31
0.0
  0
LINE
  5
394
  8
2
 10
41.603447661686388
 20
69.128747677599321
 30
0.0
 11
41.603447661686388
 21
66.601447677599324
 31
0.0
  0
LINE
  5
395
  8
2
 10
43.635447661686392
 20
69.899453796899323
 30
0.0
 11
43.635447661686392
 21
69.128747677599321
 31
0.0
  0
ARC
  5
396
  8
2
 10
44.905447661686388
 20
69.899453796899323
 30
0.0
 40
1.2699999999999949
 50
166.7708557317001
 51
180.0
  0
ARC
  5
397
  8
2
 10
51.103463597386387
 20
73.983817261399324
 30
0.0
 40
16.577645633065771
 50
171.97186622220019
 51
193.22914426829971
  0
ARC
  5
398
  8
2
 10
3.2494476616863959
 20
80.733223995399314
 30
0.0
 40
31.750000000000011
 50
351.97186622220028
 51
0.0
  0
LINE
  5
399
  8
2
 10
34.999447661686389
 20
69.899453796899323
 30
0.0
 11
43.635447661686392
 21
69.899453796899323
 31
0.0
  0
ARC
  5
39A
  8
2
 10
33.7294476616864
 20
69.899453796899323
 30
0.0
 40
1.2699999999999949
 50
0.0
 51
13.22914426829986
  0
LINE
  5
39B
  8
2
 10
34.999447661686389
 20
69.128747677599321
 30
0.0
 11
34.999447661686389
 21
69.899453796899323
 31
0.0
  0
LINE
  5
39C
  8
2
 10
34.999447661686389
 20
80.733223995399314
 30
0.0
 11
34.999447661686389
 21
81.333447677599324
 31
0.0
  0
LINE
  5
39D
  8
2
 10
37.0314476616864
 20
66.601447677599324
 30
0.0
 11
37.0314476616864
 21
69.128747677599321
 31
0.0
  0
LINE
  5
39E
  8
2
 10
34.999447661686389
 20
69.128747677599321
 30
0.0
 11
43.635447661686392
 21
69.128747677599321
 31
0.0
  0
LINE
  5
39F
  8
1
 10
29.999999937927239
 20
108.6174476775993
 30
0.0
 11
48.63489538544556
 21
108.6174476775993
 31
0.0
  0
LINE
  5
3A0
  8
1
 10
39.317447661686401
 20
117.9348954013585
 30
0.0
 11
39.317447661686401
 21
99.299999953840171
 31
0.0
  0
LINE
  5
3A1
  8
1
 10
39.317447661686401
 20
83.833447677599324
 30
0.0
 11
39.317447661686401
 21
64.101447677599324
 31
0.0
  0
CIRCLE
  5
3A2
  8
0
 10
39.317447661686401
 20
39.317447677599318
 30
0.0
 40
6.817447723759158
  0
CIRCLE
  5
3A3
  8
0
 10
39.317447661686401
 20
39.317447677599318
 30
0.0
 40
2.2859999999999729
  0
LINE
  5
3A4
  8
1
 10
29.999999937927239
 20
39.317447677599318
 30
0.0
 11
48.63489538544556
 21
39.317447677599318
 31
0.0
  0
LINE
  5
3A5
  8
1
 10
39.317447661686401
 20
48.634895401358477
 30
0.0
 11
39.317447661686401
 21
29.99999995384016
 31
0.0
  0
CIRCLE
  5
3A6
  8
0
 10
39.317447661686401
 20
39.317447677599318
 30
0.0
 40
6.4769999999999959
  0
TEXT
  5
457
  8
0
 62
     3
 10
9.3174476616863942
 20
-0.0000000461598404
 30
0.0
 40
10.0
  1
TPGBA-098S
  7
STANDARD1
  0
ENDSEC
  0
EOF
