  0
SECTION
  2
HEADER
  9
$ACADVER
  1
AC1009
  9
$INSBASE
 10
0.0
 20
0.0
 30
0.0
  9
$EXTMIN
 10
0.0
 20
-2.960436562073669
 30
0.0
  9
$EXTMAX
 10
283.63352990234551
 20
220.35030558502649
 30
0.0
  9
$LIMMIN
 10
0.0
 20
0.0
  9
$LIMMAX
 10
375.0
 20
270.0
  9
$ORTHOMODE
 70
     1
  9
$REGENMODE
 70
     1
  9
$FILLMODE
 70
     1
  9
$QTEXTMODE
 70
     0
  9
$MIRRTEXT
 70
     0
  9
$DRAGMODE
 70
     2
  9
$LTSCALE
 40
10.0
  9
$OSMODE
 70
    55
  9
$ATTMODE
 70
     1
  9
$TEXTSIZE
 40
0.2
  9
$TRACEWID
 40
0.05
  9
$TEXTSTYLE
  7
STANDARD
  9
$CLAYER
  8
0
  9
$CELTYPE
  6
BYLAYER
  9
$CECOLOR
 62
   256
  9
$DIMSCALE
 40
1.0
  9
$DIMASZ
 40
3.0
  9
$DIMEXO
 40
2.0
  9
$DIMDLI
 40
0.38
  9
$DIMRND
 40
0.0
  9
$DIMDLE
 40
0.0
  9
$DIMEXE
 40
2.0
  9
$DIMTP
 40
0.0
  9
$DIMTM
 40
0.0
  9
$DIMTXT
 40
3.2000000000000002
  9
$DIMCEN
 40
0.0
  9
$DIMTSZ
 40
0.0
  9
$DIMTOL
 70
     0
  9
$DIMLIM
 70
     0
  9
$DIMTIH
 70
     0
  9
$DIMTOH
 70
     0
  9
$DIMSE1
 70
     0
  9
$DIMSE2
 70
     0
  9
$DIMTAD
 70
     1
  9
$DIMZIN
 70
     0
  9
$DIMBLK
  1

  9
$DIMASO
 70
     1
  9
$DIMSHO
 70
     0
  9
$DIMPOST
  1

  9
$DIMAPOST
  1

  9
$DIMALT
 70
     0
  9
$DIMALTD
 70
     2
  9
$DIMALTF
 40
25.399999999999999
  9
$DIMLFAC
 40
1.0
  9
$DIMTOFL
 70
     1
  9
$DIMTVP
 40
1.6000000000000001
  9
$DIMTIX
 70
     1
  9
$DIMSOXD
 70
     0
  9
$DIMSAH
 70
     0
  9
$DIMBLK1
  1

  9
$DIMBLK2
  1

  9
$DIMSTYLE
  2
STANDARD
  9
$DIMCLRD
 70
     0
  9
$DIMCLRE
 70
     0
  9
$DIMCLRT
 70
     0
  9
$DIMTFAC
 40
1.0
  9
$DIMGAP
 40
0.09
  9
$LUNITS
 70
     2
  9
$LUPREC
 70
     4
  9
$SKETCHINC
 40
0.1
  9
$FILLETRAD
 40
0.0
  9
$AUNITS
 70
     0
  9
$AUPREC
 70
     4
  9
$MENU
  1
E:\r13\win\SUPPORT\ACAD
  9
$ELEVATION
 40
0.0
  9
$PELEVATION
 40
0.0
  9
$THICKNESS
 40
0.0
  9
$LIMCHECK
 70
     0
  9
$BLIPMODE
 70
     0
  9
$CHAMFERA
 40
0.0
  9
$CHAMFERB
 40
0.0
  9
$SKPOLY
 70
     0
  9
$TDCREATE
 40
2449839.7964930562
  9
$TDUPDATE
 40
2456598.4513258571
  9
$TDINDWG
 40
0.0001938657
  9
$TDUSRTIMER
 40
0.0001938657
  9
$USRTIMER
 70
     1
  9
$ANGBASE
 50
0.0
  9
$ANGDIR
 70
     0
  9
$PDMODE
 70
     0
  9
$PDSIZE
 40
0.0
  9
$PLINEWID
 40
0.0
  9
$COORDS
 70
     1
  9
$SPLFRAME
 70
     0
  9
$SPLINETYPE
 70
     6
  9
$SPLINESEGS
 70
     8
  9
$ATTDIA
 70
     0
  9
$ATTREQ
 70
     1
  9
$HANDLING
 70
     1
  9
$HANDSEED
  5
2E3
  9
$SURFTAB1
 70
     6
  9
$SURFTAB2
 70
     6
  9
$SURFTYPE
 70
     6
  9
$SURFU
 70
     6
  9
$SURFV
 70
     6
  9
$UCSNAME
  2

  9
$UCSORG
 10
0.0
 20
0.0
 30
0.0
  9
$UCSXDIR
 10
1.0
 20
0.0
 30
0.0
  9
$UCSYDIR
 10
0.0
 20
1.0
 30
0.0
  9
$PUCSNAME
  2

  9
$PUCSORG
 10
0.0
 20
0.0
 30
0.0
  9
$PUCSXDIR
 10
1.0
 20
0.0
 30
0.0
  9
$PUCSYDIR
 10
0.0
 20
1.0
 30
0.0
  9
$USERI1
 70
     0
  9
$USERI2
 70
     1
  9
$USERI3
 70
     1
  9
$USERI4
 70
     0
  9
$USERI5
 70
     0
  9
$USERR1
 40
0.0
  9
$USERR2
 40
0.0
  9
$USERR3
 40
0.0
  9
$USERR4
 40
0.0
  9
$USERR5
 40
0.0
  9
$WORLDVIEW
 70
     1
  9
$SHADEDGE
 70
     3
  9
$SHADEDIF
 70
    70
  9
$TILEMODE
 70
     1
  9
$MAXACTVP
 70
    16
  9
$PLIMCHECK
 70
     0
  9
$PEXTMIN
 10
1.0000000000000000E+020
 20
1.0000000000000000E+020
 30
1.0000000000000000E+020
  9
$PEXTMAX
 10
-1.0000000000000000E+020
 20
-1.0000000000000000E+020
 30
-1.0000000000000000E+020
  9
$PLIMMIN
 10
0.0
 20
0.0
  9
$PLIMMAX
 10
12.0
 20
9.0
  9
$UNITMODE
 70
     0
  9
$VISRETAIN
 70
     0
  9
$PLINEGEN
 70
     0
  9
$PSLTSCALE
 70
     0
  0
ENDSEC
  0
SECTION
  2
TABLES
  0
TABLE
  2
VPORT
 70
     1
  0
VPORT
  2
*ACTIVE
 70
     0
 10
0.0
 20
0.0
 11
1.0
 21
1.0
 12
187.4942783906524
 22
197.0509055860143
 13
0.0
 23
0.0
 14
10.0
 24
10.0
 15
10.0
 25
10.0
 16
0.0
 26
0.0
 36
1.0
 17
0.0
 27
0.0
 37
0.0
 40
403.57315882993248
 41
1.7807262569832401
 42
50.0
 43
0.0
 44
0.0
 50
0.0
 51
0.0
 71
     0
 72
   500
 73
     1
 74
     0
 75
     0
 76
     0
 77
     0
 78
     2
  0
ENDTAB
  0
TABLE
  2
LTYPE
 70
     4
  0
LTYPE
  2
CONTINUOUS
 70
     0
  3
Solid Line
 72
    65
 73
     0
 40
0.0
  0
LTYPE
  2
CENTER
 70
     0
  3
____ _ ____ _ ____ _ ____ _ ____ _ ____ _ ____
 72
    65
 73
     4
 40
2.0
 49
1.25
 49
-0.25
 49
0.25
 49
-0.25
  0
LTYPE
  2
HIDDEN
 70
     0
  3
_ _ _ _ _ _ _ _ _ _ _ _ _ _ _ _ _ _ _ _ _ _ _
 72
    65
 73
     2
 40
0.375
 49
0.25
 49
-0.125
  0
LTYPE
  2
PHANTOM2
 70
     0
  3
___ _ _ ___ _ _ ___ _ _ ___ _ _
 72
    65
 73
     6
 40
1.25
 49
0.625
 49
-0.125
 49
0.125
 49
-0.125
 49
0.125
 49
-0.125
  0
ENDTAB
  0
TABLE
  2
LAYER
 70
     4
  0
LAYER
  2
0
 70
     0
 62
     7
  6
CONTINUOUS
  0
LAYER
  2
1
 70
     0
 62
     1
  6
CENTER
  0
LAYER
  2
2
 70
     0
 62
     2
  6
HIDDEN
  0
LAYER
  2
3
 70
     0
 62
     3
  6
CONTINUOUS
  0
ENDTAB
  0
TABLE
  2
STYLE
 70
     2
  0
STYLE
  2
STANDARD
 70
     0
 40
0.0
 41
1.0
 50
0.0
 71
     0
 42
0.2
  3
TXT
  4
BIGFONT
  0
STYLE
  2
STANDARD1
 70
     0
 40
0.0
 41
1.0
 50
0.0
 71
     0
 42
3.0
  3
txt
  4

  0
ENDTAB
  0
TABLE
  2
VIEW
 70
     1
  0
VIEW
  2
ALL
 70
     0
 40
175.0
 10
143.23529411764699
 20
87.5
 41
0.0
 11
0.0
 21
0.0
 31
1.0
 12
0.0
 22
0.0
 32
0.0
 42
0.0
 43
0.0
 44
0.0
 50
0.0
 71
     0
  0
ENDTAB
  0
TABLE
  2
UCS
 70
     0
  0
ENDTAB
  0
TABLE
  2
APPID
 70
     3
  0
APPID
  2
ACAD
 70
     0
  0
APPID
  2
ACAD_MLEADERVER
 70
     0
  0
APPID
  2
ACAD_NAV_VCDISPLAY
 70
     0
  0
ENDTAB
  0
TABLE
  2
DIMSTYLE
 70
     1
  0
DIMSTYLE
  2
STANDARD
 70
     0
  3

  4

  5

  6

  7

 40
1.0
 41
0.18
 42
0.0625
 43
0.38
 44
0.18
 45
0.0
 46
0.0
 47
0.0
 48
0.0
140
0.18
141
0.09
142
0.0
143
25.399999999999999
144
1.0
145
0.0
146
1.0
147
0.09
 71
     0
 72
     0
 73
     1
 74
     1
 75
     0
 76
     0
 77
     0
 78
     0
170
     0
171
     2
172
     0
173
     0
174
     0
175
     0
176
     0
177
     0
178
     0
  0
ENDTAB
  0
ENDSEC
  0
SECTION
  2
BLOCKS
  0
BLOCK
  8
0
  2
$MODEL_SPACE
 70
     0
 10
0.0
 20
0.0
 30
0.0
  3
$MODEL_SPACE
  1

  0
ENDBLK
  5
129
  8
0
  0
BLOCK
 67
     1
  8
0
  2
$PAPER_SPACE
 70
     0
 10
0.0
 20
0.0
 30
0.0
  3
$PAPER_SPACE
  1

  0
ENDBLK
  5
127
 67
     1
  8
0
  0
ENDSEC
  0
SECTION
  2
ENTITIES
  0
LINE
  5
36
  8
0
 10
191.28921367374821
 20
114.2562410186118
 30
0.0
 11
183.28921367374809
 21
114.2562410186118
 31
0.0
  0
LINE
  5
37
  8
3
 10
190.61271367374829
 20
136.05624101861179
 30
0.0
 11
190.61271367374829
 21
113.5797410186119
 31
0.0
  0
LINE
  5
38
  8
0
 10
183.28921367374809
 20
114.2562410186118
 30
0.0
 11
183.28921367374809
 21
143.0562410186119
 31
0.0
  0
LINE
  5
39
  8
0
 10
191.28921367374821
 20
136.05624101861179
 30
0.0
 11
183.28921367374809
 21
136.05624101861179
 31
0.0
  0
LINE
  5
3A
  8
3
 10
183.96571367374801
 20
113.5797410186119
 30
0.0
 11
183.96571367374801
 21
136.05624101861179
 31
0.0
  0
LINE
  5
3B
  8
0
 10
190.08921367374811
 20
113.0562410186118
 30
0.0
 11
191.28921367374821
 21
114.2562410186118
 31
0.0
  0
LINE
  5
3C
  8
0
 10
183.28921367374809
 20
114.2562410186118
 30
0.0
 11
184.4892136737482
 21
113.0562410186118
 31
0.0
  0
LINE
  5
3D
  8
0
 10
190.08921367374811
 20
113.0562410186118
 30
0.0
 11
184.4892136737482
 21
113.0562410186118
 31
0.0
  0
LINE
  5
3E
  8
0
 10
191.28921367374821
 20
143.0562410186119
 30
0.0
 11
191.28921367374821
 21
114.2562410186118
 31
0.0
  0
LINE
  5
3F
  8
0
 10
178.6289596359037
 20
155.80008954055381
 30
0.0
 11
178.6289596359037
 21
146.81239249666979
 31
0.0
  0
LINE
  5
40
  8
0
 10
195.9494677115926
 20
155.80008954055381
 30
0.0
 11
195.9494677115926
 21
146.81239249666979
 31
0.0
  0
LINE
  5
41
  8
0
 10
207.28921367374821
 20
156.5562410186119
 30
0.0
 11
207.28921367374821
 21
146.0562410186119
 31
0.0
  0
LINE
  5
42
  8
0
 10
167.28921367374821
 20
156.5562410186119
 30
0.0
 11
167.28921367374821
 21
146.0562410186119
 31
0.0
  0
ARC
  5
43
  8
0
 10
205.28921367374821
 20
146.0562410186119
 30
0.0
 40
2.0
 50
255.52248781406999
 51
360.0
  0
ARC
  5
44
  8
0
 10
169.28921367374821
 20
146.0562410186119
 30
0.0
 40
2.0
 50
180.0
 51
284.47751218592998
  0
ARC
  5
45
  8
0
 10
187.28921367374821
 20
76.342540786878374
 30
0.0
 40
70.0
 50
95.183788113600926
 51
104.47751218593
  0
ARC
  5
46
  8
0
 10
187.28921367374821
 20
76.342540786878374
 30
0.0
 40
70.0
 50
75.522487814070033
 51
84.816211886399046
  0
LINE
  5
47
  8
0
 10
180.96465835341101
 20
146.0562410186119
 30
0.0
 11
193.61376899408529
 21
146.0562410186119
 31
0.0
  0
LINE
  5
48
  8
0
 10
180.96465835341101
 20
156.5562410186119
 30
0.0
 11
193.61376899408529
 21
156.5562410186119
 31
0.0
  0
ARC
  5
49
  8
0
 10
187.28921367374821
 20
226.26994125034531
 30
0.0
 40
70.0
 50
275.183788113601
 51
284.47751218592998
  0
ARC
  5
4A
  8
0
 10
187.28921367374821
 20
226.26994125034531
 30
0.0
 40
70.0
 50
255.52248781406999
 51
264.81621188639912
  0
ARC
  5
4B
  8
0
 10
169.28921367374821
 20
156.5562410186119
 30
0.0
 40
2.0
 50
75.522487814070004
 51
180.0
  0
ARC
  5
4C
  8
0
 10
205.28921367374821
 20
156.5562410186119
 30
0.0
 40
2.0
 50
0.0000000000000127
 51
104.4775121859299
  0
ARC
  5
4D
  8
0
 10
187.28921367374821
 20
205.35030558502649
 30
0.0
 40
10.0
 50
220.0052008848601
 51
319.99479911513993
  0
LINE
  5
4E
  8
0
 10
167.28921367374821
 20
201.85030558502649
 30
0.0
 11
167.28921367374821
 21
208.85030558502649
 31
0.0
  0
LINE
  5
4F
  8
0
 10
168.78921367374809
 20
210.35030558502649
 30
0.0
 11
176.5654083789845
 21
210.35030558502649
 31
0.0
  0
ARC
  5
50
  8
0
 10
168.78921367374809
 20
201.85030558502649
 30
0.0
 40
1.5
 50
180.0
 51
270.0
  0
ARC
  5
51
  8
0
 10
168.78921367374809
 20
208.85030558502649
 30
0.0
 40
1.5
 50
90.0
 51
180.0
  0
ARC
  5
52
  8
0
 10
176.5654083789845
 20
214.35030558502649
 30
0.0
 40
3.999999999999996
 50
269.99999999999977
 51
319.99479911513981
  0
LINE
  5
53
  8
0
 10
168.78921367374809
 20
200.35030558502649
 30
0.0
 11
176.5654083789845
 21
200.35030558502649
 31
0.0
  0
ARC
  5
54
  8
0
 10
176.5654083789845
 20
196.35030558502649
 30
0.0
 40
3.999999999999996
 50
40.005200884860237
 51
90.000000000000185
  0
ARC
  5
55
  8
0
 10
187.28921367374821
 20
205.35030558502649
 30
0.0
 40
10.0
 50
40.005200884860223
 51
139.9947991151397
  0
ARC
  5
56
  8
0
 10
198.0130189685118
 20
196.35030558502649
 30
0.0
 40
3.999999999999996
 50
89.999999999999815
 51
139.9947991151397
  0
LINE
  5
57
  8
0
 10
205.78921367374821
 20
200.35030558502649
 30
0.0
 11
198.0130189685118
 21
200.35030558502649
 31
0.0
  0
ARC
  5
58
  8
0
 10
198.0130189685118
 20
214.35030558502649
 30
0.0
 40
3.999999999999996
 50
220.0052008848603
 51
270.00000000000023
  0
ARC
  5
59
  8
0
 10
205.78921367374821
 20
208.85030558502649
 30
0.0
 40
1.5
 50
0.0
 51
90.0
  0
ARC
  5
5A
  8
0
 10
205.78921367374821
 20
201.85030558502649
 30
0.0
 40
1.5
 50
270.0
 51
0.0
  0
LINE
  5
5B
  8
0
 10
205.78921367374821
 20
210.35030558502649
 30
0.0
 11
198.0130189685118
 21
210.35030558502649
 31
0.0
  0
LINE
  5
5C
  8
0
 10
207.28921367374821
 20
201.85030558502649
 30
0.0
 11
207.28921367374821
 21
208.85030558502649
 31
0.0
  0
CIRCLE
  5
5D
  8
0
 10
187.28921367374821
 20
62.10007174012064
 30
0.0
 40
4.0
  0
CIRCLE
  5
5E
  8
3
 10
187.28921367374821
 20
62.10007174012064
 30
0.0
 40
3.3235000000000001
  0
CIRCLE
  5
5F
  8
0
 10
187.28921367374821
 20
62.10007174012064
 30
0.0
 40
2.7999999999999989
  0
CIRCLE
  5
60
  8
0
 10
187.28921367374821
 20
62.10007174012064
 30
0.0
 40
8.0
  0
CIRCLE
  5
61
  8
0
 10
187.28921367374821
 20
62.10007174012064
 30
0.0
 40
8.5
  0
LINE
  5
62
  8
0
 10
207.28921367374821
 20
58.600071740120669
 30
0.0
 11
207.28921367374821
 21
65.600071740120669
 31
0.0
  0
LINE
  5
63
  8
0
 10
205.78921367374821
 20
67.100071740120669
 30
0.0
 11
198.0130189685118
 21
67.100071740120669
 31
0.0
  0
ARC
  5
64
  8
0
 10
205.78921367374821
 20
58.600071740120669
 30
0.0
 40
1.5
 50
270.0
 51
0.0
  0
ARC
  5
65
  8
0
 10
205.78921367374821
 20
65.600071740120669
 30
0.0
 40
1.5
 50
0.0
 51
90.0
  0
ARC
  5
66
  8
0
 10
198.0130189685118
 20
71.100071740120669
 30
0.0
 40
3.999999999999996
 50
220.0052008848603
 51
270.00000000000023
  0
LINE
  5
67
  8
0
 10
205.78921367374821
 20
57.100071740120669
 30
0.0
 11
198.0130189685118
 21
57.100071740120669
 31
0.0
  0
ARC
  5
68
  8
0
 10
198.0130189685118
 20
53.100071740120669
 30
0.0
 40
3.999999999999996
 50
89.999999999999815
 51
139.9947991151397
  0
ARC
  5
69
  8
0
 10
187.28921367374821
 20
62.100071740120669
 30
0.0
 40
10.0
 50
40.005200884860223
 51
139.9947991151397
  0
ARC
  5
6A
  8
0
 10
176.5654083789845
 20
53.100071740120669
 30
0.0
 40
3.999999999999996
 50
40.005200884860237
 51
90.000000000000185
  0
LINE
  5
6B
  8
0
 10
168.78921367374809
 20
57.100071740120669
 30
0.0
 11
176.5654083789845
 21
57.100071740120669
 31
0.0
  0
ARC
  5
6C
  8
0
 10
176.5654083789845
 20
71.100071740120669
 30
0.0
 40
3.999999999999996
 50
269.99999999999977
 51
319.99479911513981
  0
ARC
  5
6D
  8
0
 10
168.78921367374809
 20
65.600071740120669
 30
0.0
 40
1.5
 50
90.0
 51
180.0
  0
ARC
  5
6E
  8
0
 10
168.78921367374809
 20
58.600071740120669
 30
0.0
 40
1.5
 50
180.0
 51
270.0
  0
LINE
  5
6F
  8
0
 10
168.78921367374809
 20
67.100071740120669
 30
0.0
 11
176.5654083789845
 21
67.100071740120669
 31
0.0
  0
LINE
  5
70
  8
0
 10
167.28921367374821
 20
58.600071740120669
 30
0.0
 11
167.28921367374821
 21
65.600071740120669
 31
0.0
  0
ARC
  5
71
  8
0
 10
187.28921367374821
 20
62.100071740120669
 30
0.0
 40
10.0
 50
220.0052008848601
 51
319.99479911513993
  0
LINE
  5
72
  8
1
 10
212.28921367374821
 20
205.35030558502649
 30
0.0
 11
162.28921367374821
 21
205.35030558502649
 31
0.0
  0
LINE
  5
73
  8
1
 10
187.28921367374821
 20
220.35030558502649
 30
0.0
 11
187.28921367374821
 21
190.35030558502649
 31
0.0
  0
LINE
  5
74
  8
1
 10
212.28921367374821
 20
62.10007174012064
 30
0.0
 11
162.28921367374821
 21
62.100071740120669
 31
0.0
  0
LINE
  5
75
  8
1
 10
187.28921367374821
 20
77.10007174012064
 30
0.0
 11
187.28921367374821
 21
47.10007174012064
 31
0.0
  0
LINE
  5
76
  8
1
 10
273.63352990234551
 20
163.5562410186119
 30
0.0
 11
273.63352990234551
 21
108.0562410186118
 31
0.0
  0
LINE
  5
77
  8
0
 10
277.63352990234551
 20
114.2562410186118
 30
0.0
 11
269.63352990234551
 21
114.2562410186118
 31
0.0
  0
LINE
  5
78
  8
0
 10
265.63352990234551
 20
143.0562410186119
 30
0.0
 11
281.63352990234551
 21
143.0562410186119
 31
0.0
  0
LINE
  5
79
  8
0
 10
277.63352990234551
 20
143.0562410186119
 30
0.0
 11
277.63352990234551
 21
114.2562410186118
 31
0.0
  0
LINE
  5
7A
  8
0
 10
276.43352990234553
 20
113.0562410186118
 30
0.0
 11
270.83352990234562
 21
113.0562410186118
 31
0.0
  0
LINE
  5
7B
  8
0
 10
269.63352990234551
 20
114.2562410186118
 30
0.0
 11
270.83352990234562
 21
113.0562410186118
 31
0.0
  0
LINE
  5
7C
  8
0
 10
276.43352990234553
 20
113.0562410186118
 30
0.0
 11
277.63352990234551
 21
114.2562410186118
 31
0.0
  0
LINE
  5
7D
  8
3
 10
270.31002990234532
 20
113.5797410186119
 30
0.0
 11
270.31002990234532
 21
136.05624101861179
 31
0.0
  0
LINE
  5
7E
  8
0
 10
277.63352990234551
 20
136.05624101861179
 30
0.0
 11
269.63352990234551
 21
136.05624101861179
 31
0.0
  0
LINE
  5
7F
  8
0
 10
269.63352990234551
 20
114.2562410186118
 30
0.0
 11
269.63352990234551
 21
143.0562410186119
 31
0.0
  0
LINE
  5
80
  8
3
 10
276.95702990234571
 20
136.05624101861179
 30
0.0
 11
276.95702990234571
 21
113.5797410186119
 31
0.0
  0
LINE
  5
81
  8
0
 10
268.63352990234551
 20
156.5562410186119
 30
0.0
 11
265.38352990234551
 21
156.5562410186119
 31
0.0
  0
LINE
  5
82
  8
0
 10
278.63352990234551
 20
146.0562410186119
 30
0.0
 11
283.63352990234551
 21
146.0562410186119
 31
0.0
  0
ARC
  5
83
  8
0
 10
281.88352990234551
 20
154.8062410186119
 30
0.0
 40
1.75
 50
0.0
 51
90.0
  0
ARC
  5
84
  8
0
 10
265.38352990234551
 20
154.8062410186119
 30
0.0
 40
1.75
 50
90.0
 51
179.99999999999989
  0
LINE
  5
85
  8
0
 10
263.63352990234551
 20
154.8062410186119
 30
0.0
 11
263.63352990234551
 21
146.0562410186119
 31
0.0
  0
LINE
  5
86
  8
0
 10
283.63352990234551
 20
146.0562410186119
 30
0.0
 11
283.63352990234551
 21
154.8062410186119
 31
0.0
  0
LINE
  5
87
  8
0
 10
263.63352990234551
 20
146.0562410186119
 30
0.0
 11
268.63352990234551
 21
146.0562410186119
 31
0.0
  0
LINE
  5
88
  8
0
 10
281.88352990234551
 20
156.5562410186119
 30
0.0
 11
278.63352990234551
 21
156.5562410186119
 31
0.0
  0
ARC
  5
89
  8
0
 10
277.13352990234551
 20
157.0562410186119
 30
0.0
 40
1.5
 50
0.0
 51
89.999999999999915
  0
ARC
  5
8A
  8
0
 10
277.13352990234551
 20
145.5562410186119
 30
0.0
 40
1.5
 50
270.0
 51
0.0
  0
ARC
  5
8B
  8
0
 10
270.13352990234551
 20
145.5562410186119
 30
0.0
 40
1.5
 50
180.0
 51
269.99999999999989
  0
ARC
  5
8C
  8
0
 10
270.13352990234551
 20
157.0562410186119
 30
0.0
 40
1.5
 50
90.0
 51
179.99999999999989
  0
LINE
  5
8D
  8
0
 10
268.63352990234551
 20
157.0562410186119
 30
0.0
 11
268.63352990234551
 21
145.5562410186119
 31
0.0
  0
LINE
  5
8E
  8
0
 10
277.13352990234551
 20
158.5562410186119
 30
0.0
 11
270.13352990234551
 21
158.5562410186119
 31
0.0
  0
LINE
  5
8F
  8
0
 10
278.63352990234551
 20
145.5562410186119
 30
0.0
 11
278.63352990234551
 21
157.0562410186119
 31
0.0
  0
LINE
  5
90
  8
0
 10
270.13352990234551
 20
144.0562410186119
 30
0.0
 11
277.13352990234551
 21
144.0562410186119
 31
0.0
  0
LINE
  5
91
  8
1
 10
187.28921367374821
 20
161.5562410186119
 30
0.0
 11
187.28921367374821
 21
108.0562410186118
 31
0.0
  0
LINE
  5
92
  8
0
 10
282.13352990234551
 20
146.0562410186119
 30
0.0
 11
281.63352990234551
 21
143.0562410186119
 31
0.0
  0
LINE
  5
93
  8
0
 10
265.1335299023454
 20
146.0562410186119
 30
0.0
 11
265.63352990234551
 21
143.0562410186119
 31
0.0
  0
LINE
  5
94
  8
0
 10
110.8072945189777
 20
146.0562410186119
 30
0.0
 11
110.3072945189777
 21
143.0562410186119
 31
0.0
  0
LINE
  5
95
  8
0
 10
93.807294518977685
 20
146.0562410186119
 30
0.0
 11
94.307294518977685
 21
143.0562410186119
 31
0.0
  0
LINE
  5
96
  8
0
 10
105.8072945189777
 20
144.0562410186119
 30
0.0
 11
98.807294518977685
 21
144.0562410186119
 31
0.0
  0
LINE
  5
97
  8
0
 10
97.307294518977685
 20
145.5562410186119
 30
0.0
 11
97.307294518977685
 21
157.0562410186119
 31
0.0
  0
LINE
  5
98
  8
0
 10
98.807294518977685
 20
158.5562410186119
 30
0.0
 11
105.8072945189777
 21
158.5562410186119
 31
0.0
  0
LINE
  5
99
  8
0
 10
107.3072945189777
 20
157.0562410186119
 30
0.0
 11
107.3072945189777
 21
145.5562410186119
 31
0.0
  0
ARC
  5
9A
  8
0
 10
105.8072945189777
 20
157.0562410186119
 30
0.0
 40
1.5
 50
0.0000000000000763
 51
90.000000000000028
  0
ARC
  5
9B
  8
0
 10
105.8072945189777
 20
145.5562410186119
 30
0.0
 40
1.5
 50
270.00000000000011
 51
0.0000000000000254
  0
ARC
  5
9C
  8
0
 10
98.807294518977685
 20
145.5562410186119
 30
0.0
 40
1.5
 50
180.0
 51
270.00000000000011
  0
ARC
  5
9D
  8
0
 10
98.807294518977685
 20
157.0562410186119
 30
0.0
 40
1.5
 50
90.000000000000114
 51
180.0
  0
LINE
  5
9E
  8
0
 10
94.057294518977685
 20
156.5562410186119
 30
0.0
 11
97.307294518977685
 21
156.5562410186119
 31
0.0
  0
LINE
  5
9F
  8
0
 10
112.3072945189777
 20
146.0562410186119
 30
0.0
 11
107.3072945189777
 21
146.0562410186119
 31
0.0
  0
LINE
  5
A0
  8
0
 10
92.307294518977685
 20
146.0562410186119
 30
0.0
 11
92.307294518977685
 21
154.8062410186119
 31
0.0
  0
LINE
  5
A1
  8
0
 10
112.3072945189777
 20
154.8062410186119
 30
0.0
 11
112.3072945189777
 21
146.0562410186119
 31
0.0
  0
ARC
  5
A2
  8
0
 10
110.5572945189777
 20
154.8062410186119
 30
0.0
 40
1.75
 50
0.0000000000000763
 51
90.000000000000028
  0
ARC
  5
A3
  8
0
 10
94.057294518977685
 20
154.8062410186119
 30
0.0
 40
1.75
 50
90.000000000000028
 51
180.0
  0
LINE
  5
A4
  8
0
 10
97.307294518977685
 20
146.0562410186119
 30
0.0
 11
92.307294518977685
 21
146.0562410186119
 31
0.0
  0
LINE
  5
A5
  8
0
 10
107.3072945189777
 20
156.5562410186119
 30
0.0
 11
110.5572945189777
 21
156.5562410186119
 31
0.0
  0
LINE
  5
A6
  8
3
 10
98.98379451897749
 20
136.05624101861179
 30
0.0
 11
98.98379451897749
 21
113.5797410186119
 31
0.0
  0
LINE
  5
A7
  8
0
 10
106.3072945189777
 20
114.2562410186118
 30
0.0
 11
106.3072945189777
 21
143.0562410186119
 31
0.0
  0
LINE
  5
A8
  8
0
 10
98.307294518977685
 20
136.05624101861179
 30
0.0
 11
106.3072945189777
 21
136.05624101861179
 31
0.0
  0
LINE
  5
A9
  8
3
 10
105.63079451897779
 20
113.5797410186119
 30
0.0
 11
105.63079451897779
 21
136.05624101861179
 31
0.0
  0
LINE
  5
AA
  8
0
 10
99.50729451897773
 20
113.0562410186118
 30
0.0
 11
98.307294518977685
 21
114.2562410186118
 31
0.0
  0
LINE
  5
AB
  8
0
 10
106.3072945189777
 20
114.2562410186118
 30
0.0
 11
105.1072945189776
 21
113.0562410186118
 31
0.0
  0
LINE
  5
AC
  8
0
 10
99.50729451897773
 20
113.0562410186118
 30
0.0
 11
105.1072945189776
 21
113.0562410186118
 31
0.0
  0
LINE
  5
AD
  8
0
 10
98.307294518977685
 20
143.0562410186119
 30
0.0
 11
98.307294518977685
 21
114.2562410186118
 31
0.0
  0
LINE
  5
AE
  8
0
 10
110.3072945189777
 20
143.0562410186119
 30
0.0
 11
94.307294518977685
 21
143.0562410186119
 31
0.0
  0
LINE
  5
AF
  8
0
 10
98.307294518977685
 20
114.2562410186118
 30
0.0
 11
106.3072945189777
 21
114.2562410186118
 31
0.0
  0
LINE
  5
B0
  8
1
 10
102.3072945189777
 20
163.5562410186119
 30
0.0
 11
102.3072945189777
 21
108.0562410186118
 31
0.0
  0
LINE
  5
B1
  8
0
 10
178.82705849532701
 20
145.82917208913909
 30
0.0
 11
179.28921367374821
 21
143.0562410186119
 31
0.0
  0
LINE
  5
B2
  8
0
 10
179.28921367374821
 20
143.0562410186119
 30
0.0
 11
195.28921367374821
 21
143.0562410186119
 31
0.0
  0
LINE
  5
B3
  8
0
 10
195.75136885216929
 20
145.82917208913909
 30
0.0
 11
195.28921367374821
 21
143.0562410186119
 31
0.0
  0
CIRCLE
  5
B4
  8
0
 10
174.78921367374821
 20
62.100071740120661
 30
0.0
 40
1.75
  0
LINE
  5
B5
  8
1
 10
174.78921367374821
 20
66.850071740120654
 30
0.0
 11
174.78921367374821
 21
57.350071740120647
 31
0.0
  0
LINE
  5
B6
  8
1
 10
199.78921367374821
 20
66.850071740120654
 30
0.0
 11
199.78921367374821
 21
57.350071740120647
 31
0.0
  0
CIRCLE
  5
B7
  8
0
 10
199.78921367374821
 20
62.100071740120661
 30
0.0
 40
1.75
  0
LINE
  5
B8
  8
2
 10
201.53921367374821
 20
151.3062410186119
 30
0.0
 11
198.03921367374821
 21
151.3062410186119
 31
0.0
  0
LINE
  5
B9
  8
2
 10
198.03921367374821
 20
145.51216923752131
 30
0.0
 11
198.03921367374821
 21
151.3062410186119
 31
0.0
  0
LINE
  5
BA
  8
2
 10
201.53921367374821
 20
144.8767475744381
 30
0.0
 11
201.53921367374821
 21
151.3062410186119
 31
0.0
  0
LINE
  5
BB
  8
1
 10
199.78921367374821
 20
154.3062410186119
 30
0.0
 11
199.78921367374821
 21
142.21742735665791
 31
0.0
  0
LINE
  5
BC
  8
1
 10
174.78921367374809
 20
154.3062410186119
 30
0.0
 11
174.78921367374809
 21
142.21742735665791
 31
0.0
  0
LINE
  5
BD
  8
2
 10
173.03921367374821
 20
144.8767475744381
 30
0.0
 11
173.03921367374821
 21
151.3062410186119
 31
0.0
  0
LINE
  5
BE
  8
2
 10
176.53921367374821
 20
145.51216923752131
 30
0.0
 11
176.53921367374821
 21
151.3062410186119
 31
0.0
  0
LINE
  5
BF
  8
2
 10
173.03921367374809
 20
151.3062410186119
 30
0.0
 11
176.53921367374809
 21
151.3062410186119
 31
0.0
  0
TEXT
  5
24C
  8
0
 62
     3
 10
0.0
 20
0.0
 30
0.0
 40
10.0
  1
TMY830
  7
STANDARD1
  0
ENDSEC
  0
EOF
