  0
SECTION
  2
HEADER
  9
$ACADVER
  1
AC1009
  9
$INSBASE
 10
0.0
 20
0.0
 30
0.0
  9
$EXTMIN
 10
0.0
 20
-2.960436562073669
 30
0.0
  9
$EXTMAX
 10
210.56497562926489
 20
205.23599550588401
 30
0.0
  9
$LIMMIN
 10
0.0
 20
0.0
  9
$LIMMAX
 10
187.5
 20
135.0
  9
$ORTHOMODE
 70
     1
  9
$REGENMODE
 70
     1
  9
$FILLMODE
 70
     1
  9
$QTEXTMODE
 70
     0
  9
$MIRRTEXT
 70
     0
  9
$DRAGMODE
 70
     2
  9
$LTSCALE
 40
5.0
  9
$OSMODE
 70
    37
  9
$ATTMODE
 70
     1
  9
$TEXTSIZE
 40
0.2
  9
$TRACEWID
 40
0.05
  9
$TEXTSTYLE
  7
STANDARD
  9
$CLAYER
  8
0
  9
$CELTYPE
  6
BYLAYER
  9
$CECOLOR
 62
   256
  9
$DIMSCALE
 40
1.0
  9
$DIMASZ
 40
3.0
  9
$DIMEXO
 40
2.0
  9
$DIMDLI
 40
0.3799999999999999
  9
$DIMRND
 40
0.0
  9
$DIMDLE
 40
0.0
  9
$DIMEXE
 40
2.0
  9
$DIMTP
 40
0.0
  9
$DIMTM
 40
0.0
  9
$DIMTXT
 40
3.2000000000000002
  9
$DIMCEN
 40
0.0
  9
$DIMTSZ
 40
0.0
  9
$DIMTOL
 70
     0
  9
$DIMLIM
 70
     0
  9
$DIMTIH
 70
     0
  9
$DIMTOH
 70
     0
  9
$DIMSE1
 70
     0
  9
$DIMSE2
 70
     0
  9
$DIMTAD
 70
     1
  9
$DIMZIN
 70
     8
  9
$DIMBLK
  1

  9
$DIMASO
 70
     0
  9
$DIMSHO
 70
     0
  9
$DIMPOST
  1

  9
$DIMAPOST
  1

  9
$DIMALT
 70
     0
  9
$DIMALTD
 70
     2
  9
$DIMALTF
 40
25.399999999999999
  9
$DIMLFAC
 40
1.0
  9
$DIMTOFL
 70
     0
  9
$DIMTVP
 40
1.6000000000000001
  9
$DIMTIX
 70
     0
  9
$DIMSOXD
 70
     0
  9
$DIMSAH
 70
     0
  9
$DIMBLK1
  1

  9
$DIMBLK2
  1

  9
$DIMSTYLE
  2
STANDARD
  9
$DIMCLRD
 70
     0
  9
$DIMCLRE
 70
     0
  9
$DIMCLRT
 70
     0
  9
$DIMTFAC
 40
1.0
  9
$DIMGAP
 40
1.0
  9
$LUNITS
 70
     2
  9
$LUPREC
 70
     1
  9
$SKETCHINC
 40
0.1
  9
$FILLETRAD
 40
0.4
  9
$AUNITS
 70
     0
  9
$AUPREC
 70
     1
  9
$MENU
  1
E:\r13\win\SUPPORT\ACAD
  9
$ELEVATION
 40
0.0
  9
$PELEVATION
 40
0.0
  9
$THICKNESS
 40
0.0
  9
$LIMCHECK
 70
     0
  9
$BLIPMODE
 70
     0
  9
$CHAMFERA
 40
0.0
  9
$CHAMFERB
 40
0.0
  9
$SKPOLY
 70
     0
  9
$TDCREATE
 40
2456129.6740617128
  9
$TDUPDATE
 40
2458837.7111638431
  9
$TDINDWG
 40
0.6974459954
  9
$TDUSRTIMER
 40
0.6974458218
  9
$USRTIMER
 70
     1
  9
$ANGBASE
 50
0.0
  9
$ANGDIR
 70
     0
  9
$PDMODE
 70
     0
  9
$PDSIZE
 40
0.0
  9
$PLINEWID
 40
0.0
  9
$COORDS
 70
     1
  9
$SPLFRAME
 70
     0
  9
$SPLINETYPE
 70
     6
  9
$SPLINESEGS
 70
     8
  9
$ATTDIA
 70
     0
  9
$ATTREQ
 70
     1
  9
$HANDLING
 70
     1
  9
$HANDSEED
  5
C450
  9
$SURFTAB1
 70
     6
  9
$SURFTAB2
 70
     6
  9
$SURFTYPE
 70
     6
  9
$SURFU
 70
     6
  9
$SURFV
 70
     6
  9
$UCSNAME
  2

  9
$UCSORG
 10
0.0
 20
0.0
 30
0.0
  9
$UCSXDIR
 10
1.0
 20
0.0
 30
0.0
  9
$UCSYDIR
 10
0.0
 20
1.0
 30
0.0
  9
$PUCSNAME
  2

  9
$PUCSORG
 10
0.0
 20
0.0
 30
0.0
  9
$PUCSXDIR
 10
1.0
 20
0.0
 30
0.0
  9
$PUCSYDIR
 10
0.0
 20
1.0
 30
0.0
  9
$USERI1
 70
     0
  9
$USERI2
 70
     1
  9
$USERI3
 70
     0
  9
$USERI4
 70
     0
  9
$USERI5
 70
     0
  9
$USERR1
 40
0.0
  9
$USERR2
 40
0.0
  9
$USERR3
 40
0.0
  9
$USERR4
 40
0.0
  9
$USERR5
 40
0.0
  9
$WORLDVIEW
 70
     1
  9
$SHADEDGE
 70
     3
  9
$SHADEDIF
 70
    70
  9
$TILEMODE
 70
     1
  9
$MAXACTVP
 70
    16
  9
$PLIMCHECK
 70
     0
  9
$PEXTMIN
 10
1.0000000000000000E+020
 20
1.0000000000000000E+020
 30
1.0000000000000000E+020
  9
$PEXTMAX
 10
-1.0000000000000000E+020
 20
-1.0000000000000000E+020
 30
-1.0000000000000000E+020
  9
$PLIMMIN
 10
0.0
 20
0.0
  9
$PLIMMAX
 10
12.0
 20
9.0
  9
$UNITMODE
 70
     0
  9
$VISRETAIN
 70
     0
  9
$PLINEGEN
 70
     0
  9
$PSLTSCALE
 70
     0
  0
ENDSEC
  0
SECTION
  2
TABLES
  0
TABLE
  2
VPORT
 70
     1
  0
VPORT
  2
*ACTIVE
 70
     0
 10
0.0
 20
0.0
 11
1.0
 21
1.0
 12
362.34662576687123
 22
150.0
 13
0.0
 23
0.0
 14
5.0
 24
5.0
 15
5.0
 25
5.0
 16
0.0
 26
0.0
 36
1.0
 17
0.0
 27
0.0
 37
0.0
 40
300.0
 41
2.415644171779141
 42
50.0
 43
0.0
 44
0.0
 50
0.0
 51
0.0
 71
     0
 72
   500
 73
     1
 74
     0
 75
     0
 76
     0
 77
     0
 78
     2
  0
ENDTAB
  0
TABLE
  2
LTYPE
 70
     4
  0
LTYPE
  2
CONTINUOUS
 70
     0
  3
Solid Line
 72
    65
 73
     0
 40
0.0
  0
LTYPE
  2
CENTER
 70
     0
  3
____ _ ____ _ ____ _ ____ _ ____ _ ____ _ ____
 72
    65
 73
     4
 40
2.0
 49
1.25
 49
-0.25
 49
0.25
 49
-0.25
  0
LTYPE
  2
PHANTOM2
 70
     0
  3
___ _ _ ___ _ _ ___ _ _ ___ _ _
 72
    65
 73
     6
 40
1.25
 49
0.625
 49
-0.125
 49
0.125
 49
-0.125
 49
0.125
 49
-0.125
  0
LTYPE
  2
HIDDEN
 70
     0
  3
_ _ _ _ _ _ _ _ _ _ _ _ _ _ _ _ _ _ _ _ _ _ _
 72
    65
 73
     2
 40
0.375
 49
0.25
 49
-0.125
  0
ENDTAB
  0
TABLE
  2
LAYER
 70
     4
  0
LAYER
  2
0
 70
     0
 62
     7
  6
CONTINUOUS
  0
LAYER
  2
1
 70
     0
 62
     1
  6
CENTER
  0
LAYER
  2
DEFPOINTS
 70
     0
 62
     7
  6
CONTINUOUS
  0
LAYER
  2
2
 70
     0
 62
     2
  6
HIDDEN
  0
ENDTAB
  0
TABLE
  2
STYLE
 70
     2
  0
STYLE
  2
STANDARD
 70
     0
 40
0.0
 41
1.0
 50
0.0
 71
     0
 42
0.2
  3
TXT
  4
BIGFONT
  0
STYLE
  2
STANDARD1
 70
     0
 40
0.0
 41
1.0
 50
0.0
 71
     0
 42
3.0
  3
txt
  4

  0
ENDTAB
  0
TABLE
  2
VIEW
 70
     0
  0
ENDTAB
  0
TABLE
  2
UCS
 70
     0
  0
ENDTAB
  0
TABLE
  2
APPID
 70
    45
  0
APPID
  2
ACAD
 70
     0
  0
APPID
  2
ACAD_MLEADERVER
 70
     0
  0
APPID
  2
ACAD_PSEXT
 70
     0
  0
APPID
  2
ACAD_EXEMPT_FROM_CAD_STANDARDS
 70
     0
  0
APPID
  2
ACAD_DSTYLE_DIMJAG
 70
     0
  0
APPID
  2
ACAD_DSTYLE_DIMTALN
 70
     0
  0
APPID
  2
ACAD_NAV_VCDISPLAY
 70
     0
  0
APPID
  2
GENIUS_GENODEF_13
 70
     0
  0
APPID
  2
GENIUS_GENFIL_13
 70
     0
  0
APPID
  2
GENIUS_GENOBJ-N-CHA_13
 70
     0
  0
APPID
  2
ACAD_DSTYLE_DIMRADIAL_EXTENSION
 70
     0
  0
APPID
  2
GENIUS_GENOREF_13
 70
     0
  0
APPID
  2
DCO15
 70
     0
  0
APPID
  2
GENIUS_GENOENT_13
 70
     0
  0
APPID
  2
GENIUS_GENBH_13
 70
     0
  0
APPID
  2
GENIUS_GENOBJ_13
 70
     0
  0
APPID
  2
GENIUS_GENOLIS_13
 70
     0
  0
APPID
  2
GENIUS_GENOBJ-NBEHI-BHF_13
 70
     0
  0
APPID
  2
GENIUS_GENOBJ-NBEHI-BHB_13
 70
     0
  0
APPID
  2
GENIUS_GENOBJ-F-PART_13
 70
     0
  0
APPID
  2
GENIUS_GEFSTDP_13
 70
     0
  0
APPID
  2
GENIUS_GENOBJ-N-RSSYM_13
 70
     0
  0
APPID
  2
GENIUS_GENSYMENT_13
 70
     0
  0
APPID
  2
GENIUS_GENOBJ-N-TIT_13
 70
     0
  0
APPID
  2
GENIUS_GENTITLE_13
 70
     0
  0
APPID
  2
GENIUS_GENZVEED_13
 70
     0
  0
APPID
  2
GENIUS_GENOBJ-N-LEADER_13
 70
     0
  0
APPID
  2
GENIUS_GENOBJ-N-FIL_13
 70
     0
  0
APPID
  2
GENIUS_GENOBJ-N-SEC_13
 70
     0
  0
APPID
  2
GENIUS_GENOBJ-N-CRS_13
 70
     0
  0
APPID
  2
GENIUS_GENOBJ-N-ZOO_13
 70
     0
  0
APPID
  2
GENIUS_GENZOO_13
 70
     0
  0
APPID
  2
GENIUS_GENOBJ-F-TOL_13
 70
     0
  0
APPID
  2
_CALL_MAC$
 70
     0
  0
APPID
  2
ASM_BASE
 70
     0
  0
APPID
  2
ASM_EXPLO_VER_2_00
 70
     0
  0
APPID
  2
ASM_CADM_VER_12_00
 70
     0
  0
APPID
  2
ASM_BASEFORO
 70
     0
  0
APPID
  2
ASM_BASETRAVI
 70
     0
  0
APPID
  2
ASM_BASETRAVI1
 70
     0
  0
APPID
  2
ASM_GRUPPI
 70
     0
  0
APPID
  2
ASM_CADM_ALBERO
 70
     0
  0
APPID
  2
ASM_GOLE
 70
     0
  0
APPID
  2
GENIUS_GENOBJ-N-CEN_13
 70
     0
  0
APPID
  2
GENIUS_GENCEN_19
 70
     0
  0
ENDTAB
  0
TABLE
  2
DIMSTYLE
 70
     1
  0
DIMSTYLE
  2
STANDARD
 70
     0
  3

  4

  5

  6

  7

 40
1.0
 41
0.18
 42
0.0625
 43
0.38
 44
0.18
 45
0.0
 46
0.0
 47
0.0
 48
0.0
140
0.18
141
0.09
142
0.0
143
25.399999999999999
144
1.0
145
0.0
146
1.0
147
0.09
 71
     0
 72
     0
 73
     1
 74
     1
 75
     0
 76
     0
 77
     0
 78
     0
170
     0
171
     2
172
     0
173
     0
174
     0
175
     0
176
     0
177
     0
178
     0
  0
ENDTAB
  0
ENDSEC
  0
SECTION
  2
BLOCKS
  0
BLOCK
  8
0
  2
$MODEL_SPACE
 70
     0
 10
0.0
 20
0.0
 30
0.0
  3
$MODEL_SPACE
  1

  0
ENDBLK
  5
9
  8
0
  0
BLOCK
 67
     1
  8
0
  2
$PAPER_SPACE
 70
     0
 10
0.0
 20
0.0
 30
0.0
  3
$PAPER_SPACE
  1

  0
ENDBLK
  5
E
 67
     1
  8
0
  0
ENDSEC
  0
SECTION
  2
ENTITIES
  0
TEXT
  5
A08D
  8
0
 62
     3
 10
0.0
 20
0.0
 30
0.0
 40
10.0
  1
TLTK60M08-2
  7
STANDARD1
  0
ARC
  5
B468
  8
0
 10
176.26802402311529
 20
227.2427604108577
 30
0.0
 40
96.01330279680775
 50
199.49016327744829
 51
220.50983672254981
  0
POLYLINE
  5
B469
  8
0
 66
     1
 10
0.0
 20
0.0
 30
0.0
 70
   128
  0
VERTEX
  5
C3A5
  8
0
 10
103.2696422930356
 20
164.87457478115499
 30
0.0
  0
VERTEX
  5
C3A6
  8
0
 10
104.0043349358079
 20
163.85199356455399
 30
0.0
  0
VERTEX
  5
C3A7
  8
0
 10
104.5735605161078
 20
162.67951696795339
 30
0.0
  0
SEQEND
  5
C3A8
  8
0
  0
POLYLINE
  5
B46A
  8
0
 66
     1
 10
0.0
 20
0.0
 30
0.0
 70
   128
  0
VERTEX
  5
C3A9
  8
0
 10
97.59558805133679
 20
150.59331412515351
 30
0.0
  0
VERTEX
  5
C3AA
  8
0
 10
96.331799102650734
 20
150.4995702804363
 30
0.0
  0
VERTEX
  5
C3AB
  8
0
 10
95.042653110792685
 20
150.6250115241906
 30
0.0
  0
SEQEND
  5
C3AC
  8
0
  0
ARC
  5
B46B
  8
0
 10
77.529410832566327
 20
56.222465538439657
 30
0.0
 40
96.013302951662297
 50
79.490163294591397
 51
100.5098367054086
  0
POLYLINE
  5
B46C
  8
0
 66
     1
 10
0.0
 20
0.0
 30
0.0
 70
   128
  0
VERTEX
  5
C3AD
  8
0
 10
60.01616855433997
 20
150.6250115241906
 30
0.0
  0
VERTEX
  5
C3AE
  8
0
 10
58.763240921944551
 20
150.5000396398768
 30
0.0
  0
VERTEX
  5
C3AF
  8
0
 10
57.463233613795857
 20
150.59331412515351
 30
0.0
  0
SEQEND
  5
C3B0
  8
0
  0
POLYLINE
  5
B46D
  8
0
 66
     1
 10
0.0
 20
0.0
 30
0.0
 70
   128
  0
VERTEX
  5
C3B1
  8
0
 10
50.48526114902495
 20
162.67951696795339
 30
0.0
  0
VERTEX
  5
C3B2
  8
0
 10
51.035971072394432
 20
163.8208622248961
 30
0.0
  0
VERTEX
  5
C3B3
  8
0
 10
51.78917937209701
 20
164.87457478115499
 30
0.0
  0
SEQEND
  5
C3B4
  8
0
  0
ARC
  5
B46E
  8
0
 10
-21.20920247630556
 20
227.24276047917149
 30
0.0
 40
96.013302931143144
 50
319.49016329232251
 51
340.50983670768102
  0
POLYLINE
  5
B46F
  8
0
 66
     1
 10
0.0
 20
0.0
 30
0.0
 70
   128
  0
VERTEX
  5
C3B5
  8
0
 10
69.302421650323353
 20
195.20840021230629
 30
0.0
  0
VERTEX
  5
C3B6
  8
0
 10
69.820656639946378
 20
196.35595331322119
 30
0.0
  0
VERTEX
  5
C3B7
  8
0
 10
70.551438367795413
 20
197.435155424545
 30
0.0
  0
SEQEND
  5
C3B8
  8
0
  0
POLYLINE
  5
B470
  8
0
 66
     1
 10
0.0
 20
0.0
 30
0.0
 70
   128
  0
VERTEX
  5
C3B9
  8
0
 10
84.507383297337242
 20
197.435155424545
 30
0.0
  0
VERTEX
  5
C3BA
  8
0
 10
85.220462322653816
 20
196.38755401231941
 30
0.0
  0
VERTEX
  5
C3BB
  8
0
 10
85.756400014809387
 20
195.20840021230629
 30
0.0
  0
SEQEND
  5
C3BC
  8
0
  0
CIRCLE
  5
B471
  8
0
 10
77.529410832566327
 20
170.23599550588389
 30
0.0
 40
12.75
  0
ARC
  5
B472
  8
0
 10
77.529410832566327
 20
170.23599550588389
 30
0.0
 40
30.0
 50
327.05322785222393
 51
332.94677044402579
  0
ARC
  5
B473
  8
0
 10
96.410875163785263
 20
157.99915340061131
 30
0.0
 40
7.4999999999897229
 50
279.0886068182042
 51
327.05322274101229
  0
ARC
  5
B474
  8
0
 10
97.563307960368775
 20
160.00281685775019
 30
0.0
 40
7.5038899495666493
 50
332.9599827941683
 51
20.898180831616909
  0
ARC
  5
B475
  8
0
 10
77.529410832566327
 20
170.23599550588389
 30
0.0
 40
30.000000000000021
 50
87.053229555975662
 51
92.946770444024324
  0
ARC
  5
B476
  8
0
 10
76.372726873352917
 20
192.70624432914241
 30
0.0
 40
7.5000000008771481
 50
92.946770447024619
 51
140.91139317880601
  0
ARC
  5
B477
  8
0
 10
78.686094792217773
 20
192.7062443299973
 30
0.0
 40
7.4999999999982059
 50
39.088606818235711
 51
87.053229555975662
  0
ARC
  5
B478
  8
0
 10
77.529410832566327
 20
170.23599550588389
 30
0.0
 40
30.0
 50
207.0532313195217
 51
212.94676886666201
  0
ARC
  5
B479
  8
0
 10
57.491262541698227
 20
160.00258878703531
 30
0.0
 40
7.4999999999956231
 50
159.08860681822611
 51
207.05323661017911
  0
ARC
  5
B47A
  8
0
 10
58.650269597914637
 20
158.00272098046651
 30
0.0
 40
7.5038899495630584
 50
212.95998279415889
 51
260.89818083163118
  0
ARC
  5
B47C
  8
0
 10
233.06497562926501
 20
170.23599550588389
 30
0.0
 40
78.000000000000043
 50
189.40787376118431
 51
193.34604759116809
  0
ARC
  5
B47D
  8
0
 10
233.06497562926501
 20
170.23599550588389
 30
0.0
 40
78.000000000000057
 50
158.89980397590651
 51
170.5921262388166
  0
ARC
  5
B47E
  8
0
 10
102.739975629269
 20
169.270995505885
 30
0.0
 40
82.830621451244156
 50
10.2330072486589
 51
20.505920949938329
  0
ARC
  5
B47F
  8
0
 10
102.739975629269
 20
171.2009955058829
 30
0.0
 40
82.830621451244156
 50
346.7578911221014
 51
349.76699275134263
  0
LINE
  5
B480
  8
0
 10
159.9832151505976
 20
150.4995702804363
 30
0.0
 11
180.62870483267579
 21
150.5004297195637
 31
0.0
  0
LINE
  5
B483
  8
0
 10
184.2530459002345
 20
156.48599550588401
 30
0.0
 11
204.06497562926501
 21
156.48599550588401
 31
0.0
  0
LINE
  5
B484
  8
0
 10
204.06497562926501
 20
183.98599550588389
 30
0.0
 11
184.2530459002345
 21
183.98599550588389
 31
0.0
  0
LINE
  5
B485
  8
0
 10
155.06497562926501
 20
157.48599550588401
 30
0.0
 11
156.11409844128229
 21
157.48599550588401
 31
0.0
  0
LINE
  5
B486
  8
0
 10
156.11409844128229
 20
182.98599550588401
 30
0.0
 11
155.06497562926501
 21
182.98599550588401
 31
0.0
  0
ARC
  5
B489
  8
0
 10
177.51220908723059
 20
197.23599550588389
 30
0.0
 40
3.0000000000000142
 50
20.505920949938329
 51
90.0
  0
ARC
  5
B48A
  8
0
 10
163.0935528911215
 20
197.23599550588389
 30
0.0
 40
3.0000000000000142
 50
90.0
 51
158.89980397590739
  0
LINE
  5
B48B
  8
0
 10
177.51220908723059
 20
200.23599550588401
 30
0.0
 11
163.0935528911215
 21
200.23599550588401
 31
0.0
  0
ARC
  5
B48C
  8
0
 10
157.92591894422989
 20
169.2748042132788
 30
0.0
 40
23.334312806134459
 50
327.07441178090471
 51
343.6982609498703
  0
ARC
  5
B48D
  8
0
 10
183.55167223944829
 20
169.68402452280671
 30
0.0
 40
24.28888780377395
 50
196.76118619928849
 51
212.61800113684581
  0
POLYLINE
  5
B48E
  8
0
 66
     1
 10
0.0
 20
0.0
 30
0.0
 70
   128
  0
VERTEX
  5
C3BD
  8
0
 10
159.6299999557217
 20
164.87457478115499
 30
0.0
  0
VERTEX
  5
C3BE
  8
0
 10
159.97377976450511
 20
163.85199356455399
 30
0.0
  0
VERTEX
  5
C3BF
  8
0
 10
160.29469598159559
 20
162.67951696795339
 30
0.0
  0
SEQEND
  5
C3C0
  8
0
  0
POLYLINE
  5
B48F
  8
0
 66
     1
 10
0.0
 20
0.0
 30
0.0
 70
   128
  0
VERTEX
  5
C3C1
  8
0
 10
180.3221170686098
 20
162.72495965725659
 30
0.0
  0
VERTEX
  5
C3C2
  8
0
 10
180.62001245279291
 20
163.84237194672269
 30
0.0
  0
VERTEX
  5
C3C3
  8
0
 10
180.9571823647544
 20
164.87457478115499
 30
0.0
  0
SEQEND
  5
C3C4
  8
0
  0
ARC
  5
B490
  8
0
 10
189.4254213315092
 20
161.10825046322421
 30
0.0
 40
13.91375609674154
 50
211.1054137138494
 51
229.13594583366361
  0
ARC
  5
B491
  8
0
 10
151.01487864884061
 20
161.2410274298559
 30
0.0
 40
14.12405070609849
 50
311.07317557108178
 51
328.78016266882003
  0
LINE
  5
B492
  8
0
 10
156.11409844128229
 20
182.98599550588401
 30
0.0
 11
156.11409844128229
 21
157.48599550588389
 31
0.0
  0
POLYLINE
  5
B493
  8
0
 66
     1
 10
0.0
 20
0.0
 30
0.0
 70
   128
  0
VERTEX
  5
C3C5
  8
0
 10
159.6299999557217
 20
164.87457478115499
 30
0.0
  0
VERTEX
  5
C3C6
  8
0
 10
159.05685917055169
 20
166.53497766221801
 30
0.0
  0
VERTEX
  5
C3C7
  8
0
 10
158.55782108963569
 20
168.2405981662757
 30
0.0
  0
VERTEX
  5
C3C8
  8
0
 10
158.1314228332663
 20
170.00139263768361
 30
0.0
  0
VERTEX
  5
C3C9
  8
0
 10
157.7821752566548
 20
171.803560653169
 30
0.0
  0
VERTEX
  5
C3CA
  8
0
 10
157.5059463954081
 20
173.684807310108
 30
0.0
  0
VERTEX
  5
C3CB
  8
0
 10
157.3117413040064
 20
175.60347160477659
 30
0.0
  0
VERTEX
  5
C3CC
  8
0
 10
157.19959421373039
 20
177.571149578225
 30
0.0
  0
VERTEX
  5
C3CD
  8
0
 10
157.1714722649121
 20
179.56992390890309
 30
0.0
  0
VERTEX
  5
C3CE
  8
0
 10
157.34129778576479
 20
183.33806018384391
 30
0.0
  0
VERTEX
  5
C3CF
  8
0
 10
157.80158708144941
 20
187.1999552282166
 30
0.0
  0
VERTEX
  5
C3D0
  8
0
 10
158.56613705453611
 20
191.18317997771209
 30
0.0
  0
VERTEX
  5
C3D1
  8
0
 10
159.6299999557217
 20
195.2084002123062
 30
0.0
  0
SEQEND
  5
C3D2
  8
0
  0
POLYLINE
  5
B494
  8
0
 66
     1
 10
0.0
 20
0.0
 30
0.0
 70
   128
  0
VERTEX
  5
C3D3
  8
0
 10
160.29469598159571
 20
150.59331412515351
 30
0.0
  0
VERTEX
  5
C3D4
  8
0
 10
159.9832151505976
 20
150.4995702804363
 30
0.0
  0
VERTEX
  5
C3D5
  8
0
 10
159.6299999557217
 20
150.6250115241906
 30
0.0
  0
SEQEND
  5
C3D6
  8
0
  0
POLYLINE
  5
B495
  8
0
 66
     1
 10
0.0
 20
0.0
 30
0.0
 70
   128
  0
VERTEX
  5
C3D7
  8
0
 10
157.17146924013011
 20
152.23111594609969
 30
0.0
  0
VERTEX
  5
C3D8
  8
0
 10
157.17146924013011
 20
152.23111594609969
 30
0.0
  0
VERTEX
  5
C3D9
  8
0
 10
157.3413011789273
 20
152.12228880527309
 30
0.0
  0
VERTEX
  5
C3DA
  8
0
 10
157.80159151410419
 20
151.81747352547271
 30
0.0
  0
VERTEX
  5
C3DB
  8
0
 10
158.56614036444569
 20
151.31527820682561
 30
0.0
  0
VERTEX
  5
C3DC
  8
0
 10
159.6299999557217
 20
150.6250115241906
 30
0.0
  0
SEQEND
  5
C3DD
  8
0
  0
POLYLINE
  5
B496
  8
0
 66
     1
 10
0.0
 20
0.0
 30
0.0
 70
   128
  0
VERTEX
  5
C3DE
  8
0
 10
160.29469598159571
 20
197.435155424545
 30
0.0
  0
VERTEX
  5
C3DF
  8
0
 10
159.9832151505976
 20
196.38755401231941
 30
0.0
  0
VERTEX
  5
C3E0
  8
0
 10
159.6299999557217
 20
195.2084002123062
 30
0.0
  0
SEQEND
  5
C3E1
  8
0
  0
ARC
  5
B497
  8
0
 10
865.59498386916255
 20
-876.96385100154453
 30
0.0
 40
1234.774388151829
 50
123.5394688629172
 51
123.67379629005261
  0
POLYLINE
  5
B498
  8
0
 66
     1
 10
0.0
 20
0.0
 30
0.0
 70
   128
  0
VERTEX
  5
C3E2
  8
0
 10
180.9571823647544
 20
150.6250115241906
 30
0.0
  0
VERTEX
  5
C3E3
  8
0
 10
180.62870483267579
 20
150.5004297195637
 30
0.0
  0
VERTEX
  5
C3E4
  8
0
 10
180.32211706860431
 20
150.58577640924861
 30
0.0
  0
SEQEND
  5
C3E5
  8
0
  0
POLYLINE
  5
B499
  8
0
 66
     1
 10
0.0
 20
0.0
 30
0.0
 70
   128
  0
VERTEX
  5
C3E6
  8
0
 10
180.9571823647544
 20
195.2084002123062
 30
0.0
  0
VERTEX
  5
C3E7
  8
0
 10
181.53012368012
 20
193.12191979491561
 30
0.0
  0
VERTEX
  5
C3E8
  8
0
 10
182.02810200360659
 20
191.03706619709479
 30
0.0
  0
VERTEX
  5
C3E9
  8
0
 10
182.45222090027241
 20
188.9435659360791
 30
0.0
  0
VERTEX
  5
C3EA
  8
0
 10
182.79752181893181
 20
186.85942540541589
 30
0.0
  0
VERTEX
  5
C3EB
  8
0
 10
183.06755460479789
 20
184.74327128435701
 30
0.0
  0
VERTEX
  5
C3EC
  8
0
 10
183.25272445771751
 20
182.64520491177379
 30
0.0
  0
VERTEX
  5
C3ED
  8
0
 10
183.35241883745749
 20
180.5534069689711
 30
0.0
  0
VERTEX
  5
C3EE
  8
0
 10
183.36443551318061
 20
178.48845186846879
 30
0.0
  0
VERTEX
  5
C3EF
  8
0
 10
183.17337322097731
 20
174.94130795956181
 30
0.0
  0
VERTEX
  5
C3F0
  8
0
 10
182.71160874104061
 20
171.48945833045039
 30
0.0
  0
VERTEX
  5
C3F1
  8
0
 10
181.97026343506749
 20
168.1133281099477
 30
0.0
  0
VERTEX
  5
C3F2
  8
0
 10
180.9571823647544
 20
164.87457478115499
 30
0.0
  0
SEQEND
  5
C3F3
  8
0
  0
POLYLINE
  5
B49A
  8
0
 66
     1
 10
0.0
 20
0.0
 30
0.0
 70
   128
  0
VERTEX
  5
C3F4
  8
0
 10
180.9571823647544
 20
195.2084002123062
 30
0.0
  0
VERTEX
  5
C3F5
  8
0
 10
180.62870483267579
 20
196.33578394234721
 30
0.0
  0
VERTEX
  5
C3F6
  8
0
 10
180.32211706860431
 20
197.3972504511687
 30
0.0
  0
SEQEND
  5
C3F7
  8
0
  0
LINE
  5
B49B
  8
0
 10
184.25304590023441
 20
156.48599550588401
 30
0.0
 11
184.2530459002345
 21
183.98599550588361
 31
0.0
  0
LINE
  5
B4A2
  8
0
 10
155.06497562926501
 20
157.48599550588401
 30
0.0
 11
155.06497562926501
 21
182.98599550588401
 31
0.0
  0
ARC
  5
B4A5
  8
0
 10
163.72673062405769
 20
196.7553937171711
 30
0.0
 40
3.4987051556069702
 50
100.4265487368218
 51
168.7967783086988
  0
ARC
  5
B4A6
  8
0
 10
176.86501439764129
 20
196.73669929385511
 30
0.0
 40
3.5196429803332001
 50
10.817166663983221
 51
79.404113682897247
  0
LINE
  5
B4F4
  8
0
 10
163.0935528911215
 20
156.59145321408599
 30
0.0
 11
177.5122090872307
 21
156.59145321408599
 31
0.0
  0
LINE
  5
B4F5
  8
0
 10
177.5122090872307
 20
156.59145321408599
 30
0.0
 11
177.5122090872307
 21
153.92020603219939
 31
0.0
  0
LINE
  5
B4F6
  8
0
 10
177.5122090872307
 20
153.92020603219939
 30
0.0
 11
163.0935528911215
 21
153.92020603219939
 31
0.0
  0
LINE
  5
B4F7
  8
0
 10
163.0935528911215
 20
153.92020603219939
 30
0.0
 11
163.0935528911215
 21
156.59145321408599
 31
0.0
  0
ARC
  5
B572
  8
0
 10
76.564410832567432
 20
152.82499999999601
 30
0.0
 40
82.830621451244156
 50
280.23300724865999
 51
285.74626694403941
  0
ARC
  5
B573
  8
0
 10
78.494410832565336
 20
152.82499999999601
 30
0.0
 40
82.830621451244156
 50
254.2759914228476
 51
259.76699275134001
  0
ARC
  5
B574
  8
0
 10
77.529410832566327
 20
22.499999999999989
 30
0.0
 40
78.000000000000014
 50
74.011711076645341
 51
80.592126238816491
  0
ARC
  5
B575
  8
0
 10
77.529410832566327
 20
22.499999999999989
 30
0.0
 40
78.000000000000014
 50
99.407873761183524
 51
105.993349413858
  0
LINE
  5
B578
  8
0
 10
63.779410832566327
 20
71.311929729030567
 30
0.0
 11
63.779410832566327
 21
51.5
 31
0.0
  0
LINE
  5
B579
  8
0
 10
91.279410832566356
 20
51.5
 30
0.0
 11
91.279410832566327
 21
71.311929729030567
 31
0.0
  0
LINE
  5
B57A
  8
0
 10
50.0
 20
94.460528813557289
 30
0.0
 11
50.018408956956357
 21
75.946739078453561
 31
0.0
  0
LINE
  5
B57B
  8
0
 10
105.06379125221819
 20
76.333118210344878
 30
0.0
 11
105.0670797234568
 21
94.261664713894447
 31
0.0
  0
LINE
  5
B57C
  8
0
 10
64.779410832566327
 20
100.5
 30
0.0
 11
64.779410832566327
 21
99.450877187982684
 31
0.0
  0
LINE
  5
B57D
  8
0
 10
90.279410832566327
 20
99.450877187982684
 30
0.0
 11
90.279410832566327
 21
100.5
 31
0.0
  0
ARC
  5
B580
  8
0
 10
77.529410832555754
 20
136.99465793010489
 30
0.0
 40
64.798414624891876
 50
254.31950545269891
 51
285.68049454732142
  0
ARC
  5
B581
  8
0
 10
77.529410832566327
 20
34.872967740221092
 30
0.0
 40
63.523873212714072
 50
73.996537779772765
 51
106.00346222022721
  0
POLYLINE
  5
B582
  8
0
 66
     1
 10
0.0
 20
0.0
 30
0.0
 70
   128
  0
VERTEX
  5
C3F8
  8
0
 10
57.511354409290902
 20
75.242858560655236
 30
0.0
  0
VERTEX
  5
C3F9
  8
0
 10
58.752036210816982
 20
74.944963176471873
 30
0.0
  0
VERTEX
  5
C3FA
  8
0
 10
60.016168554340076
 20
74.607793264504693
 30
0.0
  0
SEQEND
  5
C3FB
  8
0
  0
POLYLINE
  5
B583
  8
0
 66
     1
 10
0.0
 20
0.0
 30
0.0
 70
   128
  0
VERTEX
  5
C3FC
  8
0
 10
95.042653110792685
 20
74.607793264510633
 30
0.0
  0
VERTEX
  5
C3FD
  8
0
 10
96.272516372393525
 20
74.936270796589213
 30
0.0
  0
VERTEX
  5
C3FE
  8
0
 10
97.547467255865286
 20
75.242858560660608
 30
0.0
  0
SEQEND
  5
C3FF
  8
0
  0
POLYLINE
  5
B584
  8
0
 66
     1
 10
0.0
 20
0.0
 30
0.0
 70
   128
  0
VERTEX
  5
C400
  8
0
 10
104.5560279718236
 20
75.242858560655236
 30
0.0
  0
VERTEX
  5
C401
  8
0
 10
104.01007922712991
 20
74.944963176472044
 30
0.0
  0
VERTEX
  5
C402
  8
0
 10
103.2696422930356
 20
74.607793264510633
 30
0.0
  0
SEQEND
  5
C403
  8
0
  0
POLYLINE
  5
B585
  8
0
 66
     1
 10
0.0
 20
0.0
 30
0.0
 70
   128
  0
VERTEX
  5
C404
  8
0
 10
99.042797798051424
 20
73.10276991685501
 30
0.0
  0
VERTEX
  5
C405
  8
0
 10
100.6222523647813
 20
73.594712194197513
 30
0.0
  0
VERTEX
  5
C406
  8
0
 10
103.2696422930356
 20
74.607793264510633
 30
0.0
  0
SEQEND
  5
C407
  8
0
  0
ARC
  5
B586
  8
0
 10
64.701845684859791
 20
104.18305553875081
 30
0.0
 40
32.271242459732562
 50
246.41374458252989
 51
254.44336432505301
  0
POLYLINE
  5
B587
  8
0
 66
     1
 10
0.0
 20
0.0
 30
0.0
 70
   128
  0
VERTEX
  5
C408
  8
0
 10
51.78917937209701
 20
74.60779326451069
 30
0.0
  0
VERTEX
  5
C409
  8
0
 10
51.066356733640418
 20
74.936270796589213
 30
0.0
  0
VERTEX
  5
C40A
  8
0
 10
50.502793693300532
 20
75.242858560660608
 30
0.0
  0
SEQEND
  5
C40B
  8
0
  0
LINE
  5
B588
  8
0
 10
63.779410832566782
 20
71.311929729030567
 30
0.0
 11
91.279410832566327
 21
71.311929729030567
 31
0.0
  0
LINE
  5
B589
  8
0
 10
90.279410832566441
 20
99.450877187982712
 30
0.0
 11
64.779410832566327
 21
99.450877187982684
 31
0.0
  0
ARC
  5
B58A
  8
0
 10
90.418697687400694
 20
67.225341581824253
 30
0.0
 40
31.454568299970369
 50
65.885858759849199
 51
74.141981607135634
  0
POLYLINE
  5
B58B
  8
0
 66
     1
 10
0.0
 20
0.0
 30
0.0
 70
   128
  0
VERTEX
  5
C40C
  8
0
 10
103.2696422930356
 20
95.934975673543377
 30
0.0
  0
VERTEX
  5
C40D
  8
0
 10
104.0043349358079
 20
95.591195864759854
 30
0.0
  0
VERTEX
  5
C40E
  8
0
 10
104.5735605161078
 20
95.270279647669426
 30
0.0
  0
SEQEND
  5
C40F
  8
0
  0
POLYLINE
  5
B58C
  8
0
 66
     1
 10
0.0
 20
0.0
 30
0.0
 70
   128
  0
VERTEX
  5
C410
  8
0
 10
97.59558805133679
 20
95.270279647669284
 30
0.0
  0
VERTEX
  5
C411
  8
0
 10
96.331799102650834
 20
95.581760478667348
 30
0.0
  0
VERTEX
  5
C412
  8
0
 10
95.042653110792685
 20
95.934975673543377
 30
0.0
  0
SEQEND
  5
C413
  8
0
  0
POLYLINE
  5
B58D
  8
0
 66
     1
 10
0.0
 20
0.0
 30
0.0
 70
   128
  0
VERTEX
  5
C414
  8
0
 10
60.016168554340076
 20
95.934975673543377
 30
0.0
  0
VERTEX
  5
C415
  8
0
 10
58.76324092194465
 20
95.591195864759854
 30
0.0
  0
VERTEX
  5
C416
  8
0
 10
57.463233613795857
 20
95.270279647669284
 30
0.0
  0
SEQEND
  5
C417
  8
0
  0
POLYLINE
  5
B58E
  8
0
 66
     1
 10
0.0
 20
0.0
 30
0.0
 70
   128
  0
VERTEX
  5
C418
  8
0
 10
50.48526114902495
 20
95.270279647669426
 30
0.0
  0
VERTEX
  5
C419
  8
0
 10
51.035971072394432
 20
95.581760478667348
 30
0.0
  0
VERTEX
  5
C41A
  8
0
 10
51.78917937209701
 20
95.934975673543377
 30
0.0
  0
SEQEND
  5
C41B
  8
0
  0
ARC
  5
B58F
  8
0
 10
63.548367619293231
 20
70.2258852206607
 30
0.0
 40
28.270759454735281
 50
105.40524323516721
 51
114.57908066126591
  0
ARC
  5
B590
  8
0
 10
95.125376860422534
 20
84.698510697084515
 30
0.0
 40
10.85652992775621
 50
45.722465750767583
 51
76.848168845366772
  0
ARC
  5
B591
  8
0
 10
95.127510339489618
 20
85.822056086193896
 30
0.0
 40
10.85244727060971
 50
282.8845469260358
 51
314.28282348032332
  0
POLYLINE
  5
B592
  8
0
 66
     1
 10
0.0
 20
0.0
 30
0.0
 70
   128
  0
VERTEX
  5
C41C
  8
0
 10
104.2469418870507
 20
78.052766542034391
 30
0.0
  0
VERTEX
  5
C41D
  8
0
 10
104.2549016563146
 20
78.043158856280655
 30
0.0
  0
VERTEX
  5
C41E
  8
0
 10
104.5269837850423
 20
77.683099315827917
 30
0.0
  0
VERTEX
  5
C41F
  8
0
 10
104.7470971577592
 20
77.324263975021864
 30
0.0
  0
VERTEX
  5
C420
  8
0
 10
104.914245291988
 20
76.96559972150186
 30
0.0
  0
VERTEX
  5
C421
  8
0
 10
105.0219812003822
 20
76.615818814947943
 30
0.0
  0
VERTEX
  5
C422
  8
0
 10
105.06379125221819
 20
76.333118210344878
 30
0.0
  0
VERTEX
  5
C423
  8
0
 10
105.05882166513381
 20
76.063660466630239
 30
0.0
  0
VERTEX
  5
C424
  8
0
 10
105.0033651634062
 20
75.808388134063108
 30
0.0
  0
VERTEX
  5
C425
  8
0
 10
104.8940707065443
 20
75.576199147480693
 30
0.0
  0
VERTEX
  5
C426
  8
0
 10
104.748857974291
 20
75.394548265860365
 30
0.0
  0
VERTEX
  5
C427
  8
0
 10
104.5560279718236
 20
75.242858560655236
 30
0.0
  0
SEQEND
  5
C428
  8
0
  0
ARC
  5
B593
  8
0
 10
59.931018812844513
 20
85.821520427292086
 30
0.0
 40
10.851859873517601
 50
225.71630583398311
 51
257.11632795289518
  0
ARC
  5
B594
  8
0
 10
59.93444570293331
 20
84.696682316758526
 30
0.0
 40
10.85853810168487
 50
103.15477880001239
 51
134.2745820186756
  0
POLYLINE
  5
B595
  8
0
 66
     1
 10
0.0
 20
0.0
 30
0.0
 70
   128
  0
VERTEX
  5
C429
  8
0
 10
50.502793693300532
 20
75.242858560660608
 30
0.0
  0
VERTEX
  5
C42A
  8
0
 10
50.185754076565452
 20
75.544114034991424
 30
0.0
  0
VERTEX
  5
C42B
  8
0
 10
50.018408956956357
 20
75.946739078453561
 30
0.0
  0
VERTEX
  5
C42C
  8
0
 10
50.022002420003453
 20
76.543376027806261
 30
0.0
  0
VERTEX
  5
C42D
  8
0
 10
50.257549041692641
 20
77.220016712848206
 30
0.0
  0
VERTEX
  5
C42E
  8
0
 10
50.803920008824093
 20
78.043158856255957
 30
0.0
  0
VERTEX
  5
C42F
  8
0
 10
50.811879778081902
 20
78.052766542034391
 30
0.0
  0
SEQEND
  5
C430
  8
0
  0
POLYLINE
  5
B596
  8
0
 66
     1
 10
0.0
 20
0.0
 30
0.0
 70
   128
  0
VERTEX
  5
C431
  8
0
 10
104.5735605161078
 20
95.270279647669426
 30
0.0
  0
VERTEX
  5
C432
  8
0
 10
104.74850496963251
 20
95.129992180619922
 30
0.0
  0
VERTEX
  5
C433
  8
0
 10
104.8851992251459
 20
94.961860956767367
 30
0.0
  0
VERTEX
  5
C434
  8
0
 10
104.984727269716
 20
94.767350692357283
 30
0.0
  0
VERTEX
  5
C435
  8
0
 10
105.04528180512401
 20
94.552429068324514
 30
0.0
  0
VERTEX
  5
C436
  8
0
 10
105.0670797234568
 20
94.261664713894447
 30
0.0
  0
VERTEX
  5
C437
  8
0
 10
105.03069842952139
 20
93.949299662545883
 30
0.0
  0
VERTEX
  5
C438
  8
0
 10
104.9354591687766
 20
93.614970309433104
 30
0.0
  0
VERTEX
  5
C439
  8
0
 10
104.7825598173028
 20
93.26717519746299
 30
0.0
  0
VERTEX
  5
C43A
  8
0
 10
104.5518355533894
 20
92.87776778579456
 30
0.0
  0
VERTEX
  5
C43B
  8
0
 10
104.2549016563125
 20
92.481030423905665
 30
0.0
  0
VERTEX
  5
C43C
  8
0
 10
104.2469418870507
 20
92.471422738143616
 30
0.0
  0
SEQEND
  5
C43D
  8
0
  0
POLYLINE
  5
B597
  8
0
 66
     1
 10
0.0
 20
0.0
 30
0.0
 70
   128
  0
VERTEX
  5
C43E
  8
0
 10
50.811880198056997
 20
92.471422738143616
 30
0.0
  0
VERTEX
  5
C43F
  8
0
 10
50.803920008815339
 20
92.481030423886352
 30
0.0
  0
VERTEX
  5
C440
  8
0
 10
50.311724507373242
 20
93.199925305156484
 30
0.0
  0
VERTEX
  5
C441
  8
0
 10
50.036840464749503
 20
93.908370465234469
 30
0.0
  0
VERTEX
  5
C442
  8
0
 10
50.0
 20
94.460528813557289
 30
0.0
  0
VERTEX
  5
C443
  8
0
 10
50.164750958596528
 20
94.947990132710061
 30
0.0
  0
VERTEX
  5
C444
  8
0
 10
50.48526114902495
 20
95.270279647669426
 30
0.0
  0
SEQEND
  5
C445
  8
0
  0
LINE
  5
B59A
  8
0
 10
64.779410832566327
 20
100.5
 30
0.0
 11
90.279410832566327
 21
100.5
 31
0.0
  0
POLYLINE
  5
B59D
  8
0
 66
     1
 10
0.0
 20
0.0
 30
0.0
 70
     1
  0
VERTEX
  5
C446
  8
0
 10
50.811880198056997
 20
92.471422738143616
 30
0.0
  0
VERTEX
  5
C447
  8
0
 10
52.354124608438951
 20
92.471422738143616
 30
0.0
  0
VERTEX
  5
C448
  8
0
 10
52.354124608438951
 20
78.052766542034419
 30
0.0
  0
VERTEX
  5
C449
  8
0
 10
50.811880198056997
 20
78.052766542034419
 30
0.0
  0
SEQEND
  5
C44A
  8
0
  0
POLYLINE
  5
B59E
  8
0
 66
     1
 10
0.0
 20
0.0
 30
0.0
 70
     1
  0
VERTEX
  5
C44B
  8
0
 10
102.7046961223499
 20
92.471422738143744
 30
0.0
  0
VERTEX
  5
C44C
  8
0
 10
104.2469418870507
 20
92.471422738143744
 30
0.0
  0
VERTEX
  5
C44D
  8
0
 10
104.2469418870507
 20
78.052766542034391
 30
0.0
  0
VERTEX
  5
C44E
  8
0
 10
102.7046961223499
 20
78.052766542034391
 30
0.0
  0
SEQEND
  5
C44F
  8
0
  0
LINE
  5
B73E
  8
1
 10
77.529410832566327
 20
205.23599550588401
 30
0.0
 11
77.529410832566327
 21
147.23576849010189
 31
0.0
  0
LINE
  5
B73F
  8
1
 10
210.56497562926489
 20
170.23599550588389
 30
0.0
 11
150.06497562926501
 21
170.23599550588389
 31
0.0
  0
LINE
  5
B74F
  8
1
 10
105.31980317824519
 20
170.23599550588389
 30
0.0
 11
49.739018486001783
 21
170.23599550588389
 31
0.0
  0
LINE
  5
B750
  8
1
 10
77.529410832566327
 20
105.5
 30
0.0
 11
77.529410832566327
 21
45.000000000000007
 31
0.0
  0
LINE
  5
C233
  8
0
 10
63.779410832566327
 20
51.499999999999993
 30
0.0
 11
64.979410832566316
 21
50.29999999999999
 31
0.0
  0
LINE
  5
C234
  8
0
 10
90.079410832566282
 20
50.29999999999999
 30
0.0
 11
91.279410832566327
 21
51.499999999999993
 31
0.0
  0
LINE
  5
C23B
  8
0
 10
68.654410832566327
 20
50.29999999999999
 30
0.0
 11
68.654410832566327
 21
50.0
 31
0.0
  0
LINE
  5
C23C
  8
0
 10
86.404410832566313
 20
50.0
 30
0.0
 11
86.404410832566313
 21
50.29999999999999
 31
0.0
  0
LINE
  5
C255
  8
0
 10
64.979410832566316
 20
50.29999999999999
 30
0.0
 11
90.079410832566282
 21
50.29999999999999
 31
0.0
  0
LINE
  5
C256
  8
0
 10
63.779410832566327
 20
51.499999999999993
 30
0.0
 11
91.279410832566327
 21
51.499999999999993
 31
0.0
  0
LINE
  5
C258
  8
0
 10
68.654410832566327
 20
50.0
 30
0.0
 11
86.404410832566313
 21
50.0
 31
0.0
  0
LINE
  5
C26F
  8
2
 10
74.20591083256636
 20
50.67649999999999
 30
0.0
 11
80.852910832566295
 21
50.67649999999999
 31
0.0
  0
LINE
  5
C275
  8
2
 10
81.529410832566327
 20
50.0
 30
0.0
 11
80.852910832566295
 21
50.67649999999999
 31
0.0
  0
LINE
  5
C276
  8
2
 10
74.20591083256636
 20
50.67649999999999
 30
0.0
 11
73.529410832566327
 21
50.0
 31
0.0
  0
LINE
  5
C28A
  8
0
 10
204.06497562926501
 20
156.48599550588401
 30
0.0
 11
205.26497562926491
 21
157.68599550588399
 31
0.0
  0
LINE
  5
C28B
  8
0
 10
205.26497562926491
 20
182.78599550588399
 30
0.0
 11
204.06497562926501
 21
183.98599550588389
 31
0.0
  0
LINE
  5
C290
  8
0
 10
205.26497562926491
 20
161.36099550588401
 30
0.0
 11
205.56497562926509
 21
161.36099550588401
 31
0.0
  0
LINE
  5
C291
  8
0
 10
205.56497562926509
 20
179.11099550588401
 30
0.0
 11
205.26497562926491
 21
179.11099550588401
 31
0.0
  0
LINE
  5
C2A7
  8
0
 10
205.26497562926491
 20
157.68599550588399
 30
0.0
 11
205.26497562926491
 21
182.78599550588399
 31
0.0
  0
LINE
  5
C2A9
  8
0
 10
204.06497562926501
 20
156.48599550588401
 30
0.0
 11
204.06497562926501
 21
183.98599550588389
 31
0.0
  0
LINE
  5
C2AD
  8
0
 10
205.56497562926509
 20
161.36099550588401
 30
0.0
 11
205.56497562926501
 21
179.11099550588401
 31
0.0
  0
LINE
  5
C2DE
  8
2
 10
73.529410832566327
 20
50.0
 30
0.0
 11
73.529410832566327
 21
61.999999999999993
 31
0.0
  0
LINE
  5
C2DF
  8
2
 10
74.205910832566204
 20
50.676499999999848
 30
0.0
 11
74.205910832566019
 21
65.599999999999994
 31
0.0
  0
LINE
  5
C2E0
  8
2
 10
80.852910832566451
 20
50.67649999999982
 30
0.0
 11
80.852910832566238
 21
65.599999999999994
 31
0.0
  0
LINE
  5
C2E1
  8
2
 10
81.529410832566327
 20
49.999999999999972
 30
0.0
 11
81.529410832566327
 21
61.999999999999993
 31
0.0
  0
LINE
  5
C2E2
  8
2
 10
80.852910832566295
 20
65.599999999999994
 30
0.0
 11
77.529410832566128
 21
67.596960267338204
 31
0.0
  0
LINE
  5
C2E3
  8
2
 10
74.205910832565962
 20
65.599999999999994
 30
0.0
 11
77.529410832566128
 21
67.596960267338204
 31
0.0
  0
LINE
  5
C2E4
  8
2
 10
73.529410832566327
 20
61.999999999999993
 30
0.0
 11
81.529410832566327
 21
61.999999999999993
 31
0.0
  0
LINE
  5
C2E5
  8
2
 10
74.205910832566019
 20
65.599999999999994
 30
0.0
 11
80.852910832566238
 21
65.599999999999994
 31
0.0
  0
LINE
  5
C2E6
  8
2
 10
81.529410832566327
 20
61.999999999999993
 30
0.0
 11
80.852910832566394
 21
63.171732371320182
 31
0.0
  0
LINE
  5
C2E7
  8
2
 10
73.529410832566384
 20
61.999999999999993
 30
0.0
 11
74.205910832566303
 21
63.171732371320182
 31
0.0
  0
LINE
  5
C2EB
  8
2
 10
204.888475629265
 20
166.91249550588401
 30
0.0
 11
204.888475629265
 21
173.55949550588389
 31
0.0
  0
LINE
  5
C2EC
  8
2
 10
205.56497562926501
 20
174.23599550588401
 30
0.0
 11
204.888475629265
 21
173.55949550588389
 31
0.0
  0
LINE
  5
C2ED
  8
2
 10
204.888475629265
 20
166.91249550588401
 30
0.0
 11
205.56497562926501
 21
166.23599550588389
 31
0.0
  0
LINE
  5
C2EE
  8
2
 10
205.56497562926501
 20
166.23599550588389
 30
0.0
 11
193.56497562926501
 21
166.23599550588389
 31
0.0
  0
LINE
  5
C2EF
  8
2
 10
204.88847562926509
 20
166.91249550588381
 30
0.0
 11
189.96497562926501
 21
166.91249550588361
 31
0.0
  0
LINE
  5
C2F0
  8
2
 10
204.8884756292652
 20
173.55949550588409
 30
0.0
 11
189.96497562926501
 21
173.55949550588389
 31
0.0
  0
LINE
  5
C2F1
  8
2
 10
205.56497562926509
 20
174.23599550588401
 30
0.0
 11
193.56497562926501
 21
174.23599550588401
 31
0.0
  0
LINE
  5
C2F2
  8
2
 10
189.96497562926501
 20
173.55949550588389
 30
0.0
 11
187.9680153619268
 21
170.23599550588369
 31
0.0
  0
LINE
  5
C2F3
  8
2
 10
189.96497562926501
 20
166.91249550588361
 30
0.0
 11
187.9680153619268
 21
170.23599550588369
 31
0.0
  0
LINE
  5
C2F4
  8
2
 10
193.56497562926501
 20
166.23599550588389
 30
0.0
 11
193.56497562926501
 21
174.23599550588401
 31
0.0
  0
LINE
  5
C2F5
  8
2
 10
189.96497562926501
 20
166.91249550588361
 30
0.0
 11
189.96497562926501
 21
173.55949550588389
 31
0.0
  0
LINE
  5
C2F6
  8
2
 10
193.56497562926501
 20
174.23599550588401
 30
0.0
 11
192.39324325794479
 21
173.559495505884
 31
0.0
  0
LINE
  5
C2F7
  8
2
 10
193.56497562926501
 20
166.23599550588401
 30
0.0
 11
192.39324325794479
 21
166.9124955058839
 31
0.0
  0
LINE
  5
C337
  8
0
 10
160.68499879552729
 20
164.87457478115499
 30
0.0
 11
179.90518390261761
 21
164.87457478115499
 31
0.0
  0
LINE
  5
C338
  8
0
 10
180.3221170686044
 20
150.58577640924861
 30
0.0
 11
180.32211706860971
 21
162.72495965725659
 31
0.0
  0
LINE
  5
C339
  8
0
 10
160.29469598159571
 20
150.59331412515351
 30
0.0
 11
160.29469598159559
 21
162.67951696795339
 31
0.0
  0
LINE
  5
C33A
  8
0
 10
160.67390130973411
 20
195.2084002123062
 30
0.0
 11
179.91560077667219
 21
195.2084002123062
 31
0.0
  0
LINE
  5
C347
  8
0
 10
95.042653110792344
 20
94.89811917132451
 30
0.0
 11
95.042653110792344
 21
75.642846007755196
 31
0.0
  0
LINE
  5
C348
  8
0
 10
60.016168554340076
 20
94.898016150549694
 30
0.0
 11
60.016168554340076
 21
75.642752096267529
 31
0.0
  0
LINE
  5
C349
  8
0
 10
50.502793693300532
 20
75.242858560660594
 30
0.0
 11
57.511354409290817
 21
75.242858560655236
 31
0.0
  0
LINE
  5
C34A
  8
0
 10
97.547467255865229
 20
75.242858560660594
 30
0.0
 11
104.5560279718235
 21
75.242858560655236
 31
0.0
  0
LINE
  5
C34B
  8
0
 10
97.59558805133679
 20
95.270279647669284
 30
0.0
 11
104.5735605161078
 21
95.270279647669398
 31
0.0
  0
LINE
  5
C34C
  8
0
 10
50.485261149024858
 20
95.270279647669398
 30
0.0
 11
57.463233613795893
 21
95.270279647669284
 31
0.0
  0
ENDSEC
  0
EOF
