  0
SECTION
  2
HEADER
  9
$ACADVER
  1
AC1009
  9
$INSBASE
 10
0.0
 20
0.0
 30
0.0
  9
$EXTMIN
 10
0.0
 20
-2.960436562073669
 30
0.0
  9
$EXTMAX
 10
305.0
 20
210.0
 30
0.0
  9
$LIMMIN
 10
0.0
 20
0.0
  9
$LIMMAX
 10
270.0
 20
175.0
  9
$ORTHOMODE
 70
     0
  9
$REGENMODE
 70
     1
  9
$FILLMODE
 70
     1
  9
$QTEXTMODE
 70
     0
  9
$MIRRTEXT
 70
     0
  9
$DRAGMODE
 70
     2
  9
$LTSCALE
 40
10.0
  9
$OSMODE
 70
    55
  9
$ATTMODE
 70
     1
  9
$TEXTSIZE
 40
5.0
  9
$TRACEWID
 40
0.05
  9
$TEXTSTYLE
  7
STANDARD
  9
$CLAYER
  8
2
  9
$CELTYPE
  6
BYLAYER
  9
$CECOLOR
 62
   256
  9
$DIMSCALE
 40
1.0
  9
$DIMASZ
 40
3.0
  9
$DIMEXO
 40
2.0
  9
$DIMDLI
 40
0.38
  9
$DIMRND
 40
0.0
  9
$DIMDLE
 40
0.0
  9
$DIMEXE
 40
2.0
  9
$DIMTP
 40
0.0
  9
$DIMTM
 40
0.0
  9
$DIMTXT
 40
3.0
  9
$DIMCEN
 40
0.0
  9
$DIMTSZ
 40
0.0
  9
$DIMTOL
 70
     0
  9
$DIMLIM
 70
     0
  9
$DIMTIH
 70
     0
  9
$DIMTOH
 70
     0
  9
$DIMSE1
 70
     0
  9
$DIMSE2
 70
     0
  9
$DIMTAD
 70
     1
  9
$DIMZIN
 70
     0
  9
$DIMBLK
  1

  9
$DIMASO
 70
     0
  9
$DIMSHO
 70
     0
  9
$DIMPOST
  1

  9
$DIMAPOST
  1

  9
$DIMALT
 70
     0
  9
$DIMALTD
 70
     2
  9
$DIMALTF
 40
25.399999999999999
  9
$DIMLFAC
 40
1.0
  9
$DIMTOFL
 70
     1
  9
$DIMTVP
 40
1.6000000000000001
  9
$DIMTIX
 70
     1
  9
$DIMSOXD
 70
     0
  9
$DIMSAH
 70
     0
  9
$DIMBLK1
  1

  9
$DIMBLK2
  1

  9
$DIMSTYLE
  2
STANDARD
  9
$DIMCLRD
 70
     0
  9
$DIMCLRE
 70
     0
  9
$DIMCLRT
 70
     0
  9
$DIMTFAC
 40
1.0
  9
$DIMGAP
 40
0.09
  9
$LUNITS
 70
     2
  9
$LUPREC
 70
     4
  9
$SKETCHINC
 40
0.1
  9
$FILLETRAD
 40
1.0
  9
$AUNITS
 70
     0
  9
$AUPREC
 70
     4
  9
$MENU
  1
E:\r13\win\SUPPORT\ACAD
  9
$ELEVATION
 40
0.0
  9
$PELEVATION
 40
0.0
  9
$THICKNESS
 40
0.0
  9
$LIMCHECK
 70
     0
  9
$BLIPMODE
 70
     0
  9
$CHAMFERA
 40
0.0
  9
$CHAMFERB
 40
0.0
  9
$SKPOLY
 70
     0
  9
$TDCREATE
 40
2449839.7884606482
  9
$TDUPDATE
 40
2456598.4511187728
  9
$TDINDWG
 40
0.0097489352
  9
$TDUSRTIMER
 40
0.0097489352
  9
$USRTIMER
 70
     1
  9
$ANGBASE
 50
0.0
  9
$ANGDIR
 70
     0
  9
$PDMODE
 70
     0
  9
$PDSIZE
 40
0.0
  9
$PLINEWID
 40
0.0
  9
$COORDS
 70
     1
  9
$SPLFRAME
 70
     0
  9
$SPLINETYPE
 70
     6
  9
$SPLINESEGS
 70
     8
  9
$ATTDIA
 70
     0
  9
$ATTREQ
 70
     1
  9
$HANDLING
 70
     1
  9
$HANDSEED
  5
3DF
  9
$SURFTAB1
 70
     6
  9
$SURFTAB2
 70
     6
  9
$SURFTYPE
 70
     6
  9
$SURFU
 70
     6
  9
$SURFV
 70
     6
  9
$UCSNAME
  2

  9
$UCSORG
 10
0.0
 20
0.0
 30
0.0
  9
$UCSXDIR
 10
1.0
 20
0.0
 30
0.0
  9
$UCSYDIR
 10
0.0
 20
1.0
 30
0.0
  9
$PUCSNAME
  2

  9
$PUCSORG
 10
0.0
 20
0.0
 30
0.0
  9
$PUCSXDIR
 10
1.0
 20
0.0
 30
0.0
  9
$PUCSYDIR
 10
0.0
 20
1.0
 30
0.0
  9
$USERI1
 70
     0
  9
$USERI2
 70
     1
  9
$USERI3
 70
     1
  9
$USERI4
 70
     0
  9
$USERI5
 70
     0
  9
$USERR1
 40
0.0
  9
$USERR2
 40
0.0
  9
$USERR3
 40
0.0
  9
$USERR4
 40
0.0
  9
$USERR5
 40
0.0
  9
$WORLDVIEW
 70
     1
  9
$SHADEDGE
 70
     3
  9
$SHADEDIF
 70
    70
  9
$TILEMODE
 70
     1
  9
$MAXACTVP
 70
    16
  9
$PLIMCHECK
 70
     0
  9
$PEXTMIN
 10
1.0000000000000000E+020
 20
1.0000000000000000E+020
 30
1.0000000000000000E+020
  9
$PEXTMAX
 10
-1.0000000000000000E+020
 20
-1.0000000000000000E+020
 30
-1.0000000000000000E+020
  9
$PLIMMIN
 10
0.0
 20
0.0
  9
$PLIMMAX
 10
12.0
 20
9.0
  9
$UNITMODE
 70
     0
  9
$VISRETAIN
 70
     0
  9
$PLINEGEN
 70
     0
  9
$PSLTSCALE
 70
     0
  0
ENDSEC
  0
SECTION
  2
TABLES
  0
TABLE
  2
VPORT
 70
     1
  0
VPORT
  2
*ACTIVE
 70
     0
 10
0.0
 20
0.0
 11
1.0
 21
1.0
 12
152.50000071013341
 22
153.0909658462833
 13
0.0
 23
0.0
 14
10.0
 24
10.0
 15
10.0
 25
10.0
 16
0.0
 26
0.0
 36
1.0
 17
0.0
 27
0.0
 37
0.0
 40
314.87087587662859
 41
1.7807262569832401
 42
50.0
 43
0.0
 44
0.0
 50
0.0
 51
0.0
 71
     0
 72
   500
 73
     1
 74
     0
 75
     0
 76
     0
 77
     0
 78
     2
  0
ENDTAB
  0
TABLE
  2
LTYPE
 70
     4
  0
LTYPE
  2
CONTINUOUS
 70
     0
  3
Solid Line
 72
    65
 73
     0
 40
0.0
  0
LTYPE
  2
CENTER
 70
     0
  3
____ _ ____ _ ____ _ ____ _ ____ _ ____ _ ____
 72
    65
 73
     4
 40
2.0
 49
1.25
 49
-0.25
 49
0.25
 49
-0.25
  0
LTYPE
  2
HIDDEN
 70
     0
  3
_ _ _ _ _ _ _ _ _ _ _ _ _ _ _ _ _ _ _ _ _ _ _
 72
    65
 73
     2
 40
0.375
 49
0.25
 49
-0.125
  0
LTYPE
  2
PHANTOM2
 70
     0
  3
___ _ _ ___ _ _ ___ _ _ ___ _ _
 72
    65
 73
     6
 40
1.25
 49
0.625
 49
-0.125
 49
0.125
 49
-0.125
 49
0.125
 49
-0.125
  0
ENDTAB
  0
TABLE
  2
LAYER
 70
     4
  0
LAYER
  2
0
 70
     0
 62
     7
  6
CONTINUOUS
  0
LAYER
  2
1
 70
     0
 62
     1
  6
CENTER
  0
LAYER
  2
3
 70
     0
 62
     3
  6
CONTINUOUS
  0
LAYER
  2
2
 70
     0
 62
     2
  6
HIDDEN
  0
ENDTAB
  0
TABLE
  2
STYLE
 70
     2
  0
STYLE
  2
STANDARD
 70
     0
 40
0.0
 41
1.0
 50
0.0
 71
     0
 42
5.0
  3
TXT
  4
BIGFONT
  0
STYLE
  2
STANDARD1
 70
     0
 40
0.0
 41
1.0
 50
0.0
 71
     0
 42
3.0
  3
txt
  4

  0
ENDTAB
  0
TABLE
  2
VIEW
 70
     1
  0
VIEW
  2
ALL
 70
     0
 40
175.0
 10
143.23529411764699
 20
87.5
 41
0.0
 11
0.0
 21
0.0
 31
1.0
 12
0.0
 22
0.0
 32
0.0
 42
0.0
 43
0.0
 44
0.0
 50
0.0
 71
     0
  0
ENDTAB
  0
TABLE
  2
UCS
 70
     0
  0
ENDTAB
  0
TABLE
  2
APPID
 70
     3
  0
APPID
  2
ACAD
 70
     0
  0
APPID
  2
ACAD_MLEADERVER
 70
     0
  0
APPID
  2
ACAD_NAV_VCDISPLAY
 70
     0
  0
ENDTAB
  0
TABLE
  2
DIMSTYLE
 70
     1
  0
DIMSTYLE
  2
STANDARD
 70
     0
  3

  4

  5

  6

  7

 40
1.0
 41
0.18
 42
0.0625
 43
0.38
 44
0.18
 45
0.0
 46
0.0
 47
0.0
 48
0.0
140
0.18
141
0.09
142
0.0
143
25.399999999999999
144
1.0
145
0.0
146
1.0
147
0.09
 71
     0
 72
     0
 73
     1
 74
     1
 75
     0
 76
     0
 77
     0
 78
     0
170
     0
171
     2
172
     0
173
     0
174
     0
175
     0
176
     0
177
     0
178
     0
  0
ENDTAB
  0
ENDSEC
  0
SECTION
  2
BLOCKS
  0
BLOCK
  8
0
  2
$MODEL_SPACE
 70
     0
 10
0.0
 20
0.0
 30
0.0
  3
$MODEL_SPACE
  1

  0
ENDBLK
  5
156
  8
0
  0
BLOCK
 67
     1
  8
0
  2
$PAPER_SPACE
 70
     0
 10
0.0
 20
0.0
 30
0.0
  3
$PAPER_SPACE
  1

  0
ENDBLK
  5
154
 67
     1
  8
0
  0
ENDSEC
  0
SECTION
  2
ENTITIES
  0
LINE
  5
36
  8
0
 10
177.5
 20
94.204564083271293
 30
0.0
 11
177.5
 21
82.75
 31
0.0
  0
LINE
  5
37
  8
0
 10
202.5
 20
82.75
 30
0.0
 11
202.5
 21
94.204564083333935
 31
0.0
  0
LINE
  5
38
  8
0
 10
182.0
 20
81.5
 30
0.0
 11
182.0
 21
80.0
 31
0.0
  0
LINE
  5
39
  8
0
 10
182.0
 20
80.0
 30
0.0
 11
198.0
 21
80.0
 31
0.0
  0
LINE
  5
3A
  8
0
 10
198.0
 20
80.0
 30
0.0
 11
198.0
 21
81.5
 31
0.0
  0
LINE
  5
3B
  8
0
 10
178.75
 20
81.5
 30
0.0
 11
177.5
 21
82.75
 31
0.0
  0
LINE
  5
3C
  8
0
 10
177.5
 20
82.75
 30
0.0
 11
202.5
 21
82.75
 31
0.0
  0
LINE
  5
3D
  8
0
 10
202.5
 20
82.75
 30
0.0
 11
201.25
 21
81.5
 31
0.0
  0
LINE
  5
3E
  8
0
 10
203.27504894565399
 20
95.178934148118714
 30
0.0
 11
214.22495105434589
 21
97.706918240979235
 31
0.0
  0
LINE
  5
3F
  8
0
 10
215.0
 20
98.681288305763985
 30
0.0
 11
215.0
 21
109.38585238909791
 31
0.0
  0
LINE
  5
40
  8
0
 10
176.72495105434379
 20
95.178934148056527
 30
0.0
 11
165.7750489456561
 21
97.706918240891341
 31
0.0
  0
LINE
  5
41
  8
0
 10
165.0
 20
98.681288305676546
 30
0.0
 11
165.0
 21
109.38585238909791
 31
0.0
  0
ARC
  5
42
  8
0
 10
166.0
 20
98.681288305676503
 30
0.0
 40
1.0
 50
180.0
 51
256.99999999999989
  0
ARC
  5
43
  8
0
 10
214.0
 20
98.681288305763985
 30
0.0
 40
1.0
 50
283.00000000012341
 51
360.0
  0
ARC
  5
44
  8
0
 10
176.5
 20
94.204564083271293
 30
0.0
 40
1.0
 50
360.0
 51
76.999999999999886
  0
ARC
  5
45
  8
0
 10
203.5
 20
94.204564083333935
 30
0.0
 40
1.0
 50
103.00000000012341
 51
180.0
  0
LINE
  5
46
  8
0
 10
183.29053922086101
 20
114.0
 30
0.0
 11
196.70946077913871
 21
114.0
 31
0.0
  0
ARC
  5
47
  8
0
 10
189.9999999999998
 20
36.289105422384971
 30
0.0
 40
78.0
 50
94.934608252951847
 51
107.9202131393923
  0
ARC
  5
48
  8
0
 10
166.8509387379703
 20
108.7383227551139
 30
0.0
 40
1.9609357048630249
 50
115.71819757866319
 51
160.71819757866319
  0
ARC
  5
49
  8
0
 10
213.1490612620297
 20
108.7383227551139
 30
0.0
 40
1.9609357048630249
 50
19.281802421336739
 51
64.281802421336792
  0
ARC
  5
4A
  8
0
 10
189.9999999999998
 20
36.289105422384971
 30
0.0
 40
78.0
 50
72.079786860607612
 51
85.065391747048125
  0
ARC
  5
4B
  8
0
 10
206.1679607770171
 20
185.25328890437461
 30
0.0
 40
8.0
 50
18.000000000000039
 51
77.145415716400137
  0
ARC
  5
4C
  8
0
 10
190.0
 20
197.0
 30
0.0
 40
8.0
 50
30.854584283137271
 51
90.000000000014239
  0
ARC
  5
4D
  8
0
 10
210.278591204094
 20
207.91108630593311
 30
0.0
 40
15.039999999999999
 50
206.9152971518682
 51
261.08470284834448
  0
ARC
  5
4E
  8
0
 10
169.72140879591569
 20
207.911086305943
 30
0.0
 40
15.039999999999999
 50
278.91529715186817
 51
333.08470284834448
  0
ARC
  5
4F
  8
0
 10
173.8320392229848
 20
185.25328890437871
 30
0.0
 40
8.0
 50
102.8545842831372
 51
162.00000000001421
  0
ARC
  5
50
  8
0
 10
190.00000000000171
 20
197.00000000000429
 30
0.0
 40
8.0
 50
90.000000000000057
 51
149.14541571640009
  0
ARC
  5
51
  8
0
 10
157.1885501878144
 20
169.33891369407689
 30
0.0
 40
15.039999999999999
 50
350.91529715186817
 51
45.084702848344463
  0
ARC
  5
52
  8
0
 10
180.0076507110266
 20
166.2467110956342
 30
0.0
 40
8.0
 50
174.85458428313731
 51
234.00000000001421
  0
ARC
  5
53
  8
0
 10
173.83203922298119
 20
185.25328890438169
 30
0.0
 40
8.0
 50
162.00000000000011
 51
221.14541571640009
  0
ARC
  5
54
  8
0
 10
189.9999999999896
 20
145.50000000000591
 30
0.0
 40
15.039999999999999
 50
62.915297151868216
 51
117.08470284834451
  0
ARC
  5
55
  8
0
 10
199.9923492889661
 20
166.24671109563181
 30
0.0
 40
8.0
 50
246.8545842831372
 51
306.00000000001432
  0
ARC
  5
56
  8
0
 10
180.00765071102271
 20
166.24671109563181
 30
0.0
 40
8.0
 50
234.0
 51
293.14541571640012
  0
ARC
  5
57
  8
0
 10
222.81144981217631
 20
169.33891369406081
 30
0.0
 40
15.039999999999999
 50
134.9152971518682
 51
189.08470284834451
  0
ARC
  5
58
  8
0
 10
206.1679607770125
 20
185.2532889043749
 30
0.0
 40
8.0
 50
318.85458428313723
 51
18.000000000014229
  0
ARC
  5
59
  8
0
 10
199.9923492889672
 20
166.24671109562729
 30
0.0
 40
8.0
 50
306.0
 51
5.1454157164001293
  0
ARC
  5
5A
  8
0
 10
209.23607974399999
 20
106.26813439999999
 30
0.0
 40
9.5
 50
254.62468118773779
 51
278.01351023486859
  0
ARC
  5
5B
  8
0
 10
203.49999999998539
 20
89.783570347441113
 30
0.0
 40
8.0
 50
66.28701535522589
 51
104.8132693865423
  0
ARC
  5
5C
  8
0
 10
189.99999999999801
 20
146.7835703474411
 30
0.0
 40
50.579999999999991
 50
256.9109095926604
 51
283.08909040734972
  0
ARC
  5
5D
  8
0
 10
189.99999999999801
 20
61.60783439327502
 30
0.0
 40
50.579999999999991
 50
76.910909592650412
 51
103.0890904073362
  0
ARC
  5
5E
  8
0
 10
203.49999999998539
 20
118.607834393275
 30
0.0
 40
8.0
 50
255.18673061345771
 51
293.71298464477422
  0
ARC
  5
5F
  8
0
 10
209.23607974399999
 20
102.1232703407161
 30
0.0
 40
9.5
 50
81.986489765131395
 51
105.37531881226209
  0
LINE
  5
60
  8
0
 10
177.5
 20
95.0
 30
0.0
 11
202.5
 21
95.0
 31
0.0
  0
CIRCLE
  5
61
  8
0
 10
190.0
 20
180.0
 30
0.0
 40
6.5
  0
LINE
  5
64
  8
1
 10
220.00000000000011
 20
180.0
 30
0.0
 11
159.99999999999989
 21
180.0
 31
0.0
  0
LINE
  5
65
  8
1
 10
189.99999999999801
 20
210.0
 30
0.0
 11
189.99999999999801
 21
150.0
 31
0.0
  0
LINE
  5
66
  8
1
 10
189.99999999999829
 20
119.0
 30
0.0
 11
189.9999999999996
 21
75.0
 31
0.0
  0
LINE
  5
67
  8
0
 10
178.75
 20
81.5
 30
0.0
 11
201.25
 21
81.5
 31
0.0
  0
CIRCLE
  5
6E
  8
0
 10
190.0
 20
180.0
 30
0.0
 40
6.709460779139774
  0
LINE
  5
6F
  8
0
 10
207.9923492889672
 20
110.5317859383246
 30
0.0
 11
207.9923492889672
 21
97.859618802391594
 31
0.0
  0
LINE
  5
70
  8
0
 10
199.9923492889661
 20
110.17046772063129
 30
0.0
 11
199.9923492889661
 21
98.220937020084847
 31
0.0
  0
LINE
  5
79
  8
0
 10
180.00765071103089
 20
110.17046772063129
 30
0.0
 11
180.00765071103089
 21
98.220937020084847
 31
0.0
  0
LINE
  5
7A
  8
0
 10
172.00765071102981
 20
110.5317859383246
 30
0.0
 11
172.00765071102981
 21
97.859618802391594
 31
0.0
  0
ARC
  5
7B
  8
0
 10
170.76392025599711
 20
102.1232703407161
 30
0.0
 40
9.5
 50
74.624681187737906
 51
98.013510234868633
  0
ARC
  5
7C
  8
0
 10
176.5000000000116
 20
118.607834393275
 30
0.0
 40
8.0
 50
246.28701535522589
 51
284.81326938654229
  0
ARC
  5
7D
  8
0
 10
176.5000000000116
 20
89.783570347441113
 30
0.0
 40
8.0
 50
75.18673061345774
 51
113.7129846447741
  0
ARC
  5
7E
  8
0
 10
170.76392025599711
 20
106.26813439999999
 30
0.0
 40
9.5
 50
261.98648976513152
 51
285.37531881226221
  0
LINE
  5
8D
  8
0
 10
268.75
 20
81.5
 30
0.0
 11
291.25
 21
81.5
 31
0.0
  0
LINE
  5
8E
  8
1
 10
279.99999999999829
 20
119.0
 30
0.0
 11
279.99999999999972
 21
75.0
 31
0.0
  0
LINE
  5
8F
  8
0
 10
267.5
 20
95.0
 30
0.0
 11
292.5
 21
95.0
 31
0.0
  0
ARC
  5
90
  8
0
 10
279.99999999999989
 20
36.289105422384971
 30
0.0
 40
78.0
 50
72.079786860607612
 51
85.065391747048068
  0
ARC
  5
91
  8
0
 10
303.1490612620297
 20
108.7383227551139
 30
0.0
 40
1.9609357048630249
 50
19.281802421336739
 51
64.281802421336792
  0
ARC
  5
92
  8
0
 10
279.99999999999989
 20
36.289105422384971
 30
0.0
 40
78.0
 50
94.934608252951847
 51
105.63589838664331
  0
LINE
  5
93
  8
0
 10
273.29053922086109
 20
114.0
 30
0.0
 11
286.70946077913868
 21
114.0
 31
0.0
  0
ARC
  5
94
  8
0
 10
293.5
 20
94.204564083333935
 30
0.0
 40
1.0
 50
103.00000000012341
 51
180.0
  0
ARC
  5
95
  8
0
 10
266.5
 20
94.204564083271293
 30
0.0
 40
1.0
 50
360.0
 51
76.999999999999886
  0
ARC
  5
96
  8
0
 10
304.0
 20
98.681288305763985
 30
0.0
 40
1.0
 50
283.00000000012341
 51
360.0
  0
LINE
  5
97
  8
0
 10
266.72495105434382
 20
95.178934148056527
 30
0.0
 11
259.02176004128597
 21
96.957355923135921
 31
0.0
  0
LINE
  5
98
  8
0
 10
305.0
 20
98.681288305763985
 30
0.0
 11
305.0
 21
109.38585238909791
 31
0.0
  0
LINE
  5
99
  8
0
 10
293.27504638475222
 20
95.178933556887884
 30
0.0
 11
304.22495105434592
 21
97.706918240979235
 31
0.0
  0
LINE
  5
9A
  8
0
 10
292.5
 20
82.75
 30
0.0
 11
291.25
 21
81.5
 31
0.0
  0
LINE
  5
9B
  8
0
 10
267.5
 20
82.75
 30
0.0
 11
292.5
 21
82.75
 31
0.0
  0
LINE
  5
9C
  8
0
 10
268.75
 20
81.5
 30
0.0
 11
267.5
 21
82.75
 31
0.0
  0
LINE
  5
9D
  8
0
 10
288.0
 20
80.0
 30
0.0
 11
288.0
 21
81.5
 31
0.0
  0
LINE
  5
9E
  8
0
 10
272.0
 20
80.0
 30
0.0
 11
288.0
 21
80.0
 31
0.0
  0
LINE
  5
9F
  8
0
 10
272.0
 20
81.5
 30
0.0
 11
272.0
 21
80.0
 31
0.0
  0
LINE
  5
A0
  8
0
 10
292.5
 20
82.75
 30
0.0
 11
292.5
 21
94.204564083333935
 31
0.0
  0
LINE
  5
A1
  8
0
 10
267.5
 20
94.204564083271293
 30
0.0
 11
267.5
 21
82.75
 31
0.0
  0
LINE
  5
A2
  8
0
 10
258.24671109562991
 20
110.4396347505816
 30
0.0
 11
258.24671109562991
 21
97.931725987921155
 31
0.0
  0
ARC
  5
A3
  8
0
 10
259.24671109562979
 20
110.4396347505816
 30
0.0
 40
1.0
 50
105.63589838664279
 51
180.0
  0
ARC
  5
A4
  8
0
 10
259.24671109562979
 20
97.931725987921155
 30
0.0
 40
1.0
 50
180.0
 51
256.99999999999972
  0
ARC
  5
A5
  8
0
 10
273.48209068611789
 20
95.463413699754355
 30
0.0
 40
16.732026351831159
 50
71.156005206857571
 51
112.087605792841
  0
ARC
  5
A6
  8
0
 10
287.62211834018598
 20
166.1808890432707
 30
0.0
 40
55.573150669800242
 50
260.95599623548219
 51
275.17691420141438
  0
ARC
  5
A7
  8
0
 10
263.18066834389367
 20
133.14091684895709
 30
0.0
 40
22.53308245568212
 50
258.00043214889638
 51
280.25042677517291
  0
ARC
  5
A8
  8
0
 10
296.86316100144188
 20
106.374716784706
 30
0.0
 40
5.8131176085690184
 50
90.0
 51
124.3370422497631
  0
ARC
  5
A9
  8
0
 10
292.45609379490088
 20
112.82627205474451
 30
0.0
 40
2.0
 50
275.17691420141421
 51
304.33704224976327
  0
ARC
  5
AA
  8
0
 10
297.86562057542778
 20
111.187834393275
 30
0.0
 40
1.0
 50
76.583911544589981
 51
90.0
  0
LINE
  5
AB
  8
0
 10
266.24671109562991
 20
110.17046772063129
 30
0.0
 11
266.24671109562991
 21
97.85961880239158
 31
0.0
  0
LINE
  5
AC
  8
0
 10
293.05279168837689
 20
110.17046772063129
 30
0.0
 11
293.05279168837689
 21
97.85961880239158
 31
0.0
  0
LINE
  5
AD
  8
0
 10
279.98951007163453
 20
110.17046772063129
 30
0.0
 11
279.98951007163453
 21
97.85961880239158
 31
0.0
  0
ARC
  5
AE
  8
0
 10
292.45609379490088
 20
95.545088683758237
 30
0.0
 40
2.0
 50
55.662957750236743
 51
84.823085798585865
  0
ARC
  5
AF
  8
0
 10
296.86316100144188
 20
101.99664395379671
 30
0.0
 40
5.8131176085690184
 50
235.6629577502369
 51
270.0
  0
ARC
  5
B0
  8
0
 10
263.18066834389367
 20
75.230443889545626
 30
0.0
 40
22.53308245568212
 50
79.749573224827103
 51
101.99956785110361
  0
ARC
  5
B1
  8
0
 10
287.62211834018598
 20
42.19047169523202
 30
0.0
 40
55.573150669800242
 50
84.823085798585623
 51
99.04400376451791
  0
ARC
  5
B2
  8
0
 10
273.48209068611789
 20
112.9079470387484
 30
0.0
 40
16.732026351831159
 50
247.912394207159
 51
288.84399479314249
  0
LINE
  5
B3
  8
0
 10
296.86316100144188
 20
112.187834393275
 30
0.0
 11
297.86562057542778
 21
112.187834393275
 31
0.0
  0
LINE
  5
B4
  8
0
 10
296.86316100144188
 20
96.183526345227776
 30
0.0
 11
297.5124802025806
 21
96.183526345227776
 31
0.0
  0
ARC
  5
B5
  8
0
 10
297.5124802025806
 20
97.183526345227762
 30
0.0
 40
1.0
 50
270.0
 51
283.00000000012341
  0
ARC
  5
BF
  8
0
 10
82.487519797416439
 20
97.183526345227762
 30
0.0
 40
1.0
 50
256.99999999987671
 51
270.00000000000011
  0
LINE
  5
C0
  8
0
 10
83.136838998555106
 20
96.183526345227776
 30
0.0
 11
82.487519797416439
 21
96.183526345227776
 31
0.0
  0
LINE
  5
C1
  8
0
 10
83.136838998555106
 20
112.187834393275
 30
0.0
 11
82.134379424569204
 21
112.187834393275
 31
0.0
  0
ARC
  5
C2
  8
0
 10
106.5179093138791
 20
112.9079470387484
 30
0.0
 40
16.732026351831159
 50
251.1560052068576
 51
292.08760579284098
  0
ARC
  5
C3
  8
0
 10
92.377881659810996
 20
42.19047169523202
 30
0.0
 40
55.573150669800242
 50
80.955996235482118
 51
95.176914201414405
  0
ARC
  5
C4
  8
0
 10
116.8193316561033
 20
75.230443889545626
 30
0.0
 40
22.53308245568212
 50
78.000432148896394
 51
100.2504267751729
  0
ARC
  5
C5
  8
0
 10
83.136838998555106
 20
101.99664395379671
 30
0.0
 40
5.8131176085690184
 50
270.00000000000011
 51
304.3370422497631
  0
ARC
  5
C6
  8
0
 10
87.543906205096164
 20
95.545088683758237
 30
0.0
 40
2.0
 50
95.176914201414164
 51
124.3370422497632
  0
LINE
  5
C7
  8
0
 10
100.0104899283625
 20
110.17046772063129
 30
0.0
 11
100.0104899283625
 21
97.85961880239158
 31
0.0
  0
LINE
  5
C8
  8
0
 10
86.947208311620102
 20
110.17046772063129
 30
0.0
 11
86.947208311620102
 21
97.85961880239158
 31
0.0
  0
LINE
  5
C9
  8
0
 10
113.7532889043672
 20
110.17046772063129
 30
0.0
 11
113.7532889043672
 21
97.85961880239158
 31
0.0
  0
ARC
  5
CA
  8
0
 10
82.134379424569204
 20
111.187834393275
 30
0.0
 40
1.0
 50
90.000000000000028
 51
103.41608845541001
  0
ARC
  5
CB
  8
0
 10
87.543906205096164
 20
112.82627205474451
 30
0.0
 40
2.0
 50
235.66295775023681
 51
264.82308579858591
  0
ARC
  5
CC
  8
0
 10
83.136838998555106
 20
106.374716784706
 30
0.0
 40
5.8131176085690184
 50
55.662957750236878
 51
90.000000000000028
  0
ARC
  5
CD
  8
0
 10
116.8193316561033
 20
133.14091684895709
 30
0.0
 40
22.53308245568212
 50
259.7495732248272
 51
281.99956785110368
  0
ARC
  5
CE
  8
0
 10
92.377881659810996
 20
166.1808890432707
 30
0.0
 40
55.573150669800242
 50
264.82308579858568
 51
279.04400376451792
  0
ARC
  5
CF
  8
0
 10
106.5179093138791
 20
95.463413699754355
 30
0.0
 40
16.732026351831159
 50
67.912394207158982
 51
108.8439947931424
  0
ARC
  5
D0
  8
0
 10
120.7532889043672
 20
97.931725987921155
 30
0.0
 40
1.0
 50
283.00000000000028
 51
0.0000000000000254
  0
ARC
  5
D1
  8
0
 10
120.7532889043672
 20
110.4396347505816
 30
0.0
 40
1.0
 50
0.0000000000000254
 51
74.364101613357207
  0
LINE
  5
D2
  8
0
 10
121.7532889043672
 20
110.4396347505816
 30
0.0
 11
121.7532889043672
 21
97.931725987921155
 31
0.0
  0
LINE
  5
D3
  8
0
 10
112.499999999997
 20
94.204564083271293
 30
0.0
 11
112.499999999997
 21
82.75
 31
0.0
  0
LINE
  5
D4
  8
0
 10
87.499999999997044
 20
82.75
 30
0.0
 11
87.499999999997044
 21
94.204564083333935
 31
0.0
  0
LINE
  5
D5
  8
0
 10
107.999999999997
 20
81.5
 30
0.0
 11
107.999999999997
 21
80.0
 31
0.0
  0
LINE
  5
D6
  8
0
 10
107.999999999997
 20
80.0
 30
0.0
 11
91.999999999997044
 21
80.0
 31
0.0
  0
LINE
  5
D7
  8
0
 10
91.999999999997044
 20
80.0
 30
0.0
 11
91.999999999997044
 21
81.5
 31
0.0
  0
LINE
  5
D8
  8
0
 10
111.249999999997
 20
81.5
 30
0.0
 11
112.499999999997
 21
82.75
 31
0.0
  0
LINE
  5
D9
  8
0
 10
112.499999999997
 20
82.75
 30
0.0
 11
87.499999999997044
 21
82.75
 31
0.0
  0
LINE
  5
DA
  8
0
 10
87.499999999997044
 20
82.75
 30
0.0
 11
88.749999999997044
 21
81.5
 31
0.0
  0
LINE
  5
DB
  8
0
 10
86.724953615244885
 20
95.178933556887884
 30
0.0
 11
75.775048945651122
 21
97.706918240979235
 31
0.0
  0
LINE
  5
DC
  8
0
 10
74.999999999997044
 20
98.681288305763985
 30
0.0
 11
74.999999999997044
 21
109.38585238909791
 31
0.0
  0
LINE
  5
DD
  8
0
 10
113.2750489456532
 20
95.178934148056527
 30
0.0
 11
120.978239958711
 21
96.957355923135921
 31
0.0
  0
ARC
  5
DE
  8
0
 10
75.999999999997044
 20
98.681288305763985
 30
0.0
 40
1.0
 50
180.0
 51
256.99999999987659
  0
ARC
  5
DF
  8
0
 10
113.499999999997
 20
94.204564083271293
 30
0.0
 40
1.0
 50
103.0000000000001
 51
180.0
  0
ARC
  5
E0
  8
0
 10
86.499999999997044
 20
94.204564083333935
 30
0.0
 40
1.0
 50
0.0000000000000254
 51
76.999999999876579
  0
LINE
  5
E1
  8
0
 10
106.70946077913599
 20
114.0
 30
0.0
 11
93.290539220858363
 21
114.0
 31
0.0
  0
ARC
  5
E2
  8
0
 10
99.999999999997144
 20
36.289105422384971
 30
0.0
 40
78.0
 50
74.364101613356723
 51
85.065391747048167
  0
ARC
  5
E3
  8
0
 10
76.85093873796734
 20
108.7383227551139
 30
0.0
 40
1.9609357048630249
 50
115.71819757866319
 51
160.71819757866331
  0
ARC
  5
E4
  8
0
 10
99.999999999997144
 20
36.289105422384971
 30
0.0
 40
78.0
 50
94.934608252951961
 51
107.9202131393924
  0
LINE
  5
E5
  8
0
 10
112.499999999997
 20
95.0
 30
0.0
 11
87.499999999997044
 21
95.0
 31
0.0
  0
LINE
  5
E6
  8
1
 10
99.999999999998707
 20
119.0
 30
0.0
 11
99.999999999997385
 21
75.0
 31
0.0
  0
LINE
  5
E7
  8
0
 10
111.249999999997
 20
81.5
 30
0.0
 11
88.749999999997044
 21
81.5
 31
0.0
  0
CIRCLE
  5
1D8
  8
0
 10
189.99999999999801
 20
180.0
 30
0.0
 40
4.0
  0
CIRCLE
  5
1D9
  8
3
 10
189.99999999999801
 20
180.0
 30
0.0
 40
5.0
  0
LINE
  5
1F9
  8
2
 10
288.49999999999949
 20
81.5
 30
0.0
 11
288.49999999999949
 21
100.4999999999999
 31
0.0
  0
LINE
  5
1FA
  8
2
 10
285.99999999999949
 20
80.0
 30
0.0
 11
285.99999999999949
 21
102.0
 31
0.0
  0
LINE
  5
1FB
  8
2
 10
284.99999999999949
 20
81.0
 30
0.0
 11
284.99999999999949
 21
102.0
 31
0.0
  0
LINE
  5
1FC
  8
2
 10
274.99999999999949
 20
81.0
 30
0.0
 11
274.99999999999949
 21
102.0
 31
0.0
  0
LINE
  5
1FD
  8
2
 10
273.99999999999949
 20
80.0
 30
0.0
 11
273.99999999999949
 21
102.0
 31
0.0
  0
LINE
  5
1FE
  8
2
 10
271.49999999999949
 20
81.5
 30
0.0
 11
271.49999999999949
 21
100.5
 31
0.0
  0
LINE
  5
207
  8
2
 10
274.99999999999949
 20
81.0
 30
0.0
 11
284.99999999999949
 21
81.0
 31
0.0
  0
LINE
  5
208
  8
2
 10
273.99999999999949
 20
80.0
 30
0.0
 11
274.99999999999949
 21
81.0
 31
0.0
  0
LINE
  5
209
  8
2
 10
285.99999999999949
 20
80.0
 30
0.0
 11
284.99999999999949
 21
81.0
 31
0.0
  0
LINE
  5
20C
  8
2
 10
286.99999999999949
 20
102.0
 30
0.0
 11
272.99999999999949
 21
102.0
 31
0.0
  0
LINE
  5
213
  8
2
 10
272.99999999999949
 20
102.0
 30
0.0
 11
271.49999999999949
 21
100.5
 31
0.0
  0
LINE
  5
219
  8
2
 10
286.99999999999949
 20
102.0
 30
0.0
 11
288.49999999999949
 21
100.5
 31
0.0
  0
LINE
  5
221
  8
2
 10
273.49999999999949
 20
102.0
 30
0.0
 11
272.310218124036
 21
113.6200183889447
 31
0.0
  0
LINE
  5
222
  8
2
 10
286.49999999999949
 20
102.0
 30
0.0
 11
287.68978187596292
 21
113.6200183889447
 31
0.0
  0
LINE
  5
223
  8
2
 10
91.499999999997527
 20
81.5
 30
0.0
 11
91.499999999997527
 21
100.5
 31
0.0
  0
LINE
  5
224
  8
2
 10
93.999999999997527
 20
80.0
 30
0.0
 11
93.999999999997527
 21
102.0
 31
0.0
  0
LINE
  5
225
  8
2
 10
94.999999999997527
 20
81.0
 30
0.0
 11
94.999999999997527
 21
102.0
 31
0.0
  0
LINE
  5
226
  8
2
 10
93.999999999997527
 20
80.0
 30
0.0
 11
94.999999999997527
 21
81.0
 31
0.0
  0
LINE
  5
227
  8
2
 10
93.499999999997513
 20
102.0
 30
0.0
 11
92.310218124034066
 21
113.6200183889447
 31
0.0
  0
LINE
  5
228
  8
2
 10
92.999999999997527
 20
102.0
 30
0.0
 11
91.499999999997527
 21
100.5
 31
0.0
  0
LINE
  5
229
  8
2
 10
104.9999999999975
 20
81.0
 30
0.0
 11
104.9999999999975
 21
102.0
 31
0.0
  0
LINE
  5
22A
  8
2
 10
105.9999999999975
 20
80.0
 30
0.0
 11
105.9999999999975
 21
102.0
 31
0.0
  0
LINE
  5
22B
  8
2
 10
108.4999999999975
 20
81.5
 30
0.0
 11
108.4999999999975
 21
100.4999999999999
 31
0.0
  0
LINE
  5
22C
  8
2
 10
105.9999999999975
 20
80.0
 30
0.0
 11
104.9999999999975
 21
81.0
 31
0.0
  0
LINE
  5
22D
  8
2
 10
94.999999999997527
 20
81.0
 30
0.0
 11
104.9999999999975
 21
81.0
 31
0.0
  0
LINE
  5
22E
  8
2
 10
106.9999999999975
 20
102.0
 30
0.0
 11
92.999999999997527
 21
102.0
 31
0.0
  0
LINE
  5
22F
  8
2
 10
106.4999999999975
 20
102.0
 30
0.0
 11
107.689781875961
 21
113.6200183889447
 31
0.0
  0
LINE
  5
230
  8
2
 10
106.9999999999975
 20
102.0
 30
0.0
 11
108.4999999999975
 21
100.5
 31
0.0
  0
LINE
  5
231
  8
2
 10
198.49999999999949
 20
81.5
 30
0.0
 11
198.49999999999949
 21
100.4999999999999
 31
0.0
  0
LINE
  5
232
  8
2
 10
195.99999999999949
 20
80.0
 30
0.0
 11
195.99999999999949
 21
102.0
 31
0.0
  0
LINE
  5
233
  8
2
 10
194.99999999999949
 20
81.0
 30
0.0
 11
194.99999999999949
 21
102.0
 31
0.0
  0
LINE
  5
234
  8
2
 10
195.99999999999949
 20
80.0
 30
0.0
 11
194.99999999999949
 21
81.0
 31
0.0
  0
LINE
  5
235
  8
2
 10
184.99999999999949
 20
81.0
 30
0.0
 11
194.99999999999949
 21
81.0
 31
0.0
  0
LINE
  5
236
  8
2
 10
196.99999999999949
 20
102.0
 30
0.0
 11
182.99999999999949
 21
102.0
 31
0.0
  0
LINE
  5
237
  8
2
 10
196.49999999999949
 20
102.0
 30
0.0
 11
197.68978187596289
 21
113.6200183889447
 31
0.0
  0
LINE
  5
238
  8
0
 10
202.2562678727335
 20
99.128238580778273
 30
0.0
 11
202.2562678727335
 21
109.8328026641997
 31
0.0
  0
ARC
  5
239
  8
0
 10
203.2562678727335
 20
99.128238580778259
 30
0.0
 40
1.0
 50
180.0
 51
256.99999999999989
  0
LINE
  5
23A
  8
2
 10
196.99999999999949
 20
102.0
 30
0.0
 11
198.49999999999949
 21
100.5
 31
0.0
  0
LINE
  5
23B
  8
2
 10
184.99999999999949
 20
81.0
 30
0.0
 11
184.99999999999949
 21
102.0
 31
0.0
  0
LINE
  5
23C
  8
2
 10
183.99999999999949
 20
80.0
 30
0.0
 11
183.99999999999949
 21
102.0
 31
0.0
  0
LINE
  5
23D
  8
2
 10
181.49999999999949
 20
81.5
 30
0.0
 11
181.49999999999949
 21
100.5
 31
0.0
  0
LINE
  5
23E
  8
2
 10
183.49999999999949
 20
102.0
 30
0.0
 11
182.310218124036
 21
113.6200183889447
 31
0.0
  0
LINE
  5
23F
  8
2
 10
182.99999999999949
 20
102.0
 30
0.0
 11
181.49999999999949
 21
100.5
 31
0.0
  0
LINE
  5
240
  8
2
 10
183.99999999999949
 20
80.0
 30
0.0
 11
184.99999999999949
 21
81.0
 31
0.0
  0
TEXT
  5
346
  8
0
 62
     3
 10
0.0
 20
0.0
 30
0.0
 40
10.0
  1
TLK50A
  7
STANDARD1
  0
ENDSEC
  0
EOF
