  0
SECTION
  2
HEADER
  9
$ACADVER
  1
AC1009
  9
$INSBASE
 10
0.0
 20
0.0
 30
0.0
  9
$EXTMIN
 10
0.0
 20
-2.960436562073669
 30
0.0
  9
$EXTMAX
 10
354.88677753233532
 20
314.0
 30
0.0
  9
$LIMMIN
 10
0.0
 20
0.0
  9
$LIMMAX
 10
297.0
 20
210.0
  9
$ORTHOMODE
 70
     1
  9
$REGENMODE
 70
     1
  9
$FILLMODE
 70
     1
  9
$QTEXTMODE
 70
     0
  9
$MIRRTEXT
 70
     0
  9
$DRAGMODE
 70
     2
  9
$LTSCALE
 40
5.0
  9
$OSMODE
 70
    37
  9
$ATTMODE
 70
     1
  9
$TEXTSIZE
 40
3.0
  9
$TRACEWID
 40
0.05
  9
$TEXTSTYLE
  7
STANDARD
  9
$CLAYER
  8
0
  9
$CELTYPE
  6
BYLAYER
  9
$CECOLOR
 62
   256
  9
$DIMSCALE
 40
1.0
  9
$DIMASZ
 40
3.0
  9
$DIMEXO
 40
2.0
  9
$DIMDLI
 40
10.0
  9
$DIMRND
 40
0.0
  9
$DIMDLE
 40
0.0
  9
$DIMEXE
 40
2.0
  9
$DIMTP
 40
0.0
  9
$DIMTM
 40
0.0
  9
$DIMTXT
 40
3.0
  9
$DIMCEN
 40
0.0
  9
$DIMTSZ
 40
0.0
  9
$DIMTOL
 70
     0
  9
$DIMLIM
 70
     0
  9
$DIMTIH
 70
     0
  9
$DIMTOH
 70
     0
  9
$DIMSE1
 70
     0
  9
$DIMSE2
 70
     0
  9
$DIMTAD
 70
     1
  9
$DIMZIN
 70
     8
  9
$DIMBLK
  1

  9
$DIMASO
 70
     1
  9
$DIMSHO
 70
     0
  9
$DIMPOST
  1

  9
$DIMAPOST
  1

  9
$DIMALT
 70
     0
  9
$DIMALTD
 70
     2
  9
$DIMALTF
 40
25.399999999999999
  9
$DIMLFAC
 40
1.0
  9
$DIMTOFL
 70
     1
  9
$DIMTVP
 40
1.6000000000000001
  9
$DIMTIX
 70
     1
  9
$DIMSOXD
 70
     0
  9
$DIMSAH
 70
     0
  9
$DIMBLK1
  1

  9
$DIMBLK2
  1

  9
$DIMSTYLE
  2
STANDARD
  9
$DIMCLRD
 70
   256
  9
$DIMCLRE
 70
   256
  9
$DIMCLRT
 70
   256
  9
$DIMTFAC
 40
1.0
  9
$DIMGAP
 40
1.0
  9
$LUNITS
 70
     2
  9
$LUPREC
 70
     1
  9
$SKETCHINC
 40
0.1
  9
$FILLETRAD
 40
0.0
  9
$AUNITS
 70
     0
  9
$AUPREC
 70
     0
  9
$MENU
  1
ME
  9
$ELEVATION
 40
0.0
  9
$PELEVATION
 40
0.0
  9
$THICKNESS
 40
0.0
  9
$LIMCHECK
 70
     0
  9
$BLIPMODE
 70
     0
  9
$CHAMFERA
 40
1.0
  9
$CHAMFERB
 40
1.0
  9
$SKPOLY
 70
     0
  9
$TDCREATE
 40
2452423.367022106
  9
$TDUPDATE
 40
2459236.6037952551
  9
$TDINDWG
 40
0.6058708681
  9
$TDUSRTIMER
 40
0.6058676273
  9
$USRTIMER
 70
     1
  9
$ANGBASE
 50
0.0
  9
$ANGDIR
 70
     0
  9
$PDMODE
 70
     0
  9
$PDSIZE
 40
0.0
  9
$PLINEWID
 40
0.0
  9
$COORDS
 70
     1
  9
$SPLFRAME
 70
     0
  9
$SPLINETYPE
 70
     6
  9
$SPLINESEGS
 70
     8
  9
$ATTDIA
 70
     0
  9
$ATTREQ
 70
     1
  9
$HANDLING
 70
     1
  9
$HANDSEED
  5
2596
  9
$SURFTAB1
 70
     6
  9
$SURFTAB2
 70
     6
  9
$SURFTYPE
 70
     6
  9
$SURFU
 70
     6
  9
$SURFV
 70
     6
  9
$UCSNAME
  2

  9
$UCSORG
 10
0.0
 20
0.0
 30
0.0
  9
$UCSXDIR
 10
1.0
 20
0.0
 30
0.0
  9
$UCSYDIR
 10
0.0
 20
1.0
 30
0.0
  9
$PUCSNAME
  2

  9
$PUCSORG
 10
0.0
 20
0.0
 30
0.0
  9
$PUCSXDIR
 10
1.0
 20
0.0
 30
0.0
  9
$PUCSYDIR
 10
0.0
 20
1.0
 30
0.0
  9
$USERI1
 70
     4
  9
$USERI2
 70
     1
  9
$USERI3
 70
     1
  9
$USERI4
 70
     1
  9
$USERI5
 70
     0
  9
$USERR1
 40
1.0
  9
$USERR2
 40
3.0
  9
$USERR3
 40
3.0
  9
$USERR4
 40
3.0
  9
$USERR5
 40
10.0
  9
$WORLDVIEW
 70
     1
  9
$SHADEDGE
 70
     3
  9
$SHADEDIF
 70
    70
  9
$TILEMODE
 70
     1
  9
$MAXACTVP
 70
    16
  9
$PLIMCHECK
 70
     0
  9
$PEXTMIN
 10
1.0000000000000000E+020
 20
1.0000000000000000E+020
 30
1.0000000000000000E+020
  9
$PEXTMAX
 10
-1.0000000000000000E+020
 20
-1.0000000000000000E+020
 30
-1.0000000000000000E+020
  9
$PLIMMIN
 10
0.0
 20
0.0
  9
$PLIMMAX
 10
12.0
 20
9.0
  9
$UNITMODE
 70
     0
  9
$VISRETAIN
 70
     0
  9
$PLINEGEN
 70
     0
  9
$PSLTSCALE
 70
     0
  0
ENDSEC
  0
SECTION
  2
TABLES
  0
TABLE
  2
VPORT
 70
     1
  0
VPORT
  2
*ACTIVE
 70
     0
 10
0.0
 20
0.0
 11
1.0
 21
1.0
 12
529.41176470588232
 22
200.0
 13
0.0
 23
0.0
 14
5.0
 24
5.0
 15
10.0
 25
10.0
 16
0.0
 26
0.0
 36
1.0
 17
0.0
 27
0.0
 37
0.0
 40
400.0
 41
2.6470588235294108
 42
50.0
 43
0.0
 44
0.0
 50
0.0
 51
0.0
 71
     0
 72
   500
 73
     1
 74
     0
 75
     0
 76
     0
 77
     0
 78
     1
  0
ENDTAB
  0
TABLE
  2
LTYPE
 70
     3
  0
LTYPE
  2
CONTINUOUS
 70
     0
  3
Solid Line
 72
    65
 73
     0
 40
0.0
  0
LTYPE
  2
CENTER
 70
     0
  3
____ _ ____ _ ____ _ ____ _ ____ _ ____ _ ____
 72
    65
 73
     4
 40
2.0
 49
1.25
 49
-0.25
 49
0.25
 49
-0.25
  0
LTYPE
  2
HIDDEN
 70
     0
  3
_ _ _ _ _ _ _ _ _ _ _ _ _ _ _ _ _ _ _ _ _ _ _
 72
    65
 73
     2
 40
0.375
 49
0.25
 49
-0.125
  0
ENDTAB
  0
TABLE
  2
LAYER
 70
     6
  0
LAYER
  2
0
 70
     0
 62
     7
  6
CONTINUOUS
  0
LAYER
  2
1
 70
     0
 62
     1
  6
CENTER
  0
LAYER
  2
2
 70
     0
 62
     2
  6
HIDDEN
  0
LAYER
  2
3
 70
     0
 62
     3
  6
CONTINUOUS
  0
LAYER
  2
WAKU
 70
     0
 62
     5
  6
CONTINUOUS
  0
LAYER
  2
DEFPOINTS
 70
     0
 62
     7
  6
CONTINUOUS
  0
ENDTAB
  0
TABLE
  2
STYLE
 70
     2
  0
STYLE
  2
STANDARD
 70
     0
 40
0.0
 41
1.0
 50
0.0
 71
     0
 42
3.0
  3
simplex.shx
  4
EXTFONT.shx
  0
STYLE
  2
STANDARD1
 70
     0
 40
0.0
 41
1.0
 50
0.0
 71
     0
 42
3.0
  3
txt
  4

  0
ENDTAB
  0
TABLE
  2
VIEW
 70
     0
  0
ENDTAB
  0
TABLE
  2
UCS
 70
     0
  0
ENDTAB
  0
TABLE
  2
APPID
 70
     7
  0
APPID
  2
ACAD
 70
     0
  0
APPID
  2
ACAD_EXEMPT_FROM_CAD_STANDARDS
 70
     0
  0
APPID
  2
ACAD_DSTYLE_DIMJAG
 70
     0
  0
APPID
  2
ACAD_DSTYLE_DIMTALN
 70
     0
  0
APPID
  2
ACAD_DSTYLE_DIMRADIAL_EXTENSION
 70
     0
  0
APPID
  2
ACAD_MLEADERVER
 70
     0
  0
APPID
  2
ACAD_NAV_VCDISPLAY
 70
     0
  0
ENDTAB
  0
TABLE
  2
DIMSTYLE
 70
     1
  0
DIMSTYLE
  2
STANDARD
 70
     0
  3

  4

  5

  6

  7

 40
1.0
 41
0.18
 42
0.0625
 43
0.38
 44
0.18
 45
0.0
 46
0.0
 47
0.0
 48
0.0
140
0.18
141
0.09
142
0.0
143
25.399999999999999
144
1.0
145
0.0
146
1.0
147
0.09
 71
     0
 72
     0
 73
     1
 74
     1
 75
     0
 76
     0
 77
     0
 78
     0
170
     0
171
     2
172
     0
173
     0
174
     0
175
     0
176
     0
177
     0
178
     0
  0
ENDTAB
  0
ENDSEC
  0
SECTION
  2
BLOCKS
  0
BLOCK
  8
0
  2
$MODEL_SPACE
 70
     0
 10
0.0
 20
0.0
 30
0.0
  3
$MODEL_SPACE
  1

  0
ENDBLK
  5
33
  8
0
  0
BLOCK
 67
     1
  8
0
  2
$PAPER_SPACE
 70
     0
 10
0.0
 20
0.0
 30
0.0
  3
$PAPER_SPACE
  1

  0
ENDBLK
  5
31
 67
     1
  8
0
  0
BLOCK
  8
0
  2
ARROW1
 70
     0
 10
0.0
 20
0.0
 30
0.0
  3
ARROW1
  1

  0
SOLID
  5
D5
  8
WAKU
  6
CONTINUOUS
 62
     4
 10
-1.0
 20
0.1666666666666714
 30
0.0
 11
-1.0
 21
-0.1666666666666714
 31
0.0
 12
0.0
 22
0.0
 32
0.0
 13
0.0
 23
0.0
 33
0.0
  0
ENDBLK
  5
D7
  8
0
  0
ENDSEC
  0
SECTION
  2
ENTITIES
  0
TEXT
  5
1704
  8
0
 62
     3
 10
0.0
 20
0.0
 30
0.0
 40
10.0
  1
TLF10N-SUS
  7
STANDARD1
  0
LINE
  5
18BD
  8
2
 10
166.00000000000011
 20
173.2179429273661
 30
0.0
 11
161.8120000000001
 21
170.80000000000001
 31
0.0
  0
LINE
  5
18BE
  8
2
 10
170.1880000000001
 20
170.80000000000001
 30
0.0
 11
166.00000000000011
 21
173.2179429273661
 31
0.0
  0
LINE
  5
18BF
  8
2
 10
170.1880000000001
 20
170.80000000000001
 30
0.0
 11
161.8120000000001
 21
170.80000000000001
 31
0.0
  0
LINE
  5
18C0
  8
2
 10
161.8120000000001
 20
170.80000000000001
 30
0.0
 11
161.8120000000001
 21
154.81200000000001
 31
0.0
  0
LINE
  5
18C1
  8
2
 10
170.1880000000001
 20
154.81200000000001
 30
0.0
 11
170.1880000000001
 21
170.80000000000001
 31
0.0
  0
ARC
  5
18C2
  8
0
 10
193.8284658130861
 20
191.3015368960705
 30
0.0
 40
5.0000000000000329
 50
284.94203718416492
 51
290.00000000000341
  0
LINE
  5
18C3
  8
2
 10
170.1880000000001
 20
154.81200000000001
 30
0.0
 11
161.8120000000001
 21
154.81200000000001
 31
0.0
  0
LINE
  5
18C4
  8
2
 10
161.8120000000001
 20
154.81200000000001
 30
0.0
 11
161.00000000000011
 21
154.0
 31
0.0
  0
LINE
  5
18C5
  8
2
 10
171.00000000000011
 20
154.0
 30
0.0
 11
170.1880000000001
 21
154.81200000000001
 31
0.0
  0
ARC
  5
18C7
  8
0
 10
193.0000000000002
 20
190.99999999999969
 30
0.0
 40
4.9999999999997371
 50
270.0
 51
295.05796281583918
  0
LINE
  5
18CA
  8
0
 10
177.9999999999992
 20
186.0
 30
0.0
 11
193.00000000000011
 21
186.0
 31
0.0
  0
LINE
  5
18CB
  8
0
 10
192.11836509645761
 20
196.0
 30
0.0
 11
178.00000000000011
 21
196.0
 31
0.0
  0
LINE
  5
18CD
  8
0
 10
195.5385665297143
 20
186.60307379214089
 30
0.0
 11
246.08749682802849
 21
205.00137979472419
 31
0.0
  0
LINE
  5
18CE
  8
0
 10
242.6672953947718
 20
214.3983060025833
 30
0.0
 11
192.11836509645761
 21
195.99999999999989
 31
0.0
  0
LINE
  5
18CF
  8
0
 10
158.00000000000011
 20
158.5
 30
0.0
 11
158.00000000000011
 21
154.0
 31
0.0
  0
LINE
  5
18D0
  8
0
 10
174.00000000000011
 20
154.0
 30
0.0
 11
174.00000000000011
 21
158.5
 31
0.0
  0
LINE
  5
18D1
  8
0
 10
174.00000000000011
 20
154.0
 30
0.0
 11
158.00000000000011
 21
154.0
 31
0.0
  0
LINE
  5
18D2
  8
0
 10
242.03792271719851
 20
216.12749322263761
 30
0.0
 11
246.71686950560181
 21
203.2721925746699
 31
0.0
  0
ARC
  5
18D3
  8
0
 10
254.00000000000011
 20
212.5
 30
0.0
 40
12.499999999999989
 50
23.025878198717979
 51
163.13010235415561
  0
ARC
  5
18D4
  8
0
 10
253.5486446385184
 20
213.7400886638209
 30
0.0
 40
12.499999999999989
 50
236.86989764584561
 51
16.974121801281981
  0
LINE
  5
18D5
  8
0
 10
156.22500000000011
 20
198.5
 30
0.0
 11
154.00000000000011
 21
196.27499999999989
 31
0.0
  0
LINE
  5
18D6
  8
0
 10
178.00000000000011
 20
196.27499999999989
 30
0.0
 11
175.77500000000009
 21
198.5
 31
0.0
  0
LINE
  5
18D7
  8
0
 10
175.77500000000009
 20
198.5
 30
0.0
 11
156.22500000000011
 21
198.5
 31
0.0
  0
LINE
  5
18D8
  8
0
 10
177.55000000000001
 20
158.5
 30
0.0
 11
178.00000000000011
 21
158.94999999999999
 31
0.0
  0
LINE
  5
18D9
  8
0
 10
154.00000000000011
 20
158.94999999999999
 30
0.0
 11
154.4500000000001
 21
158.5
 31
0.0
  0
LINE
  5
18DA
  8
0
 10
177.55000000000001
 20
158.5
 30
0.0
 11
154.4500000000001
 21
158.5
 31
0.0
  0
LINE
  5
18DB
  8
0
 10
154.00000000000011
 20
196.27499999999989
 30
0.0
 11
154.00000000000011
 21
158.94999999999999
 31
0.0
  0
LINE
  5
18DC
  8
0
 10
178.00000000000011
 20
158.94999999999999
 30
0.0
 11
178.00000000000011
 21
185.99999999999781
 31
0.0
  0
LINE
  5
18DD
  8
0
 10
178.00000000000011
 20
196.0
 30
0.0
 11
178.00000000000011
 21
196.27499999999989
 31
0.0
  0
LINE
  5
18DE
  8
0
 10
178.00000000000011
 20
158.94999999999999
 30
0.0
 11
154.00000000000011
 21
158.94999999999999
 31
0.0
  0
POLYLINE
  5
18DF
  8
0
 66
     1
 10
0.0
 20
0.0
 30
0.0
  0
VERTEX
  5
1D6B
  8
0
 10
177.99999999996751
 20
195.99999999992161
 30
0.0
  0
VERTEX
  5
1D6C
  8
0
 10
177.99402487483701
 20
195.9856426564894
 30
0.0
  0
VERTEX
  5
1D6D
  8
0
 10
177.94568134715701
 20
195.8681929756134
 30
0.0
  0
VERTEX
  5
1D6E
  8
0
 10
177.84998259801841
 20
195.6284001094694
 30
0.0
  0
VERTEX
  5
1D6F
  8
0
 10
177.71859704384781
 20
195.28083130665959
 30
0.0
  0
VERTEX
  5
1D70
  8
0
 10
177.5585251656386
 20
194.82092973040591
 30
0.0
  0
VERTEX
  5
1D71
  8
0
 10
177.38012541416691
 20
194.24148954065339
 30
0.0
  0
VERTEX
  5
1D72
  8
0
 10
177.2037398378325
 20
193.55417038465151
 30
0.0
  0
VERTEX
  5
1D73
  8
0
 10
177.05410815430341
 20
192.7869826767587
 30
0.0
  0
VERTEX
  5
1D74
  8
0
 10
176.94854765834671
 20
191.9331108332274
 30
0.0
  0
VERTEX
  5
1D75
  8
0
 10
176.909486189033
 20
191.1299573341482
 30
0.0
  0
VERTEX
  5
1D76
  8
0
 10
176.9313983546688
 20
190.29610370902191
 30
0.0
  0
VERTEX
  5
1D77
  8
0
 10
177.00360493570261
 20
189.558014708461
 30
0.0
  0
VERTEX
  5
1D78
  8
0
 10
177.12064161167109
 20
188.8392895022173
 30
0.0
  0
VERTEX
  5
1D79
  8
0
 10
177.2708522879087
 20
188.165902031359
 30
0.0
  0
VERTEX
  5
1D7A
  8
0
 10
177.4413990875818
 20
187.54954885829179
 30
0.0
  0
VERTEX
  5
1D7B
  8
0
 10
177.6208271620844
 20
186.99455072045129
 30
0.0
  0
VERTEX
  5
1D7C
  8
0
 10
177.7856432994985
 20
186.53890282744149
 30
0.0
  0
VERTEX
  5
1D7D
  8
0
 10
177.9092467883693
 20
186.22190842843281
 30
0.0
  0
VERTEX
  5
1D7E
  8
0
 10
177.98440183526111
 20
186.03755228249139
 30
0.0
  0
VERTEX
  5
1D7F
  8
0
 10
177.9999999997076
 20
186.0000000007021
 30
0.0
  0
SEQEND
  5
1D80
  8
0
  0
LINE
  5
18E0
  8
0
 10
178.00000000000011
 20
196.27499999999989
 30
0.0
 11
154.00000000000011
 21
196.27499999999989
 31
0.0
  0
LINE
  5
18E1
  8
2
 10
171.00000000000011
 20
154.0
 30
0.0
 11
171.00000000000011
 21
168.0
 31
0.0
  0
LINE
  5
18E2
  8
2
 10
171.00000000000011
 20
168.0
 30
0.0
 11
161.00000000000011
 21
168.0
 31
0.0
  0
LINE
  5
18E3
  8
2
 10
161.00000000000011
 20
154.0
 30
0.0
 11
161.00000000000011
 21
168.0
 31
0.0
  0
LINE
  5
18E4
  8
1
 10
166.00000000000011
 20
203.5
 30
0.0
 11
166.0
 21
149.0
 31
0.0
  0
LINE
  5
18E5
  8
1
 10
166.0
 20
191.0
 30
0.0
 11
192.99999999999989
 21
190.99999999999989
 31
0.0
  0
LINE
  5
18E6
  8
1
 10
192.99999999999989
 20
190.99999999999989
 30
0.0
 11
270.20724964153078
 21
219.1011407390771
 31
0.0
  0
POLYLINE
  5
18FD
  8
0
 10
193.0
 20
292.16897220291486
 30
0.0
 66
     1
 70
     8
  0
VERTEX
  8
0
  5
2000
 10
193.000
 20
292.169
 30
0.000000
  70
    32
  0
VERTEX
  8
0
  5
2001
 10
193.003
 20
292.167
 30
0.000000
  70
    32
  0
VERTEX
  8
0
  5
2002
 10
193.006
 20
292.165
 30
0.000000
  70
    32
  0
VERTEX
  8
0
  5
2003
 10
193.008
 20
292.163
 30
0.000000
  70
    32
  0
VERTEX
  8
0
  5
2004
 10
193.011
 20
292.161
 30
0.000000
  70
    32
  0
VERTEX
  8
0
  5
2005
 10
193.014
 20
292.159
 30
0.000000
  70
    32
  0
VERTEX
  8
0
  5
2006
 10
193.017
 20
292.157
 30
0.000000
  70
    32
  0
VERTEX
  8
0
  5
2007
 10
193.019
 20
292.155
 30
0.000000
  70
    32
  0
VERTEX
  8
0
  5
2008
 10
193.022
 20
292.153
 30
0.000000
  70
    32
  0
VERTEX
  8
0
  5
2009
 10
193.025
 20
292.151
 30
0.000000
  70
    32
  0
VERTEX
  8
0
  5
200A
 10
193.028
 20
292.149
 30
0.000000
  70
    32
  0
VERTEX
  8
0
  5
200B
 10
193.030
 20
292.148
 30
0.000000
  70
    32
  0
VERTEX
  8
0
  5
200C
 10
193.033
 20
292.146
 30
0.000000
  70
    32
  0
VERTEX
  8
0
  5
200D
 10
193.036
 20
292.144
 30
0.000000
  70
    32
  0
VERTEX
  8
0
  5
200E
 10
193.039
 20
292.142
 30
0.000000
  70
    32
  0
VERTEX
  8
0
  5
200F
 10
193.041
 20
292.140
 30
0.000000
  70
    32
  0
VERTEX
  8
0
  5
2010
 10
193.044
 20
292.138
 30
0.000000
  70
    32
  0
VERTEX
  8
0
  5
2011
 10
193.047
 20
292.137
 30
0.000000
  70
    32
  0
VERTEX
  8
0
  5
2012
 10
193.050
 20
292.135
 30
0.000000
  70
    32
  0
VERTEX
  8
0
  5
2013
 10
193.053
 20
292.133
 30
0.000000
  70
    32
  0
VERTEX
  8
0
  5
2014
 10
193.055
 20
292.131
 30
0.000000
  70
    32
  0
VERTEX
  8
0
  5
2015
 10
193.058
 20
292.130
 30
0.000000
  70
    32
  0
VERTEX
  8
0
  5
2016
 10
193.061
 20
292.128
 30
0.000000
  70
    32
  0
VERTEX
  8
0
  5
2017
 10
193.064
 20
292.126
 30
0.000000
  70
    32
  0
VERTEX
  8
0
  5
2018
 10
193.066
 20
292.124
 30
0.000000
  70
    32
  0
VERTEX
  8
0
  5
2019
 10
193.069
 20
292.123
 30
0.000000
  70
    32
  0
VERTEX
  8
0
  5
201A
 10
193.072
 20
292.121
 30
0.000000
  70
    32
  0
VERTEX
  8
0
  5
201B
 10
193.075
 20
292.119
 30
0.000000
  70
    32
  0
VERTEX
  8
0
  5
201C
 10
193.078
 20
292.118
 30
0.000000
  70
    32
  0
VERTEX
  8
0
  5
201D
 10
193.080
 20
292.116
 30
0.000000
  70
    32
  0
VERTEX
  8
0
  5
201E
 10
193.083
 20
292.114
 30
0.000000
  70
    32
  0
VERTEX
  8
0
  5
201F
 10
193.086
 20
292.113
 30
0.000000
  70
    32
  0
VERTEX
  8
0
  5
2020
 10
193.089
 20
292.111
 30
0.000000
  70
    32
  0
VERTEX
  8
0
  5
2021
 10
193.091
 20
292.110
 30
0.000000
  70
    32
  0
VERTEX
  8
0
  5
2022
 10
193.094
 20
292.108
 30
0.000000
  70
    32
  0
VERTEX
  8
0
  5
2023
 10
193.097
 20
292.107
 30
0.000000
  70
    32
  0
VERTEX
  8
0
  5
2024
 10
193.100
 20
292.105
 30
0.000000
  70
    32
  0
VERTEX
  8
0
  5
2025
 10
193.103
 20
292.103
 30
0.000000
  70
    32
  0
VERTEX
  8
0
  5
2026
 10
193.105
 20
292.102
 30
0.000000
  70
    32
  0
VERTEX
  8
0
  5
2027
 10
193.108
 20
292.100
 30
0.000000
  70
    32
  0
VERTEX
  8
0
  5
2028
 10
193.111
 20
292.099
 30
0.000000
  70
    32
  0
VERTEX
  8
0
  5
2029
 10
193.114
 20
292.098
 30
0.000000
  70
    32
  0
VERTEX
  8
0
  5
202A
 10
193.117
 20
292.096
 30
0.000000
  70
    32
  0
VERTEX
  8
0
  5
202B
 10
193.119
 20
292.095
 30
0.000000
  70
    32
  0
VERTEX
  8
0
  5
202C
 10
193.122
 20
292.093
 30
0.000000
  70
    32
  0
VERTEX
  8
0
  5
202D
 10
193.125
 20
292.092
 30
0.000000
  70
    32
  0
VERTEX
  8
0
  5
202E
 10
193.128
 20
292.090
 30
0.000000
  70
    32
  0
VERTEX
  8
0
  5
202F
 10
193.131
 20
292.089
 30
0.000000
  70
    32
  0
VERTEX
  8
0
  5
2030
 10
193.133
 20
292.088
 30
0.000000
  70
    32
  0
VERTEX
  8
0
  5
2031
 10
193.136
 20
292.086
 30
0.000000
  70
    32
  0
VERTEX
  8
0
  5
2032
 10
193.139
 20
292.085
 30
0.000000
  70
    32
  0
VERTEX
  8
0
  5
2033
 10
193.142
 20
292.084
 30
0.000000
  70
    32
  0
VERTEX
  8
0
  5
2034
 10
193.145
 20
292.082
 30
0.000000
  70
    32
  0
VERTEX
  8
0
  5
2035
 10
193.147
 20
292.081
 30
0.000000
  70
    32
  0
VERTEX
  8
0
  5
2036
 10
193.150
 20
292.080
 30
0.000000
  70
    32
  0
VERTEX
  8
0
  5
2037
 10
193.153
 20
292.078
 30
0.000000
  70
    32
  0
VERTEX
  8
0
  5
2038
 10
193.156
 20
292.077
 30
0.000000
  70
    32
  0
VERTEX
  8
0
  5
2039
 10
193.159
 20
292.076
 30
0.000000
  70
    32
  0
VERTEX
  8
0
  5
203A
 10
193.161
 20
292.075
 30
0.000000
  70
    32
  0
VERTEX
  8
0
  5
203B
 10
193.164
 20
292.073
 30
0.000000
  70
    32
  0
VERTEX
  8
0
  5
203C
 10
193.167
 20
292.072
 30
0.000000
  70
    32
  0
VERTEX
  8
0
  5
203D
 10
193.170
 20
292.071
 30
0.000000
  70
    32
  0
VERTEX
  8
0
  5
203E
 10
193.173
 20
292.070
 30
0.000000
  70
    32
  0
VERTEX
  8
0
  5
203F
 10
193.176
 20
292.069
 30
0.000000
  70
    32
  0
VERTEX
  8
0
  5
2040
 10
193.178
 20
292.067
 30
0.000000
  70
    32
  0
VERTEX
  8
0
  5
2041
 10
193.181
 20
292.066
 30
0.000000
  70
    32
  0
VERTEX
  8
0
  5
2042
 10
193.184
 20
292.065
 30
0.000000
  70
    32
  0
VERTEX
  8
0
  5
2043
 10
193.187
 20
292.064
 30
0.000000
  70
    32
  0
VERTEX
  8
0
  5
2044
 10
193.190
 20
292.063
 30
0.000000
  70
    32
  0
VERTEX
  8
0
  5
2045
 10
193.192
 20
292.062
 30
0.000000
  70
    32
  0
VERTEX
  8
0
  5
2046
 10
193.195
 20
292.061
 30
0.000000
  70
    32
  0
VERTEX
  8
0
  5
2047
 10
193.198
 20
292.060
 30
0.000000
  70
    32
  0
VERTEX
  8
0
  5
2048
 10
193.201
 20
292.059
 30
0.000000
  70
    32
  0
VERTEX
  8
0
  5
2049
 10
193.204
 20
292.058
 30
0.000000
  70
    32
  0
VERTEX
  8
0
  5
204A
 10
193.206
 20
292.057
 30
0.000000
  70
    32
  0
VERTEX
  8
0
  5
204B
 10
193.209
 20
292.056
 30
0.000000
  70
    32
  0
VERTEX
  8
0
  5
204C
 10
193.212
 20
292.055
 30
0.000000
  70
    32
  0
VERTEX
  8
0
  5
204D
 10
193.215
 20
292.054
 30
0.000000
  70
    32
  0
VERTEX
  8
0
  5
204E
 10
193.218
 20
292.053
 30
0.000000
  70
    32
  0
VERTEX
  8
0
  5
204F
 10
193.221
 20
292.052
 30
0.000000
  70
    32
  0
VERTEX
  8
0
  5
2050
 10
193.223
 20
292.051
 30
0.000000
  70
    32
  0
VERTEX
  8
0
  5
2051
 10
193.226
 20
292.050
 30
0.000000
  70
    32
  0
VERTEX
  8
0
  5
2052
 10
193.229
 20
292.049
 30
0.000000
  70
    32
  0
VERTEX
  8
0
  5
2053
 10
193.232
 20
292.048
 30
0.000000
  70
    32
  0
VERTEX
  8
0
  5
2054
 10
193.235
 20
292.047
 30
0.000000
  70
    32
  0
VERTEX
  8
0
  5
2055
 10
193.238
 20
292.046
 30
0.000000
  70
    32
  0
VERTEX
  8
0
  5
2056
 10
193.240
 20
292.045
 30
0.000000
  70
    32
  0
VERTEX
  8
0
  5
2057
 10
193.243
 20
292.045
 30
0.000000
  70
    32
  0
VERTEX
  8
0
  5
2058
 10
193.246
 20
292.044
 30
0.000000
  70
    32
  0
VERTEX
  8
0
  5
2059
 10
193.249
 20
292.043
 30
0.000000
  70
    32
  0
VERTEX
  8
0
  5
205A
 10
193.252
 20
292.042
 30
0.000000
  70
    32
  0
VERTEX
  8
0
  5
205B
 10
193.254
 20
292.041
 30
0.000000
  70
    32
  0
VERTEX
  8
0
  5
205C
 10
193.257
 20
292.041
 30
0.000000
  70
    32
  0
VERTEX
  8
0
  5
205D
 10
193.260
 20
292.040
 30
0.000000
  70
    32
  0
VERTEX
  8
0
  5
205E
 10
193.263
 20
292.039
 30
0.000000
  70
    32
  0
VERTEX
  8
0
  5
205F
 10
193.266
 20
292.038
 30
0.000000
  70
    32
  0
VERTEX
  8
0
  5
2060
 10
193.269
 20
292.038
 30
0.000000
  70
    32
  0
VERTEX
  8
0
  5
2061
 10
193.271
 20
292.037
 30
0.000000
  70
    32
  0
VERTEX
  8
0
  5
2062
 10
193.274
 20
292.036
 30
0.000000
  70
    32
  0
VERTEX
  8
0
  5
2063
 10
193.277
 20
292.036
 30
0.000000
  70
    32
  0
VERTEX
  8
0
  5
2064
 10
193.280
 20
292.035
 30
0.000000
  70
    32
  0
VERTEX
  8
0
  5
2065
 10
193.283
 20
292.034
 30
0.000000
  70
    32
  0
VERTEX
  8
0
  5
2066
 10
193.286
 20
292.034
 30
0.000000
  70
    32
  0
VERTEX
  8
0
  5
2067
 10
193.288
 20
292.033
 30
0.000000
  70
    32
  0
VERTEX
  8
0
  5
2068
 10
193.291
 20
292.032
 30
0.000000
  70
    32
  0
VERTEX
  8
0
  5
2069
 10
193.294
 20
292.032
 30
0.000000
  70
    32
  0
VERTEX
  8
0
  5
206A
 10
193.297
 20
292.031
 30
0.000000
  70
    32
  0
VERTEX
  8
0
  5
206B
 10
193.300
 20
292.031
 30
0.000000
  70
    32
  0
VERTEX
  8
0
  5
206C
 10
193.303
 20
292.030
 30
0.000000
  70
    32
  0
VERTEX
  8
0
  5
206D
 10
193.305
 20
292.030
 30
0.000000
  70
    32
  0
VERTEX
  8
0
  5
206E
 10
193.308
 20
292.029
 30
0.000000
  70
    32
  0
VERTEX
  8
0
  5
206F
 10
193.311
 20
292.029
 30
0.000000
  70
    32
  0
VERTEX
  8
0
  5
2070
 10
193.314
 20
292.028
 30
0.000000
  70
    32
  0
VERTEX
  8
0
  5
2071
 10
193.317
 20
292.028
 30
0.000000
  70
    32
  0
VERTEX
  8
0
  5
2072
 10
193.320
 20
292.027
 30
0.000000
  70
    32
  0
VERTEX
  8
0
  5
2073
 10
193.322
 20
292.027
 30
0.000000
  70
    32
  0
VERTEX
  8
0
  5
2074
 10
193.325
 20
292.026
 30
0.000000
  70
    32
  0
VERTEX
  8
0
  5
2075
 10
193.328
 20
292.026
 30
0.000000
  70
    32
  0
VERTEX
  8
0
  5
2076
 10
193.331
 20
292.025
 30
0.000000
  70
    32
  0
VERTEX
  8
0
  5
2077
 10
193.334
 20
292.025
 30
0.000000
  70
    32
  0
VERTEX
  8
0
  5
2078
 10
193.337
 20
292.025
 30
0.000000
  70
    32
  0
VERTEX
  8
0
  5
2079
 10
193.339
 20
292.024
 30
0.000000
  70
    32
  0
VERTEX
  8
0
  5
207A
 10
193.342
 20
292.024
 30
0.000000
  70
    32
  0
VERTEX
  8
0
  5
207B
 10
193.345
 20
292.024
 30
0.000000
  70
    32
  0
VERTEX
  8
0
  5
207C
 10
193.348
 20
292.023
 30
0.000000
  70
    32
  0
VERTEX
  8
0
  5
207D
 10
193.351
 20
292.023
 30
0.000000
  70
    32
  0
VERTEX
  8
0
  5
207E
 10
193.354
 20
292.023
 30
0.000000
  70
    32
  0
VERTEX
  8
0
  5
207F
 10
193.357
 20
292.022
 30
0.000000
  70
    32
  0
VERTEX
  8
0
  5
2080
 10
193.359
 20
292.022
 30
0.000000
  70
    32
  0
SEQEND
  8
0
  5
2081
  0
ARC
  5
18FE
  8
0
 10
193.8284658130861
 20
296.99999999999818
 30
0.0
 40
5.0000000000017417
 50
90.0
 51
95.383501071731402
  0
ARC
  5
18FF
  8
0
 10
193.8284658130861
 20
296.99999999999972
 30
0.0
 40
4.9999999999997238
 50
264.61649892826199
 51
270.0
  0
POLYLINE
  5
1900
  8
0
 10
193.35935767919193
 20
301.9779451140721
 30
0.0
 66
     1
 70
     8
  0
VERTEX
  8
0
  5
2082
 10
193.359
 20
301.978
 30
0.000000
  70
    32
  0
VERTEX
  8
0
  5
2083
 10
193.357
 20
301.978
 30
0.000000
  70
    32
  0
VERTEX
  8
0
  5
2084
 10
193.354
 20
301.977
 30
0.000000
  70
    32
  0
VERTEX
  8
0
  5
2085
 10
193.351
 20
301.977
 30
0.000000
  70
    32
  0
VERTEX
  8
0
  5
2086
 10
193.348
 20
301.977
 30
0.000000
  70
    32
  0
VERTEX
  8
0
  5
2087
 10
193.345
 20
301.976
 30
0.000000
  70
    32
  0
VERTEX
  8
0
  5
2088
 10
193.342
 20
301.976
 30
0.000000
  70
    32
  0
VERTEX
  8
0
  5
2089
 10
193.339
 20
301.976
 30
0.000000
  70
    32
  0
VERTEX
  8
0
  5
208A
 10
193.337
 20
301.975
 30
0.000000
  70
    32
  0
VERTEX
  8
0
  5
208B
 10
193.334
 20
301.975
 30
0.000000
  70
    32
  0
VERTEX
  8
0
  5
208C
 10
193.331
 20
301.975
 30
0.000000
  70
    32
  0
VERTEX
  8
0
  5
208D
 10
193.328
 20
301.974
 30
0.000000
  70
    32
  0
VERTEX
  8
0
  5
208E
 10
193.325
 20
301.974
 30
0.000000
  70
    32
  0
VERTEX
  8
0
  5
208F
 10
193.322
 20
301.973
 30
0.000000
  70
    32
  0
VERTEX
  8
0
  5
2090
 10
193.320
 20
301.973
 30
0.000000
  70
    32
  0
VERTEX
  8
0
  5
2091
 10
193.317
 20
301.972
 30
0.000000
  70
    32
  0
VERTEX
  8
0
  5
2092
 10
193.314
 20
301.972
 30
0.000000
  70
    32
  0
VERTEX
  8
0
  5
2093
 10
193.311
 20
301.971
 30
0.000000
  70
    32
  0
VERTEX
  8
0
  5
2094
 10
193.308
 20
301.971
 30
0.000000
  70
    32
  0
VERTEX
  8
0
  5
2095
 10
193.305
 20
301.970
 30
0.000000
  70
    32
  0
VERTEX
  8
0
  5
2096
 10
193.303
 20
301.970
 30
0.000000
  70
    32
  0
VERTEX
  8
0
  5
2097
 10
193.300
 20
301.969
 30
0.000000
  70
    32
  0
VERTEX
  8
0
  5
2098
 10
193.297
 20
301.969
 30
0.000000
  70
    32
  0
VERTEX
  8
0
  5
2099
 10
193.294
 20
301.968
 30
0.000000
  70
    32
  0
VERTEX
  8
0
  5
209A
 10
193.291
 20
301.968
 30
0.000000
  70
    32
  0
VERTEX
  8
0
  5
209B
 10
193.288
 20
301.967
 30
0.000000
  70
    32
  0
VERTEX
  8
0
  5
209C
 10
193.286
 20
301.966
 30
0.000000
  70
    32
  0
VERTEX
  8
0
  5
209D
 10
193.283
 20
301.966
 30
0.000000
  70
    32
  0
VERTEX
  8
0
  5
209E
 10
193.280
 20
301.965
 30
0.000000
  70
    32
  0
VERTEX
  8
0
  5
209F
 10
193.277
 20
301.964
 30
0.000000
  70
    32
  0
VERTEX
  8
0
  5
20A0
 10
193.274
 20
301.964
 30
0.000000
  70
    32
  0
VERTEX
  8
0
  5
20A1
 10
193.271
 20
301.963
 30
0.000000
  70
    32
  0
VERTEX
  8
0
  5
20A2
 10
193.269
 20
301.962
 30
0.000000
  70
    32
  0
VERTEX
  8
0
  5
20A3
 10
193.266
 20
301.962
 30
0.000000
  70
    32
  0
VERTEX
  8
0
  5
20A4
 10
193.263
 20
301.961
 30
0.000000
  70
    32
  0
VERTEX
  8
0
  5
20A5
 10
193.260
 20
301.960
 30
0.000000
  70
    32
  0
VERTEX
  8
0
  5
20A6
 10
193.257
 20
301.959
 30
0.000000
  70
    32
  0
VERTEX
  8
0
  5
20A7
 10
193.254
 20
301.959
 30
0.000000
  70
    32
  0
VERTEX
  8
0
  5
20A8
 10
193.252
 20
301.958
 30
0.000000
  70
    32
  0
VERTEX
  8
0
  5
20A9
 10
193.249
 20
301.957
 30
0.000000
  70
    32
  0
VERTEX
  8
0
  5
20AA
 10
193.246
 20
301.956
 30
0.000000
  70
    32
  0
VERTEX
  8
0
  5
20AB
 10
193.243
 20
301.955
 30
0.000000
  70
    32
  0
VERTEX
  8
0
  5
20AC
 10
193.240
 20
301.955
 30
0.000000
  70
    32
  0
VERTEX
  8
0
  5
20AD
 10
193.238
 20
301.954
 30
0.000000
  70
    32
  0
VERTEX
  8
0
  5
20AE
 10
193.235
 20
301.953
 30
0.000000
  70
    32
  0
VERTEX
  8
0
  5
20AF
 10
193.232
 20
301.952
 30
0.000000
  70
    32
  0
VERTEX
  8
0
  5
20B0
 10
193.229
 20
301.951
 30
0.000000
  70
    32
  0
VERTEX
  8
0
  5
20B1
 10
193.226
 20
301.950
 30
0.000000
  70
    32
  0
VERTEX
  8
0
  5
20B2
 10
193.223
 20
301.949
 30
0.000000
  70
    32
  0
VERTEX
  8
0
  5
20B3
 10
193.221
 20
301.948
 30
0.000000
  70
    32
  0
VERTEX
  8
0
  5
20B4
 10
193.218
 20
301.947
 30
0.000000
  70
    32
  0
VERTEX
  8
0
  5
20B5
 10
193.215
 20
301.946
 30
0.000000
  70
    32
  0
VERTEX
  8
0
  5
20B6
 10
193.212
 20
301.945
 30
0.000000
  70
    32
  0
VERTEX
  8
0
  5
20B7
 10
193.209
 20
301.944
 30
0.000000
  70
    32
  0
VERTEX
  8
0
  5
20B8
 10
193.206
 20
301.943
 30
0.000000
  70
    32
  0
VERTEX
  8
0
  5
20B9
 10
193.204
 20
301.942
 30
0.000000
  70
    32
  0
VERTEX
  8
0
  5
20BA
 10
193.201
 20
301.941
 30
0.000000
  70
    32
  0
VERTEX
  8
0
  5
20BB
 10
193.198
 20
301.940
 30
0.000000
  70
    32
  0
VERTEX
  8
0
  5
20BC
 10
193.195
 20
301.939
 30
0.000000
  70
    32
  0
VERTEX
  8
0
  5
20BD
 10
193.192
 20
301.938
 30
0.000000
  70
    32
  0
VERTEX
  8
0
  5
20BE
 10
193.190
 20
301.937
 30
0.000000
  70
    32
  0
VERTEX
  8
0
  5
20BF
 10
193.187
 20
301.936
 30
0.000000
  70
    32
  0
VERTEX
  8
0
  5
20C0
 10
193.184
 20
301.935
 30
0.000000
  70
    32
  0
VERTEX
  8
0
  5
20C1
 10
193.181
 20
301.934
 30
0.000000
  70
    32
  0
VERTEX
  8
0
  5
20C2
 10
193.178
 20
301.933
 30
0.000000
  70
    32
  0
VERTEX
  8
0
  5
20C3
 10
193.176
 20
301.931
 30
0.000000
  70
    32
  0
VERTEX
  8
0
  5
20C4
 10
193.173
 20
301.930
 30
0.000000
  70
    32
  0
VERTEX
  8
0
  5
20C5
 10
193.170
 20
301.929
 30
0.000000
  70
    32
  0
VERTEX
  8
0
  5
20C6
 10
193.167
 20
301.928
 30
0.000000
  70
    32
  0
VERTEX
  8
0
  5
20C7
 10
193.164
 20
301.927
 30
0.000000
  70
    32
  0
VERTEX
  8
0
  5
20C8
 10
193.161
 20
301.925
 30
0.000000
  70
    32
  0
VERTEX
  8
0
  5
20C9
 10
193.159
 20
301.924
 30
0.000000
  70
    32
  0
VERTEX
  8
0
  5
20CA
 10
193.156
 20
301.923
 30
0.000000
  70
    32
  0
VERTEX
  8
0
  5
20CB
 10
193.153
 20
301.922
 30
0.000000
  70
    32
  0
VERTEX
  8
0
  5
20CC
 10
193.150
 20
301.920
 30
0.000000
  70
    32
  0
VERTEX
  8
0
  5
20CD
 10
193.147
 20
301.919
 30
0.000000
  70
    32
  0
VERTEX
  8
0
  5
20CE
 10
193.145
 20
301.918
 30
0.000000
  70
    32
  0
VERTEX
  8
0
  5
20CF
 10
193.142
 20
301.916
 30
0.000000
  70
    32
  0
VERTEX
  8
0
  5
20D0
 10
193.139
 20
301.915
 30
0.000000
  70
    32
  0
VERTEX
  8
0
  5
20D1
 10
193.136
 20
301.914
 30
0.000000
  70
    32
  0
VERTEX
  8
0
  5
20D2
 10
193.133
 20
301.912
 30
0.000000
  70
    32
  0
VERTEX
  8
0
  5
20D3
 10
193.131
 20
301.911
 30
0.000000
  70
    32
  0
VERTEX
  8
0
  5
20D4
 10
193.128
 20
301.910
 30
0.000000
  70
    32
  0
VERTEX
  8
0
  5
20D5
 10
193.125
 20
301.908
 30
0.000000
  70
    32
  0
VERTEX
  8
0
  5
20D6
 10
193.122
 20
301.907
 30
0.000000
  70
    32
  0
VERTEX
  8
0
  5
20D7
 10
193.119
 20
301.905
 30
0.000000
  70
    32
  0
VERTEX
  8
0
  5
20D8
 10
193.117
 20
301.904
 30
0.000000
  70
    32
  0
VERTEX
  8
0
  5
20D9
 10
193.114
 20
301.902
 30
0.000000
  70
    32
  0
VERTEX
  8
0
  5
20DA
 10
193.111
 20
301.901
 30
0.000000
  70
    32
  0
VERTEX
  8
0
  5
20DB
 10
193.108
 20
301.900
 30
0.000000
  70
    32
  0
VERTEX
  8
0
  5
20DC
 10
193.105
 20
301.898
 30
0.000000
  70
    32
  0
VERTEX
  8
0
  5
20DD
 10
193.103
 20
301.897
 30
0.000000
  70
    32
  0
VERTEX
  8
0
  5
20DE
 10
193.100
 20
301.895
 30
0.000000
  70
    32
  0
VERTEX
  8
0
  5
20DF
 10
193.097
 20
301.893
 30
0.000000
  70
    32
  0
VERTEX
  8
0
  5
20E0
 10
193.094
 20
301.892
 30
0.000000
  70
    32
  0
VERTEX
  8
0
  5
20E1
 10
193.091
 20
301.890
 30
0.000000
  70
    32
  0
VERTEX
  8
0
  5
20E2
 10
193.089
 20
301.889
 30
0.000000
  70
    32
  0
VERTEX
  8
0
  5
20E3
 10
193.086
 20
301.887
 30
0.000000
  70
    32
  0
VERTEX
  8
0
  5
20E4
 10
193.083
 20
301.886
 30
0.000000
  70
    32
  0
VERTEX
  8
0
  5
20E5
 10
193.080
 20
301.884
 30
0.000000
  70
    32
  0
VERTEX
  8
0
  5
20E6
 10
193.078
 20
301.882
 30
0.000000
  70
    32
  0
VERTEX
  8
0
  5
20E7
 10
193.075
 20
301.881
 30
0.000000
  70
    32
  0
VERTEX
  8
0
  5
20E8
 10
193.072
 20
301.879
 30
0.000000
  70
    32
  0
VERTEX
  8
0
  5
20E9
 10
193.069
 20
301.877
 30
0.000000
  70
    32
  0
VERTEX
  8
0
  5
20EA
 10
193.066
 20
301.876
 30
0.000000
  70
    32
  0
VERTEX
  8
0
  5
20EB
 10
193.064
 20
301.874
 30
0.000000
  70
    32
  0
VERTEX
  8
0
  5
20EC
 10
193.061
 20
301.872
 30
0.000000
  70
    32
  0
VERTEX
  8
0
  5
20ED
 10
193.058
 20
301.870
 30
0.000000
  70
    32
  0
VERTEX
  8
0
  5
20EE
 10
193.055
 20
301.869
 30
0.000000
  70
    32
  0
VERTEX
  8
0
  5
20EF
 10
193.053
 20
301.867
 30
0.000000
  70
    32
  0
VERTEX
  8
0
  5
20F0
 10
193.050
 20
301.865
 30
0.000000
  70
    32
  0
VERTEX
  8
0
  5
20F1
 10
193.047
 20
301.863
 30
0.000000
  70
    32
  0
VERTEX
  8
0
  5
20F2
 10
193.044
 20
301.862
 30
0.000000
  70
    32
  0
VERTEX
  8
0
  5
20F3
 10
193.041
 20
301.860
 30
0.000000
  70
    32
  0
VERTEX
  8
0
  5
20F4
 10
193.039
 20
301.858
 30
0.000000
  70
    32
  0
VERTEX
  8
0
  5
20F5
 10
193.036
 20
301.856
 30
0.000000
  70
    32
  0
VERTEX
  8
0
  5
20F6
 10
193.033
 20
301.854
 30
0.000000
  70
    32
  0
VERTEX
  8
0
  5
20F7
 10
193.030
 20
301.852
 30
0.000000
  70
    32
  0
VERTEX
  8
0
  5
20F8
 10
193.028
 20
301.851
 30
0.000000
  70
    32
  0
VERTEX
  8
0
  5
20F9
 10
193.025
 20
301.849
 30
0.000000
  70
    32
  0
VERTEX
  8
0
  5
20FA
 10
193.022
 20
301.847
 30
0.000000
  70
    32
  0
VERTEX
  8
0
  5
20FB
 10
193.019
 20
301.845
 30
0.000000
  70
    32
  0
VERTEX
  8
0
  5
20FC
 10
193.017
 20
301.843
 30
0.000000
  70
    32
  0
VERTEX
  8
0
  5
20FD
 10
193.014
 20
301.841
 30
0.000000
  70
    32
  0
VERTEX
  8
0
  5
20FE
 10
193.011
 20
301.839
 30
0.000000
  70
    32
  0
VERTEX
  8
0
  5
20FF
 10
193.008
 20
301.837
 30
0.000000
  70
    32
  0
VERTEX
  8
0
  5
2100
 10
193.006
 20
301.835
 30
0.000000
  70
    32
  0
VERTEX
  8
0
  5
2101
 10
193.003
 20
301.833
 30
0.000000
  70
    32
  0
VERTEX
  8
0
  5
2102
 10
193.000
 20
301.831
 30
0.000000
  70
    32
  0
SEQEND
  8
0
  5
2103
  0
POLYLINE
  5
1901
  8
0
 66
     1
 10
0.0
 20
0.0
 30
0.0
  0
VERTEX
  5
1D81
  8
0
 10
193.00000000000011
 20
292.16897220291492
 30
0.0
  0
VERTEX
  5
1D82
  8
0
 10
192.8735791864685
 20
292.28447530313412
 30
0.0
  0
VERTEX
  5
1D83
  8
0
 10
192.76382033102649
 20
292.43074859100761
 30
0.0
  0
VERTEX
  5
1D84
  8
0
 10
192.66406392653661
 20
292.61306788501543
 30
0.0
  0
VERTEX
  5
1D85
  8
0
 10
192.57563796529979
 20
292.82641641075912
 30
0.0
  0
VERTEX
  5
1D86
  8
0
 10
192.49911340337621
 20
293.06209404057017
 30
0.0
  0
VERTEX
  5
1D87
  8
0
 10
192.4308630337064
 20
293.32438137474043
 30
0.0
  0
VERTEX
  5
1D88
  8
0
 10
192.3685920159688
 20
293.62024401364999
 30
0.0
  0
VERTEX
  5
1D89
  8
0
 10
192.31385890995341
 20
293.94049423543089
 30
0.0
  0
VERTEX
  5
1D8A
  8
0
 10
192.2670805335228
 20
294.27669697977939
 30
0.0
  0
VERTEX
  5
1D8B
  8
0
 10
192.2269571276961
 20
294.63199491952332
 30
0.0
  0
VERTEX
  5
1D8C
  8
0
 10
192.19240847474629
 20
295.01522292258022
 30
0.0
  0
VERTEX
  5
1D8D
  8
0
 10
192.16456045906301
 20
295.4132775711858
 30
0.0
  0
VERTEX
  5
1D8E
  8
0
 10
192.1445429399817
 20
295.79525380794718
 30
0.0
  0
VERTEX
  5
1D8F
  8
0
 10
192.13019447876479
 20
296.18508431778679
 30
0.0
  0
VERTEX
  5
1D90
  8
0
 10
192.1213230073954
 20
296.5911331939015
 30
0.0
  0
VERTEX
  5
1D91
  8
0
 10
192.11836509645761
 20
297.0
 30
0.0
  0
SEQEND
  5
1D92
  8
0
  0
POLYLINE
  5
1902
  8
0
 66
     1
 10
0.0
 20
0.0
 30
0.0
  0
VERTEX
  5
1D93
  8
0
 10
192.11836509645761
 20
297.0
 30
0.0
  0
VERTEX
  5
1D94
  8
0
 10
192.11841952218461
 20
297.05555620543493
 30
0.0
  0
VERTEX
  5
1D95
  8
0
 10
192.12218552023629
 20
297.46454562209431
 30
0.0
  0
VERTEX
  5
1D96
  8
0
 10
192.13187747377819
 20
297.8703282176416
 30
0.0
  0
VERTEX
  5
1D97
  8
0
 10
192.14807957518639
 20
298.28158914062419
 30
0.0
  0
VERTEX
  5
1D98
  8
0
 10
192.1706409974957
 20
298.68349954193718
 30
0.0
  0
VERTEX
  5
1D99
  8
0
 10
192.1987461713249
 20
299.06232667440548
 30
0.0
  0
VERTEX
  5
1D9A
  8
0
 10
192.2330372850825
 20
299.42699060951799
 30
0.0
  0
VERTEX
  5
1D9B
  8
0
 10
192.27492706830441
 20
299.78471164818637
 30
0.0
  0
VERTEX
  5
1D9C
  8
0
 10
192.32372380881941
 20
300.12230290454949
 30
0.0
  0
VERTEX
  5
1D9D
  8
0
 10
192.3783408267949
 20
300.43033778145411
 30
0.0
  0
VERTEX
  5
1D9E
  8
0
 10
192.44018663127849
 20
300.71487598483458
 30
0.0
  0
VERTEX
  5
1D9F
  8
0
 10
192.51185409591571
 20
300.98101105783923
 30
0.0
  0
VERTEX
  5
1DA0
  8
0
 10
192.59246873070589
 20
301.21858640960289
 30
0.0
  0
VERTEX
  5
1DA1
  8
0
 10
192.67568820435159
 20
301.41105705351418
 30
0.0
  0
VERTEX
  5
1DA2
  8
0
 10
192.76875738940871
 20
301.57693919489839
 30
0.0
  0
VERTEX
  5
1DA3
  8
0
 10
192.87639563865889
 20
301.71864882621958
 30
0.0
  0
VERTEX
  5
1DA4
  8
0
 10
193.00000000000011
 20
301.8310277970852
 30
0.0
  0
SEQEND
  5
1DA5
  8
0
  0
LINE
  5
1906
  8
3
 10
193.00000000000011
 20
292.16897220291492
 30
0.0
 11
193.00000000000011
 21
301.8310277970852
 31
0.0
  0
CIRCLE
  5
1908
  8
0
 10
166.00000000000011
 20
297.0
 30
0.0
 40
12.0
  0
CIRCLE
  5
1909
  8
0
 10
166.00000000000011
 20
297.0
 30
0.0
 40
9.7750000000000004
  0
LINE
  5
190C
  8
0
 10
176.90871211463579
 20
291.99999999999989
 30
0.0
 11
242.78093399122179
 21
292.0
 31
0.0
  0
LINE
  5
190D
  8
0
 10
242.78093399122179
 20
302.0
 30
0.0
 11
176.90871211463579
 21
302.0
 31
0.0
  0
POLYLINE
  5
1910
  8
0
 10
243.23698258911199
 20
302.97243339897938
 30
0.0
 66
     1
 70
     8
  0
VERTEX
  8
0
  5
2104
 10
243.237
 20
302.972
 30
0.000000
  70
    32
  0
VERTEX
  8
0
  5
2105
 10
243.203
 20
302.916
 30
0.000000
  70
    32
  0
VERTEX
  8
0
  5
2106
 10
243.170
 20
302.858
 30
0.000000
  70
    32
  0
VERTEX
  8
0
  5
2107
 10
243.137
 20
302.799
 30
0.000000
  70
    32
  0
VERTEX
  8
0
  5
2108
 10
243.104
 20
302.738
 30
0.000000
  70
    32
  0
VERTEX
  8
0
  5
2109
 10
243.072
 20
302.675
 30
0.000000
  70
    32
  0
VERTEX
  8
0
  5
210A
 10
243.040
 20
302.611
 30
0.000000
  70
    32
  0
VERTEX
  8
0
  5
210B
 10
243.008
 20
302.546
 30
0.000000
  70
    32
  0
VERTEX
  8
0
  5
210C
 10
242.977
 20
302.478
 30
0.000000
  70
    32
  0
VERTEX
  8
0
  5
210D
 10
242.946
 20
302.410
 30
0.000000
  70
    32
  0
VERTEX
  8
0
  5
210E
 10
242.915
 20
302.339
 30
0.000000
  70
    32
  0
VERTEX
  8
0
  5
210F
 10
242.885
 20
302.268
 30
0.000000
  70
    32
  0
VERTEX
  8
0
  5
2110
 10
242.855
 20
302.195
 30
0.000000
  70
    32
  0
VERTEX
  8
0
  5
2111
 10
242.826
 20
302.120
 30
0.000000
  70
    32
  0
VERTEX
  8
0
  5
2112
 10
242.797
 20
302.044
 30
0.000000
  70
    32
  0
VERTEX
  8
0
  5
2113
 10
242.769
 20
301.967
 30
0.000000
  70
    32
  0
VERTEX
  8
0
  5
2114
 10
242.741
 20
301.888
 30
0.000000
  70
    32
  0
VERTEX
  8
0
  5
2115
 10
242.713
 20
301.808
 30
0.000000
  70
    32
  0
VERTEX
  8
0
  5
2116
 10
242.686
 20
301.726
 30
0.000000
  70
    32
  0
VERTEX
  8
0
  5
2117
 10
242.660
 20
301.644
 30
0.000000
  70
    32
  0
VERTEX
  8
0
  5
2118
 10
242.633
 20
301.560
 30
0.000000
  70
    32
  0
VERTEX
  8
0
  5
2119
 10
242.608
 20
301.474
 30
0.000000
  70
    32
  0
VERTEX
  8
0
  5
211A
 10
242.583
 20
301.388
 30
0.000000
  70
    32
  0
VERTEX
  8
0
  5
211B
 10
242.558
 20
301.300
 30
0.000000
  70
    32
  0
VERTEX
  8
0
  5
211C
 10
242.534
 20
301.211
 30
0.000000
  70
    32
  0
VERTEX
  8
0
  5
211D
 10
242.510
 20
301.121
 30
0.000000
  70
    32
  0
VERTEX
  8
0
  5
211E
 10
242.487
 20
301.030
 30
0.000000
  70
    32
  0
VERTEX
  8
0
  5
211F
 10
242.464
 20
300.938
 30
0.000000
  70
    32
  0
VERTEX
  8
0
  5
2120
 10
242.442
 20
300.844
 30
0.000000
  70
    32
  0
VERTEX
  8
0
  5
2121
 10
242.421
 20
300.750
 30
0.000000
  70
    32
  0
VERTEX
  8
0
  5
2122
 10
242.400
 20
300.654
 30
0.000000
  70
    32
  0
VERTEX
  8
0
  5
2123
 10
242.379
 20
300.558
 30
0.000000
  70
    32
  0
VERTEX
  8
0
  5
2124
 10
242.359
 20
300.460
 30
0.000000
  70
    32
  0
VERTEX
  8
0
  5
2125
 10
242.340
 20
300.362
 30
0.000000
  70
    32
  0
VERTEX
  8
0
  5
2126
 10
242.321
 20
300.263
 30
0.000000
  70
    32
  0
VERTEX
  8
0
  5
2127
 10
242.303
 20
300.162
 30
0.000000
  70
    32
  0
VERTEX
  8
0
  5
2128
 10
242.285
 20
300.061
 30
0.000000
  70
    32
  0
VERTEX
  8
0
  5
2129
 10
242.268
 20
299.959
 30
0.000000
  70
    32
  0
VERTEX
  8
0
  5
212A
 10
242.252
 20
299.857
 30
0.000000
  70
    32
  0
VERTEX
  8
0
  5
212B
 10
242.236
 20
299.753
 30
0.000000
  70
    32
  0
VERTEX
  8
0
  5
212C
 10
242.220
 20
299.649
 30
0.000000
  70
    32
  0
VERTEX
  8
0
  5
212D
 10
242.206
 20
299.544
 30
0.000000
  70
    32
  0
VERTEX
  8
0
  5
212E
 10
242.192
 20
299.438
 30
0.000000
  70
    32
  0
VERTEX
  8
0
  5
212F
 10
242.178
 20
299.331
 30
0.000000
  70
    32
  0
VERTEX
  8
0
  5
2130
 10
242.165
 20
299.224
 30
0.000000
  70
    32
  0
VERTEX
  8
0
  5
2131
 10
242.153
 20
299.117
 30
0.000000
  70
    32
  0
VERTEX
  8
0
  5
2132
 10
242.141
 20
299.008
 30
0.000000
  70
    32
  0
VERTEX
  8
0
  5
2133
 10
242.130
 20
298.900
 30
0.000000
  70
    32
  0
VERTEX
  8
0
  5
2134
 10
242.119
 20
298.790
 30
0.000000
  70
    32
  0
VERTEX
  8
0
  5
2135
 10
242.110
 20
298.680
 30
0.000000
  70
    32
  0
VERTEX
  8
0
  5
2136
 10
242.100
 20
298.570
 30
0.000000
  70
    32
  0
VERTEX
  8
0
  5
2137
 10
242.092
 20
298.459
 30
0.000000
  70
    32
  0
VERTEX
  8
0
  5
2138
 10
242.084
 20
298.348
 30
0.000000
  70
    32
  0
VERTEX
  8
0
  5
2139
 10
242.076
 20
298.237
 30
0.000000
  70
    32
  0
VERTEX
  8
0
  5
213A
 10
242.070
 20
298.125
 30
0.000000
  70
    32
  0
VERTEX
  8
0
  5
213B
 10
242.064
 20
298.013
 30
0.000000
  70
    32
  0
VERTEX
  8
0
  5
213C
 10
242.058
 20
297.900
 30
0.000000
  70
    32
  0
VERTEX
  8
0
  5
213D
 10
242.053
 20
297.788
 30
0.000000
  70
    32
  0
VERTEX
  8
0
  5
213E
 10
242.049
 20
297.675
 30
0.000000
  70
    32
  0
VERTEX
  8
0
  5
213F
 10
242.046
 20
297.562
 30
0.000000
  70
    32
  0
VERTEX
  8
0
  5
2140
 10
242.043
 20
297.448
 30
0.000000
  70
    32
  0
VERTEX
  8
0
  5
2141
 10
242.041
 20
297.335
 30
0.000000
  70
    32
  0
VERTEX
  8
0
  5
2142
 10
242.039
 20
297.222
 30
0.000000
  70
    32
  0
VERTEX
  8
0
  5
2143
 10
242.038
 20
297.108
 30
0.000000
  70
    32
  0
VERTEX
  8
0
  5
2144
 10
242.038
 20
296.995
 30
0.000000
  70
    32
  0
VERTEX
  8
0
  5
2145
 10
242.038
 20
296.881
 30
0.000000
  70
    32
  0
VERTEX
  8
0
  5
2146
 10
242.039
 20
296.768
 30
0.000000
  70
    32
  0
VERTEX
  8
0
  5
2147
 10
242.041
 20
296.654
 30
0.000000
  70
    32
  0
VERTEX
  8
0
  5
2148
 10
242.043
 20
296.541
 30
0.000000
  70
    32
  0
VERTEX
  8
0
  5
2149
 10
242.046
 20
296.428
 30
0.000000
  70
    32
  0
VERTEX
  8
0
  5
214A
 10
242.050
 20
296.314
 30
0.000000
  70
    32
  0
VERTEX
  8
0
  5
214B
 10
242.054
 20
296.202
 30
0.000000
  70
    32
  0
VERTEX
  8
0
  5
214C
 10
242.059
 20
296.089
 30
0.000000
  70
    32
  0
VERTEX
  8
0
  5
214D
 10
242.064
 20
295.977
 30
0.000000
  70
    32
  0
VERTEX
  8
0
  5
214E
 10
242.070
 20
295.864
 30
0.000000
  70
    32
  0
VERTEX
  8
0
  5
214F
 10
242.077
 20
295.753
 30
0.000000
  70
    32
  0
VERTEX
  8
0
  5
2150
 10
242.085
 20
295.641
 30
0.000000
  70
    32
  0
VERTEX
  8
0
  5
2151
 10
242.093
 20
295.530
 30
0.000000
  70
    32
  0
VERTEX
  8
0
  5
2152
 10
242.101
 20
295.419
 30
0.000000
  70
    32
  0
VERTEX
  8
0
  5
2153
 10
242.111
 20
295.309
 30
0.000000
  70
    32
  0
VERTEX
  8
0
  5
2154
 10
242.120
 20
295.199
 30
0.000000
  70
    32
  0
VERTEX
  8
0
  5
2155
 10
242.131
 20
295.090
 30
0.000000
  70
    32
  0
VERTEX
  8
0
  5
2156
 10
242.142
 20
294.981
 30
0.000000
  70
    32
  0
VERTEX
  8
0
  5
2157
 10
242.154
 20
294.873
 30
0.000000
  70
    32
  0
VERTEX
  8
0
  5
2158
 10
242.166
 20
294.765
 30
0.000000
  70
    32
  0
VERTEX
  8
0
  5
2159
 10
242.179
 20
294.658
 30
0.000000
  70
    32
  0
VERTEX
  8
0
  5
215A
 10
242.193
 20
294.552
 30
0.000000
  70
    32
  0
VERTEX
  8
0
  5
215B
 10
242.207
 20
294.446
 30
0.000000
  70
    32
  0
VERTEX
  8
0
  5
215C
 10
242.222
 20
294.341
 30
0.000000
  70
    32
  0
VERTEX
  8
0
  5
215D
 10
242.237
 20
294.237
 30
0.000000
  70
    32
  0
VERTEX
  8
0
  5
215E
 10
242.253
 20
294.134
 30
0.000000
  70
    32
  0
VERTEX
  8
0
  5
215F
 10
242.270
 20
294.031
 30
0.000000
  70
    32
  0
VERTEX
  8
0
  5
2160
 10
242.287
 20
293.929
 30
0.000000
  70
    32
  0
VERTEX
  8
0
  5
2161
 10
242.305
 20
293.828
 30
0.000000
  70
    32
  0
VERTEX
  8
0
  5
2162
 10
242.323
 20
293.728
 30
0.000000
  70
    32
  0
VERTEX
  8
0
  5
2163
 10
242.342
 20
293.629
 30
0.000000
  70
    32
  0
VERTEX
  8
0
  5
2164
 10
242.361
 20
293.530
 30
0.000000
  70
    32
  0
VERTEX
  8
0
  5
2165
 10
242.381
 20
293.433
 30
0.000000
  70
    32
  0
VERTEX
  8
0
  5
2166
 10
242.402
 20
293.337
 30
0.000000
  70
    32
  0
VERTEX
  8
0
  5
2167
 10
242.423
 20
293.241
 30
0.000000
  70
    32
  0
VERTEX
  8
0
  5
2168
 10
242.444
 20
293.147
 30
0.000000
  70
    32
  0
VERTEX
  8
0
  5
2169
 10
242.467
 20
293.054
 30
0.000000
  70
    32
  0
VERTEX
  8
0
  5
216A
 10
242.489
 20
292.961
 30
0.000000
  70
    32
  0
VERTEX
  8
0
  5
216B
 10
242.512
 20
292.870
 30
0.000000
  70
    32
  0
VERTEX
  8
0
  5
216C
 10
242.536
 20
292.780
 30
0.000000
  70
    32
  0
VERTEX
  8
0
  5
216D
 10
242.560
 20
292.692
 30
0.000000
  70
    32
  0
VERTEX
  8
0
  5
216E
 10
242.585
 20
292.604
 30
0.000000
  70
    32
  0
VERTEX
  8
0
  5
216F
 10
242.610
 20
292.518
 30
0.000000
  70
    32
  0
VERTEX
  8
0
  5
2170
 10
242.636
 20
292.432
 30
0.000000
  70
    32
  0
VERTEX
  8
0
  5
2171
 10
242.662
 20
292.349
 30
0.000000
  70
    32
  0
VERTEX
  8
0
  5
2172
 10
242.689
 20
292.266
 30
0.000000
  70
    32
  0
VERTEX
  8
0
  5
2173
 10
242.716
 20
292.185
 30
0.000000
  70
    32
  0
VERTEX
  8
0
  5
2174
 10
242.743
 20
292.105
 30
0.000000
  70
    32
  0
VERTEX
  8
0
  5
2175
 10
242.771
 20
292.026
 30
0.000000
  70
    32
  0
VERTEX
  8
0
  5
2176
 10
242.800
 20
291.949
 30
0.000000
  70
    32
  0
VERTEX
  8
0
  5
2177
 10
242.829
 20
291.873
 30
0.000000
  70
    32
  0
VERTEX
  8
0
  5
2178
 10
242.858
 20
291.798
 30
0.000000
  70
    32
  0
VERTEX
  8
0
  5
2179
 10
242.888
 20
291.725
 30
0.000000
  70
    32
  0
VERTEX
  8
0
  5
217A
 10
242.918
 20
291.654
 30
0.000000
  70
    32
  0
VERTEX
  8
0
  5
217B
 10
242.949
 20
291.584
 30
0.000000
  70
    32
  0
VERTEX
  8
0
  5
217C
 10
242.980
 20
291.515
 30
0.000000
  70
    32
  0
VERTEX
  8
0
  5
217D
 10
243.011
 20
291.448
 30
0.000000
  70
    32
  0
VERTEX
  8
0
  5
217E
 10
243.043
 20
291.383
 30
0.000000
  70
    32
  0
VERTEX
  8
0
  5
217F
 10
243.075
 20
291.319
 30
0.000000
  70
    32
  0
VERTEX
  8
0
  5
2180
 10
243.107
 20
291.256
 30
0.000000
  70
    32
  0
VERTEX
  8
0
  5
2181
 10
243.140
 20
291.195
 30
0.000000
  70
    32
  0
VERTEX
  8
0
  5
2182
 10
243.173
 20
291.136
 30
0.000000
  70
    32
  0
VERTEX
  8
0
  5
2183
 10
243.206
 20
291.078
 30
0.000000
  70
    32
  0
VERTEX
  8
0
  5
2184
 10
243.240
 20
291.022
 30
0.000000
  70
    32
  0
SEQEND
  8
0
  5
2185
  0
POLYLINE
  5
1911
  8
0
 66
     1
 10
0.0
 20
0.0
 30
0.0
  0
VERTEX
  5
1DA6
  8
0
 10
243.2402080867688
 20
291.0223112858402
 30
0.0
  0
VERTEX
  5
1DA7
  8
0
 10
243.43634615747749
 20
290.71426972772417
 30
0.0
  0
VERTEX
  5
1DA8
  8
0
 10
243.68043994107211
 20
290.35728302243717
 30
0.0
  0
VERTEX
  5
1DA9
  8
0
 10
243.9375347545361
 20
290.00849716817089
 30
0.0
  0
VERTEX
  5
1DAA
  8
0
 10
244.20728499435751
 20
289.66846110925809
 30
0.0
  0
VERTEX
  5
1DAB
  8
0
 10
244.48932951047391
 20
289.33769834812159
 30
0.0
  0
VERTEX
  5
1DAC
  8
0
 10
244.78329263399459
 20
289.01670771468213
 30
0.0
  0
VERTEX
  5
1DAD
  8
0
 10
245.08878498053181
 20
288.70596429186293
 30
0.0
  0
VERTEX
  5
1DAE
  8
0
 10
245.405404100021
 20
288.40592033575763
 30
0.0
  0
VERTEX
  5
1DAF
  8
0
 10
245.73273502818449
 20
288.11700610619909
 30
0.0
  0
VERTEX
  5
1DB0
  8
0
 10
246.07035078009349
 20
287.83963057134559
 30
0.0
  0
VERTEX
  5
1DB1
  8
0
 10
246.4570384870336
 20
287.5454178885854
 30
0.0
  0
VERTEX
  5
1DB2
  8
0
 10
246.8548076718219
 20
287.2667428020842
 30
0.0
  0
VERTEX
  5
1DB3
  8
0
 10
247.2618831783345
 20
287.00470530209861
 30
0.0
  0
VERTEX
  5
1DB4
  8
0
 10
247.67754816937691
 20
286.75953704312622
 30
0.0
  0
VERTEX
  5
1DB5
  8
0
 10
248.10111555508161
 20
286.5314256199718
 30
0.0
  0
VERTEX
  5
1DB6
  8
0
 10
248.53189979906679
 20
286.32053551545891
 30
0.0
  0
VERTEX
  5
1DB7
  8
0
 10
248.9692161782003
 20
286.12700871330537
 30
0.0
  0
VERTEX
  5
1DB8
  8
0
 10
249.41238087989711
 20
285.95096473573579
 30
0.0
  0
VERTEX
  5
1DB9
  8
0
 10
249.8607112410933
 20
285.7925006064799
 30
0.0
  0
VERTEX
  5
1DBA
  8
0
 10
250.31352609115311
 20
285.65169078049308
 30
0.0
  0
VERTEX
  5
1DBB
  8
0
 10
250.7701461798101
 20
285.52858706278607
 30
0.0
  0
VERTEX
  5
1DBC
  8
0
 10
251.2298946746636
 20
285.4232185317959
 30
0.0
  0
VERTEX
  5
1DBD
  8
0
 10
251.692097715329
 20
285.33559147789822
 30
0.0
  0
VERTEX
  5
1DBE
  8
0
 10
252.15608501344769
 20
285.26568936420779
 30
0.0
  0
VERTEX
  5
1DBF
  8
0
 10
252.6211904894941
 20
285.21347281433879
 30
0.0
  0
VERTEX
  5
1DC0
  8
0
 10
253.0867529387331
 20
285.17887963002948
 30
0.0
  0
VERTEX
  5
1DC1
  8
0
 10
253.5521167198344
 20
285.16182484024938
 30
0.0
  0
VERTEX
  5
1DC2
  8
0
 10
254.01663246060789
 20
285.16220078248989
 30
0.0
  0
VERTEX
  5
1DC3
  8
0
 10
254.479657738111
 20
285.17987721409781
 30
0.0
  0
VERTEX
  5
1DC4
  8
0
 10
254.94055617813129
 20
285.21470129697678
 30
0.0
  0
VERTEX
  5
1DC5
  8
0
 10
255.39870158514719
 20
285.26649790893219
 30
0.0
  0
VERTEX
  5
1DC6
  8
0
 10
255.85347693134341
 20
285.33506987711161
 30
0.0
  0
VERTEX
  5
1DC7
  8
0
 10
256.30427508782537
 20
285.4201982085404
 30
0.0
  0
VERTEX
  5
1DC8
  8
0
 10
256.75049955253053
 20
285.5216423473679
 30
0.0
  0
VERTEX
  5
1DC9
  8
0
 10
257.19156517217152
 20
285.63914045692258
 30
0.0
  0
VERTEX
  5
1DCA
  8
0
 10
257.6268988563092
 20
285.77240972452722
 30
0.0
  0
VERTEX
  5
1DCB
  8
0
 10
258.05594028185971
 20
285.9211466868486
 30
0.0
  0
VERTEX
  5
1DCC
  8
0
 10
258.47814258652789
 20
286.0850275733863
 30
0.0
  0
VERTEX
  5
1DCD
  8
0
 10
258.89297304984359
 20
286.26370866552372
 30
0.0
  0
VERTEX
  5
1DCE
  8
0
 10
259.29991376065419
 20
286.45682666838809
 30
0.0
  0
VERTEX
  5
1DCF
  8
0
 10
259.69846227010959
 20
286.6639990925961
 30
0.0
  0
VERTEX
  5
1DD0
  8
0
 10
260.08813222939989
 20
286.88482464282532
 30
0.0
  0
VERTEX
  5
1DD1
  8
0
 10
260.4684540117446
 20
287.11888361008698
 30
0.0
  0
VERTEX
  5
1DD2
  8
0
 10
260.83897531847771
 20
287.36573826464962
 30
0.0
  0
VERTEX
  5
1DD3
  8
0
 10
261.19926176949161
 20
287.6249332468775
 30
0.0
  0
VERTEX
  5
1DD4
  8
0
 10
261.54889747892139
 20
287.89599595400671
 30
0.0
  0
VERTEX
  5
1DD5
  8
0
 10
261.88748561777868
 20
288.17843692233191
 30
0.0
  0
VERTEX
  5
1DD6
  8
0
 10
262.21464896643158
 20
288.47175020693561
 30
0.0
  0
VERTEX
  5
1DD7
  8
0
 10
262.53003046147921
 20
288.77541376564
 30
0.0
  0
VERTEX
  5
1DD8
  8
0
 10
262.83329374385079
 20
289.08888986149191
 30
0.0
  0
VERTEX
  5
1DD9
  8
0
 10
263.12412371804197
 20
289.41162551054128
 30
0.0
  0
VERTEX
  5
1DDA
  8
0
 10
263.4022271364081
 20
289.74305302167528
 30
0.0
  0
VERTEX
  5
1DDB
  8
0
 10
263.66733322734308
 20
290.08259070681709
 30
0.0
  0
VERTEX
  5
1DDC
  8
0
 10
263.91919439151388
 20
290.42964388863112
 30
0.0
  0
VERTEX
  5
1DDD
  8
0
 10
264.15758699474588
 20
290.78360640678341
 30
0.0
  0
VERTEX
  5
1DDE
  8
0
 10
264.38231228639199
 20
291.14386293221082
 30
0.0
  0
VERTEX
  5
1DDF
  8
0
 10
264.59319746135441
 20
291.5097925507859
 30
0.0
  0
VERTEX
  5
1DE0
  8
0
 10
264.79009684941349
 20
291.88077427538752
 30
0.0
  0
VERTEX
  5
1DE1
  8
0
 10
264.9728931342753
 20
292.25619536824058
 30
0.0
  0
VERTEX
  5
1DE2
  8
0
 10
265.14149833966718
 20
292.63546352588207
 30
0.0
  0
VERTEX
  5
1DE3
  8
0
 10
265.2958540183584
 20
293.01802389370062
 30
0.0
  0
VERTEX
  5
1DE4
  8
0
 10
265.43592958651141
 20
293.40338108405069
 30
0.0
  0
VERTEX
  5
1DE5
  8
0
 10
265.5617170552801
 20
293.79112399719219
 30
0.0
  0
VERTEX
  5
1DE6
  8
0
 10
265.67321972923071
 20
294.18094589507689
 30
0.0
  0
VERTEX
  5
1DE7
  8
0
 10
265.77043256912327
 20
294.5726425862423
 30
0.0
  0
VERTEX
  5
1DE8
  8
0
 10
265.85331494269349
 20
294.96606026334712
 30
0.0
  0
VERTEX
  5
1DE9
  8
0
 10
265.92176597403738
 20
295.36096945383508
 30
0.0
  0
VERTEX
  5
1DEA
  8
0
 10
265.97562883990253
 20
295.75691414478871
 30
0.0
  0
VERTEX
  5
1DEB
  8
0
 10
266.01475149335772
 20
296.15327499106547
 30
0.0
  0
VERTEX
  5
1DEC
  8
0
 10
266.0390642674563
 20
296.54991406803782
 30
0.0
  0
VERTEX
  5
1DED
  8
0
 10
266.0485183129253
 20
296.94832096925848
 30
0.0
  0
VERTEX
  5
1DEE
  8
0
 10
266.04277376582968
 20
297.35232372767422
 30
0.0
  0
VERTEX
  5
1DEF
  8
0
 10
266.02085404084011
 20
297.76668327932691
 30
0.0
  0
VERTEX
  5
1DF0
  8
0
 10
265.98110248241409
 20
298.19554824497862
 30
0.0
  0
VERTEX
  5
1DF1
  8
0
 10
265.92851568504051
 20
298.59480189713281
 30
0.0
  0
VERTEX
  5
1DF2
  8
0
 10
265.86014076227991
 20
298.99807118620868
 30
0.0
  0
VERTEX
  5
1DF3
  8
0
 10
265.7760243825665
 20
299.40285667953577
 30
0.0
  0
VERTEX
  5
1DF4
  8
0
 10
265.67636543199671
 20
299.8072495208686
 30
0.0
  0
VERTEX
  5
1DF5
  8
0
 10
265.5613697660196
 20
300.21001393821081
 30
0.0
  0
VERTEX
  5
1DF6
  8
0
 10
265.43121290460721
 20
300.61030909843902
 30
0.0
  0
VERTEX
  5
1DF7
  8
0
 10
265.28605495782921
 20
301.00744982406849
 30
0.0
  0
VERTEX
  5
1DF8
  8
0
 10
265.12606234578772
 20
301.40078776444568
 30
0.0
  0
VERTEX
  5
1DF9
  8
0
 10
264.9514218837416
 20
301.78967209077769
 30
0.0
  0
VERTEX
  5
1DFA
  8
0
 10
264.76234681554899
 20
302.17344620718779
 30
0.0
  0
VERTEX
  5
1DFB
  8
0
 10
264.55907770634161
 20
302.55145607816161
 30
0.0
  0
VERTEX
  5
1DFC
  8
0
 10
264.3418808217711
 20
302.92305963086579
 30
0.0
  0
VERTEX
  5
1DFD
  8
0
 10
264.11104564900859
 20
303.28763379198301
 30
0.0
  0
VERTEX
  5
1DFE
  8
0
 10
263.86688241102382
 20
303.64457872538918
 30
0.0
  0
VERTEX
  5
1DFF
  8
0
 10
263.60971992316649
 20
303.99331984464038
 30
0.0
  0
VERTEX
  5
1E00
  8
0
 10
263.33990387414673
 20
304.33330834102389
 30
0.0
  0
VERTEX
  5
1E01
  8
0
 10
263.05779549307238
 20
304.66402084451022
 30
0.0
  0
VERTEX
  5
1E02
  8
0
 10
262.76377052312409
 20
304.9849586529138
 30
0.0
  0
VERTEX
  5
1E03
  8
0
 10
262.45821841920372
 20
305.29564680607803
 30
0.0
  0
VERTEX
  5
1E04
  8
0
 10
262.14154169876531
 20
305.59563316601009
 30
0.0
  0
VERTEX
  5
1E05
  8
0
 10
261.8141553907501
 20
305.88448758691499
 30
0.0
  0
VERTEX
  5
1E06
  8
0
 10
261.47648654224531
 20
306.16180121131322
 30
0.0
  0
VERTEX
  5
1E07
  8
0
 10
261.08974967886201
 20
306.4559375870906
 30
0.0
  0
VERTEX
  5
1E08
  8
0
 10
260.69193502722879
 20
306.73453452243132
 30
0.0
  0
VERTEX
  5
1E09
  8
0
 10
260.28481732768699
 20
306.99649279868629
 30
0.0
  0
VERTEX
  5
1E0A
  8
0
 10
259.86911338936142
 20
307.24158089560939
 30
0.0
  0
VERTEX
  5
1E0B
  8
0
 10
259.44551029696368
 20
307.46961132662261
 30
0.0
  0
VERTEX
  5
1E0C
  8
0
 10
259.0146935831246
 20
307.6804197153852
 30
0.0
  0
VERTEX
  5
1E0D
  8
0
 10
258.57734796705131
 20
307.87386418429548
 30
0.0
  0
VERTEX
  5
1E0E
  8
0
 10
258.13415725655068
 20
308.04982531729701
 30
0.0
  0
VERTEX
  5
1E0F
  8
0
 10
257.68580410851553
 20
308.20820619710389
 30
0.0
  0
VERTEX
  5
1E10
  8
0
 10
257.23296968557509
 20
308.34893247557648
 30
0.0
  0
VERTEX
  5
1E11
  8
0
 10
256.77633322779218
 20
308.47195245490269
 30
0.0
  0
VERTEX
  5
1E12
  8
0
 10
256.3165715548688
 20
308.57723716417712
 30
0.0
  0
VERTEX
  5
1E13
  8
0
 10
255.8543585117568
 20
308.66478042079729
 30
0.0
  0
VERTEX
  5
1E14
  8
0
 10
255.3903643684537
 20
308.73459886954652
 30
0.0
  0
VERTEX
  5
1E15
  8
0
 10
254.92525518304001
 20
308.78673199469659
 30
0.0
  0
VERTEX
  5
1E16
  8
0
 10
254.4596921356017
 20
308.82124210223878
 30
0.0
  0
VERTEX
  5
1E17
  8
0
 10
253.99433083952101
 20
308.83821427062469
 30
0.0
  0
VERTEX
  5
1E18
  8
0
 10
253.5298206356741
 20
308.83775626932311
 30
0.0
  0
VERTEX
  5
1E19
  8
0
 10
253.0668039205633
 20
308.81999844781518
 30
0.0
  0
VERTEX
  5
1E1A
  8
0
 10
252.6059170217695
 20
308.78509375021918
 30
0.0
  0
VERTEX
  5
1E1B
  8
0
 10
252.1477860932151
 20
308.73321740340458
 30
0.0
  0
VERTEX
  5
1E1C
  8
0
 10
251.69302811766741
 20
308.66456668387559
 30
0.0
  0
VERTEX
  5
1E1D
  8
0
 10
251.24225017552209
 20
308.57936068710359
 30
0.0
  0
VERTEX
  5
1E1E
  8
0
 10
250.79604871691751
 20
308.47784007016139
 30
0.0
  0
VERTEX
  5
1E1F
  8
0
 10
250.3550088398228
 20
308.36026676955379
 30
0.0
  0
VERTEX
  5
1E20
  8
0
 10
249.91970357600661
 20
308.2269236963009
 30
0.0
  0
VERTEX
  5
1E21
  8
0
 10
249.49069318657931
 20
308.07811441049643
 30
0.0
  0
VERTEX
  5
1E22
  8
0
 10
249.0685244686149
 20
307.9141627777397
 30
0.0
  0
VERTEX
  5
1E23
  8
0
 10
248.65373007417611
 20
307.73541261001742
 30
0.0
  0
VERTEX
  5
1E24
  8
0
 10
248.24682784288879
 20
307.54222729378932
 30
0.0
  0
VERTEX
  5
1E25
  8
0
 10
247.84832014902591
 20
307.3349894082038
 30
0.0
  0
VERTEX
  5
1E26
  8
0
 10
247.45869326384559
 20
307.11410033650151
 30
0.0
  0
VERTEX
  5
1E27
  8
0
 10
247.07841673367511
 20
306.87997987373183
 30
0.0
  0
VERTEX
  5
1E28
  8
0
 10
246.70794277390209
 20
306.63306583383451
 30
0.0
  0
VERTEX
  5
1E29
  8
0
 10
246.34770567860099
 20
306.37381365881402
 30
0.0
  0
VERTEX
  5
1E2A
  8
0
 10
245.99812124491751
 20
306.10269603198822
 30
0.0
  0
VERTEX
  5
1E2B
  8
0
 10
245.65958621048941
 20
305.82020249581927
 30
0.0
  0
VERTEX
  5
1E2C
  8
0
 10
245.3324777010053
 20
305.52683907218528
 30
0.0
  0
VERTEX
  5
1E2D
  8
0
 10
245.0171526833434
 20
305.2231278783824
 30
0.0
  0
VERTEX
  5
1E2E
  8
0
 10
244.71394741744359
 20
304.9096067244991
 30
0.0
  0
VERTEX
  5
1E2F
  8
0
 10
244.4231768969924
 20
304.5868286653357
 30
0.0
  0
VERTEX
  5
1E30
  8
0
 10
244.14513426496751
 20
304.25536145997711
 30
0.0
  0
VERTEX
  5
1E31
  8
0
 10
243.88009018520111
 20
303.91578686053577
 30
0.0
  0
VERTEX
  5
1E32
  8
0
 10
243.62829214575589
 20
303.56869960263413
 30
0.0
  0
VERTEX
  5
1E33
  8
0
 10
243.3899636655147
 20
303.21470589615399
 30
0.0
  0
VERTEX
  5
1E34
  8
0
 10
243.23698258911199
 20
302.97243339897938
 30
0.0
  0
SEQEND
  5
1E35
  8
0
  0
LINE
  5
1914
  8
1
 10
149.00000000000011
 20
297.0
 30
0.0
 11
271.0482889146756
 21
297.0
 31
0.0
  0
LINE
  5
1915
  8
1
 10
166.00000000000011
 20
280.0
 30
0.0
 11
166.00000000000011
 21
314.0
 31
0.0
  0
LINE
  5
191A
  8
2
 10
338.04864463851828
 20
173.2179429273661
 30
0.0
 11
333.86064463851829
 21
170.80000000000001
 31
0.0
  0
LINE
  5
191B
  8
2
 10
342.2366446385185
 20
170.80000000000001
 30
0.0
 11
338.04864463851828
 21
173.2179429273661
 31
0.0
  0
LINE
  5
191C
  8
2
 10
342.2366446385185
 20
170.80000000000001
 30
0.0
 11
333.86064463851829
 21
170.80000000000001
 31
0.0
  0
LINE
  5
191D
  8
2
 10
333.86064463851829
 20
170.80000000000001
 30
0.0
 11
333.86064463851829
 21
154.81200000000001
 31
0.0
  0
LINE
  5
191E
  8
2
 10
342.2366446385185
 20
154.81200000000001
 30
0.0
 11
342.2366446385185
 21
170.80000000000001
 31
0.0
  0
LINE
  5
191F
  8
2
 10
342.2366446385185
 20
154.81200000000001
 30
0.0
 11
333.86064463851829
 21
154.81200000000001
 31
0.0
  0
LINE
  5
1920
  8
2
 10
333.86064463851829
 20
154.81200000000001
 30
0.0
 11
333.04864463851828
 21
154.0
 31
0.0
  0
LINE
  5
1921
  8
2
 10
343.0486446385184
 20
154.0
 30
0.0
 11
342.2366446385185
 21
154.81200000000001
 31
0.0
  0
LINE
  5
1922
  8
0
 10
346.04864463851828
 20
154.0
 30
0.0
 11
330.04864463851828
 21
154.0
 31
0.0
  0
LINE
  5
1923
  8
0
 10
330.04864463851828
 20
158.5
 30
0.0
 11
330.04864463851828
 21
154.0
 31
0.0
  0
LINE
  5
1924
  8
0
 10
346.04864463851828
 20
154.0
 30
0.0
 11
346.04864463851828
 21
158.5
 31
0.0
  0
LINE
  5
1925
  8
0
 10
333.04864463851828
 20
198.5
 30
0.0
 11
328.27364463851819
 21
198.5
 31
0.0
  0
LINE
  5
1927
  8
0
 10
347.82364463851837
 20
198.5
 30
0.0
 11
343.0486446385184
 21
198.5
 31
0.0
  0
LINE
  5
1928
  8
0
 10
328.27364463851819
 20
198.5
 30
0.0
 11
326.04864463851828
 21
196.27499999999989
 31
0.0
  0
LINE
  5
1929
  8
0
 10
350.04864463851828
 20
196.27499999999989
 30
0.0
 11
347.82364463851837
 21
198.5
 31
0.0
  0
LINE
  5
192A
  8
0
 10
349.59864463851829
 20
158.5
 30
0.0
 11
326.49864463851839
 21
158.5
 31
0.0
  0
LINE
  5
192B
  8
0
 10
349.59864463851829
 20
158.5
 30
0.0
 11
350.04864463851828
 21
158.94999999999999
 31
0.0
  0
LINE
  5
192C
  8
0
 10
326.04864463851828
 20
158.94999999999999
 30
0.0
 11
326.49864463851839
 21
158.5
 31
0.0
  0
LINE
  5
192D
  8
0
 10
350.04864463851828
 20
158.94999999999999
 30
0.0
 11
326.04864463851828
 21
158.94999999999999
 31
0.0
  0
LINE
  5
192E
  8
0
 10
333.04864463851828
 20
196.27499999999989
 30
0.0
 11
326.04864463851828
 21
196.27499999999989
 31
0.0
  0
LINE
  5
1930
  8
0
 10
350.04864463851828
 20
196.27499999999989
 30
0.0
 11
343.0486446385184
 21
196.27499999999989
 31
0.0
  0
LINE
  5
1931
  8
0
 10
326.04864463851828
 20
196.27499999999989
 30
0.0
 11
326.04864463851828
 21
158.94999999999999
 31
0.0
  0
LINE
  5
1932
  8
0
 10
350.04864463851828
 20
158.94999999999999
 30
0.0
 11
350.04864463851828
 21
196.27499999999989
 31
0.0
  0
ARC
  5
1933
  8
0
 10
338.04864463851828
 20
191.0
 30
0.0
 40
5.0000000000000044
 50
178.27205892762581
 51
1.727941072374142
  0
ARC
  5
1939
  8
0
 10
338.04864463851862
 20
191.3015368960705
 30
0.0
 40
5.000000000000183
 50
180.0
 51
181.72794107234159
  0
ARC
  5
193A
  8
0
 10
338.04864463851811
 20
191.3015368960705
 30
0.0
 40
5.0000000000001856
 50
358.27205892765841
 51
0.0
  0
LINE
  5
1940
  8
0
 10
343.0486446385184
 20
191.30153689607039
 30
0.0
 11
343.0486446385184
 21
202.35378229330649
 31
0.0
  0
LINE
  5
1941
  8
0
 10
333.04864463851828
 20
202.35308193792829
 30
0.0
 11
333.04864463851828
 21
191.30153689607039
 31
0.0
  0
POLYLINE
  5
1946
  8
0
 66
     1
 10
0.0
 20
0.0
 30
0.0
  0
VERTEX
  5
1E36
  8
0
 10
338.04864463851828
 20
225.0
 30
0.0
  0
VERTEX
  5
1E37
  8
0
 10
337.62043100828731
 20
224.9922262360848
 30
0.0
  0
VERTEX
  5
1E38
  8
0
 10
337.16885978985948
 20
224.96715104098561
 30
0.0
  0
VERTEX
  5
1E39
  8
0
 10
336.71838160501642
 20
224.92476508000769
 30
0.0
  0
VERTEX
  5
1E3A
  8
0
 10
336.26965945015053
 20
224.8651089001973
 30
0.0
  0
VERTEX
  5
1E3B
  8
0
 10
335.82335223393977
 20
224.7882484143762
 30
0.0
  0
VERTEX
  5
1E3C
  8
0
 10
335.38011804424781
 20
224.69427529422029
 30
0.0
  0
VERTEX
  5
1E3D
  8
0
 10
334.94061309902293
 20
224.5833071618124
 30
0.0
  0
VERTEX
  5
1E3E
  8
0
 10
334.50549065202227
 20
224.45548772725419
 30
0.0
  0
VERTEX
  5
1E3F
  8
0
 10
334.07539985932311
 20
224.3109868659181
 30
0.0
  0
VERTEX
  5
1E40
  8
0
 10
333.65098461211022
 20
224.1500006294583
 30
0.0
  0
VERTEX
  5
1E41
  8
0
 10
333.23288234225049
 20
223.97275118554671
 30
0.0
  0
VERTEX
  5
1E42
  8
0
 10
332.82172280798011
 20
223.77948668229411
 30
0.0
  0
VERTEX
  5
1E43
  8
0
 10
332.41812686767742
 20
223.57048103442909
 30
0.0
  0
VERTEX
  5
1E44
  8
0
 10
332.02270525006782
 20
223.34603362947561
 30
0.0
  0
VERTEX
  5
1E45
  8
0
 10
331.63605732940272
 20
223.10646895336771
 30
0.0
  0
VERTEX
  5
1E46
  8
0
 10
331.25876991408347
 20
222.8521361361077
 30
0.0
  0
VERTEX
  5
1E47
  8
0
 10
330.89141605695312
 20
222.58340841917681
 30
0.0
  0
VERTEX
  5
1E48
  8
0
 10
330.53455389502722
 20
222.3006825474111
 30
0.0
  0
VERTEX
  5
1E49
  8
0
 10
330.18872552585509
 20
222.00437808894409
 30
0.0
  0
VERTEX
  5
1E4A
  8
0
 10
329.85445592697931
 20
221.69493668755101
 30
0.0
  0
VERTEX
  5
1E4B
  8
0
 10
329.53225192417892
 20
221.37282125233
 30
0.0
  0
VERTEX
  5
1E4C
  8
0
 10
329.22260121333949
 20
221.03851509008189
 30
0.0
  0
VERTEX
  5
1E4D
  8
0
 10
328.925971439938
 20
220.69252098605961
 30
0.0
  0
VERTEX
  5
1E4E
  8
0
 10
328.64280933928768
 20
220.33536023889789
 30
0.0
  0
VERTEX
  5
1E4F
  8
0
 10
328.37353993988501
 20
219.96757165558299
 30
0.0
  0
VERTEX
  5
1E50
  8
0
 10
328.11856583143651
 20
219.5897105122331
 30
0.0
  0
VERTEX
  5
1E51
  8
0
 10
327.87826649847068
 20
219.20234748632319
 30
0.0
  0
VERTEX
  5
1E52
  8
0
 10
327.65299771980779
 20
218.80606756573309
 30
0.0
  0
VERTEX
  5
1E53
  8
0
 10
327.44309103364083
 20
218.40146893973821
 30
0.0
  0
VERTEX
  5
1E54
  8
0
 10
327.24885326751371
 20
217.9891618767312
 30
0.0
  0
VERTEX
  5
1E55
  8
0
 10
327.0705661321112
 20
217.5697675931338
 30
0.0
  0
VERTEX
  5
1E56
  8
0
 10
326.9084858774537
 20
217.1439171175991
 30
0.0
  0
VERTEX
  5
1E57
  8
0
 10
326.76284300986401
 20
216.7122501542693
 30
0.0
  0
VERTEX
  5
1E58
  8
0
 10
326.6338420678739
 20
216.27541394850829
 30
0.0
  0
VERTEX
  5
1E59
  8
0
 10
326.52166145511029
 20
215.83406215820779
 30
0.0
  0
VERTEX
  5
1E5A
  8
0
 10
326.42645332811469
 20
215.38885373346281
 30
0.0
  0
VERTEX
  5
1E5B
  8
0
 10
326.34834353698272
 20
214.94045180713451
 30
0.0
  0
VERTEX
  5
1E5C
  8
0
 10
326.28743161669661
 20
214.48952259855761
 30
0.0
  0
VERTEX
  5
1E5D
  8
0
 10
326.24379082700801
 20
214.03673433242119
 30
0.0
  0
VERTEX
  5
1E5E
  8
0
 10
326.21746823874457
 20
213.58275617464099
 30
0.0
  0
VERTEX
  5
1E5F
  8
0
 10
326.20848486443663
 20
213.1282571868598
 30
0.0
  0
VERTEX
  5
1E60
  8
0
 10
326.21683583117999
 20
212.67390530104279
 30
0.0
  0
VERTEX
  5
1E61
  8
0
 10
326.24249052288849
 20
212.22036725063501
 30
0.0
  0
VERTEX
  5
1E62
  8
0
 10
326.28539275272999
 20
211.76830670433279
 30
0.0
  0
VERTEX
  5
1E63
  8
0
 10
326.34546120336512
 20
211.31838222554279
 30
0.0
  0
VERTEX
  5
1E64
  8
0
 10
326.42258975136048
 20
210.87124735003621
 30
0.0
  0
VERTEX
  5
1E65
  8
0
 10
326.51664782310479
 20
210.4275496791208
 30
0.0
  0
VERTEX
  5
1E66
  8
0
 10
326.62748078099082
 20
209.98792999918001
 30
0.0
  0
VERTEX
  5
1E67
  8
0
 10
326.75491033792463
 20
209.55302142833941
 30
0.0
  0
VERTEX
  5
1E68
  8
0
 10
326.89873499819947
 20
209.1234485908615
 30
0.0
  0
VERTEX
  5
1E69
  8
0
 10
327.05873052277627
 20
208.69982681978109
 30
0.0
  0
VERTEX
  5
1E6A
  8
0
 10
327.23465041697813
 20
208.2827613881947
 30
0.0
  0
VERTEX
  5
1E6B
  8
0
 10
327.42622643859471
 20
207.87284676950941
 30
0.0
  0
VERTEX
  5
1E6C
  8
0
 10
327.63316912436352
 20
207.47066592684931
 30
0.0
  0
VERTEX
  5
1E6D
  8
0
 10
327.85516833276267
 20
207.0767896316799
 30
0.0
  0
VERTEX
  5
1E6E
  8
0
 10
328.09189380104351
 20
206.69177581158041
 30
0.0
  0
VERTEX
  5
1E6F
  8
0
 10
328.3429957143988
 20
206.31616892693691
 30
0.0
  0
VERTEX
  5
1E70
  8
0
 10
328.60810528517521
 20
205.95049937615741
 30
0.0
  0
VERTEX
  5
1E71
  8
0
 10
328.886835340034
 20
205.5952829288326
 30
0.0
  0
VERTEX
  5
1E72
  8
0
 10
329.17878091300543
 20
205.2510201860641
 30
0.0
  0
VERTEX
  5
1E73
  8
0
 10
329.48351984242652
 20
204.91819606697399
 30
0.0
  0
VERTEX
  5
1E74
  8
0
 10
329.8006133698417
 20
204.5972793201924
 30
0.0
  0
VERTEX
  5
1E75
  8
0
 10
330.12960673905889
 20
204.2887220588876
 30
0.0
  0
VERTEX
  5
1E76
  8
0
 10
330.47002979371462
 20
203.99295931768111
 30
0.0
  0
VERTEX
  5
1E77
  8
0
 10
330.8213975718935
 20
203.71040862956491
 30
0.0
  0
VERTEX
  5
1E78
  8
0
 10
331.18321089660702
 20
203.4414696207192
 30
0.0
  0
VERTEX
  5
1E79
  8
0
 10
331.5549569612262
 20
203.1865236209448
 30
0.0
  0
VERTEX
  5
1E7A
  8
0
 10
331.93610990932427
 20
202.9459332872481
 30
0.0
  0
VERTEX
  5
1E7B
  8
0
 10
332.32613140877908
 20
202.720042238003
 30
0.0
  0
VERTEX
  5
1E7C
  8
0
 10
332.72447122045412
 20
202.5091746950302
 30
0.0
  0
VERTEX
  5
1E7D
  8
0
 10
333.13056776227171
 20
202.31363513092779
 30
0.0
  0
VERTEX
  5
1E7E
  8
0
 10
333.54384867003012
 20
202.13370791905641
 30
0.0
  0
VERTEX
  5
1E7F
  8
0
 10
333.96373135689322
 20
201.96965698372631
 30
0.0
  0
VERTEX
  5
1E80
  8
0
 10
334.38962357405461
 20
201.82172544839139
 30
0.0
  0
VERTEX
  5
1E81
  8
0
 10
334.82092397564992
 20
201.6901352800086
 30
0.0
  0
VERTEX
  5
1E82
  8
0
 10
335.25702269154141
 20
201.5750869281913
 30
0.0
  0
VERTEX
  5
1E83
  8
0
 10
335.69730191208538
 20
201.47675895836031
 30
0.0
  0
VERTEX
  5
1E84
  8
0
 10
336.14113648940008
 20
201.3953076787879
 30
0.0
  0
VERTEX
  5
1E85
  8
0
 10
336.5878945599531
 20
201.33086676220969
 30
0.0
  0
VERTEX
  5
1E86
  8
0
 10
337.03693819344278
 20
201.28354686354251
 30
0.0
  0
VERTEX
  5
1E87
  8
0
 10
337.4876240729406
 20
201.25343523616391
 30
0.0
  0
VERTEX
  5
1E88
  8
0
 10
337.9393042110791
 20
201.24059535014621
 30
0.0
  0
VERTEX
  5
1E89
  8
0
 10
338.39132670667402
 20
201.24506651677191
 30
0.0
  0
VERTEX
  5
1E8A
  8
0
 10
338.8430358144268
 20
201.26686347518469
 30
0.0
  0
VERTEX
  5
1E8B
  8
0
 10
339.2937721720433
 20
201.30597583867791
 30
0.0
  0
VERTEX
  5
1E8C
  8
0
 10
339.74287720103001
 20
201.36236801469349
 30
0.0
  0
VERTEX
  5
1E8D
  8
0
 10
340.18969195373899
 20
201.4359789397474
 30
0.0
  0
VERTEX
  5
1E8E
  8
0
 10
340.63355810805689
 20
201.5267218330971
 30
0.0
  0
VERTEX
  5
1E8F
  8
0
 10
341.07381900949071
 20
201.63448399589839
 30
0.0
  0
VERTEX
  5
1E90
  8
0
 10
341.50982075749602
 20
201.75912666289111
 30
0.0
  0
VERTEX
  5
1E91
  8
0
 10
341.94091333193421
 20
201.90048491325061
 30
0.0
  0
VERTEX
  5
1E92
  8
0
 10
342.36645175437218
 20
202.0583676466261
 30
0.0
  0
VERTEX
  5
1E93
  8
0
 10
342.78579727790122
 20
202.2325576295755
 30
0.0
  0
VERTEX
  5
1E94
  8
0
 10
343.1983185982757
 20
202.42281161663021
 30
0.0
  0
VERTEX
  5
1E95
  8
0
 10
343.60339307852303
 20
202.62886054914
 30
0.0
  0
VERTEX
  5
1E96
  8
0
 10
344.00040797871333
 20
202.85040983387529
 30
0.0
  0
VERTEX
  5
1E97
  8
0
 10
344.38876168237658
 20
203.0871397021784
 30
0.0
  0
VERTEX
  5
1E98
  8
0
 10
344.76786491106481
 20
203.33870564927221
 30
0.0
  0
VERTEX
  5
1E99
  8
0
 10
345.13714191877392
 20
203.60473895222239
 30
0.0
  0
VERTEX
  5
1E9A
  8
0
 10
345.49603165835322
 20
203.8848472640164
 30
0.0
  0
VERTEX
  5
1E9B
  8
0
 10
345.84398891259741
 20
204.17861528032131
 30
0.0
  0
VERTEX
  5
1E9C
  8
0
 10
346.18048538340292
 20
204.48560547470851
 30
0.0
  0
VERTEX
  5
1E9D
  8
0
 10
346.50501073315479
 20
204.80535889751559
 30
0.0
  0
VERTEX
  5
1E9E
  8
0
 10
346.81707357333693
 20
205.1373960330487
 30
0.0
  0
VERTEX
  5
1E9F
  8
0
 10
347.11620239621692
 20
205.48121770950769
 30
0.0
  0
VERTEX
  5
1EA0
  8
0
 10
347.4019464463039
 20
205.8363060558323
 30
0.0
  0
VERTEX
  5
1EA1
  8
0
 10
347.6738765290857
 20
206.20212549962019
 30
0.0
  0
VERTEX
  5
1EA2
  8
0
 10
347.93158575533118
 20
206.57812380031029
 30
0.0
  0
VERTEX
  5
1EA3
  8
0
 10
348.17469021992918
 20
206.96373311197809
 30
0.0
  0
VERTEX
  5
1EA4
  8
0
 10
348.40282961487873
 20
207.3583710703015
 30
0.0
  0
VERTEX
  5
1EA5
  8
0
 10
348.61566777658129
 20
207.76144189853099
 30
0.0
  0
VERTEX
  5
1EA6
  8
0
 10
348.81289316807158
 20
208.17233752760799
 30
0.0
  0
VERTEX
  5
1EA7
  8
0
 10
348.99421929720558
 20
208.59043872591349
 30
0.0
  0
VERTEX
  5
1EA8
  8
0
 10
349.15938507215481
 20
209.015116234472
 30
0.0
  0
VERTEX
  5
1EA9
  8
0
 10
349.30815509580532
 20
209.4457319037873
 30
0.0
  0
VERTEX
  5
1EAA
  8
0
 10
349.4403199008587
 20
209.88163982882671
 30
0.0
  0
VERTEX
  5
1EAB
  8
0
 10
349.55569612757301
 20
210.32218747899279
 30
0.0
  0
VERTEX
  5
1EAC
  8
0
 10
349.65412664617941
 20
210.7667168202322
 30
0.0
  0
VERTEX
  5
1EAD
  8
0
 10
349.7354806260754
 20
211.21456542671461
 30
0.0
  0
VERTEX
  5
1EAE
  8
0
 10
349.7996535539209
 20
211.6650675797751
 30
0.0
  0
VERTEX
  5
1EAF
  8
0
 10
349.84656720278002
 20
212.11755535205029
 30
0.0
  0
VERTEX
  5
1EB0
  8
0
 10
349.87616955443701
 20
212.57135967495219
 30
0.0
  0
VERTEX
  5
1EB1
  8
0
 10
349.88843467699769
 20
213.02581138781059
 30
0.0
  0
VERTEX
  5
1EB2
  8
0
 10
349.8833625598603
 20
213.48024226718641
 30
0.0
  0
VERTEX
  5
1EB3
  8
0
 10
349.86097894702158
 20
213.9339854666552
 30
0.0
  0
VERTEX
  5
1EB4
  8
0
 10
349.8213352257888
 20
214.3863762805974
 30
0.0
  0
VERTEX
  5
1EB5
  8
0
 10
349.76450798166809
 20
214.83675529827261
 30
0.0
  0
VERTEX
  5
1EB6
  8
0
 10
349.69059867004842
 20
215.28446796210969
 30
0.0
  0
VERTEX
  5
1EB7
  8
0
 10
349.5997332662331
 20
215.7288654793829
 30
0.0
  0
VERTEX
  5
1EB8
  8
0
 10
349.49206188483578
 20
216.16930570772999
 30
0.0
  0
VERTEX
  5
1EB9
  8
0
 10
349.36775837048219
 20
216.60515401366939
 30
0.0
  0
VERTEX
  5
1EBA
  8
0
 10
349.22701986177537
 20
217.0357841034936
 30
0.0
  0
VERTEX
  5
1EBB
  8
0
 10
349.0700663304832
 20
217.46057882601411
 30
0.0
  0
VERTEX
  5
1EBC
  8
0
 10
348.89714009793181
 20
217.87893094672049
 30
0.0
  0
VERTEX
  5
1EBD
  8
0
 10
348.7085053306065
 20
218.2902438930314
 30
0.0
  0
VERTEX
  5
1EBE
  8
0
 10
348.50444751699399
 20
218.69393247041481
 30
0.0
  0
VERTEX
  5
1EBF
  8
0
 10
348.28527292771548
 20
219.0894235492913
 30
0.0
  0
VERTEX
  5
1EC0
  8
0
 10
348.05130806102949
 20
219.47615672276521
 30
0.0
  0
VERTEX
  5
1EC1
  8
0
 10
347.80289907579828
 20
219.8535849353803
 30
0.0
  0
VERTEX
  5
1EC2
  8
0
 10
347.54041121401582
 20
220.2211750832634
 30
0.0
  0
VERTEX
  5
1EC3
  8
0
 10
347.26422821499148
 20
220.5784085861977
 30
0.0
  0
VERTEX
  5
1EC4
  8
0
 10
346.97475172325619
 20
220.9247819323684
 30
0.0
  0
VERTEX
  5
1EC5
  8
0
 10
346.67240069220799
 20
221.2598071967204
 30
0.0
  0
VERTEX
  5
1EC6
  8
0
 10
346.35761078544112
 20
221.5830125340965
 30
0.0
  0
VERTEX
  5
1EC7
  8
0
 10
346.03083377758628
 20
221.8939426485407
 30
0.0
  0
VERTEX
  5
1EC8
  8
0
 10
345.692536956347
 20
222.1921592403871
 30
0.0
  0
VERTEX
  5
1EC9
  8
0
 10
345.34320252722028
 20
222.47724143297481
 30
0.0
  0
VERTEX
  5
1ECA
  8
0
 10
344.98332702215868
 20
222.74878618104489
 30
0.0
  0
VERTEX
  5
1ECB
  8
0
 10
344.6134207131243
 20
223.0064086630816
 30
0.0
  0
VERTEX
  5
1ECC
  8
0
 10
344.23400703116903
 20
223.2497426600203
 30
0.0
  0
VERTEX
  5
1ECD
  8
0
 10
343.84562199125219
 20
223.4784409228846
 30
0.0
  0
VERTEX
  5
1ECE
  8
0
 10
343.44881362258081
 20
223.69217553200161
 30
0.0
  0
VERTEX
  5
1ECF
  8
0
 10
343.04414140375331
 20
223.89063825046071
 30
0.0
  0
VERTEX
  5
1ED0
  8
0
 10
342.63217570145378
 20
224.07354087443809
 30
0.0
  0
VERTEX
  5
1ED1
  8
0
 10
342.21349721088552
 20
224.2406155828709
 30
0.0
  0
VERTEX
  5
1ED2
  8
0
 10
341.7886963955508
 20
224.39161528873069
 30
0.0
  0
VERTEX
  5
1ED3
  8
0
 10
341.35837292340108
 20
224.5263139938188
 30
0.0
  0
VERTEX
  5
1ED4
  8
0
 10
340.92313509584648
 20
224.64450714854669
 30
0.0
  0
VERTEX
  5
1ED5
  8
0
 10
340.48359926558908
 20
224.74601201761939
 30
0.0
  0
VERTEX
  5
1ED6
  8
0
 10
340.04038923884161
 20
224.83066805186189
 30
0.0
  0
VERTEX
  5
1ED7
  8
0
 10
339.59413565715238
 20
224.8983372656709
 30
0.0
  0
VERTEX
  5
1ED8
  8
0
 10
339.14547535388499
 20
224.9489046187189
 30
0.0
  0
VERTEX
  5
1ED9
  8
0
 10
338.69505068036591
 20
224.98227839963531
 30
0.0
  0
VERTEX
  5
1EDA
  8
0
 10
338.24350879686909
 20
224.99839060844559
 30
0.0
  0
VERTEX
  5
1EDB
  8
0
 10
338.04864463851828
 20
225.0
 30
0.0
  0
SEQEND
  5
1EDC
  8
0
  0
LINE
  5
1947
  8
2
 10
333.04864463851828
 20
154.0
 30
0.0
 11
333.04864463851828
 21
168.0
 31
0.0
  0
LINE
  5
1948
  8
2
 10
333.04864463851828
 20
168.0
 30
0.0
 11
343.0486446385184
 21
168.0
 31
0.0
  0
LINE
  5
1949
  8
2
 10
343.0486446385184
 20
154.0
 30
0.0
 11
343.0486446385184
 21
168.0
 31
0.0
  0
LINE
  5
194A
  8
1
 10
338.04864463851828
 20
230.0001705265897
 30
0.0
 11
338.04864463851828
 21
149.0
 31
0.0
  0
LINE
  5
194B
  8
1
 10
328.04864463851828
 20
191.0
 30
0.0
 11
348.04864463851828
 21
191.0
 31
0.0
  0
LINE
  5
1A62
  8
2
 10
82.0
 20
173.2179429273661
 30
0.0
 11
77.812000000000012
 21
170.80000000000001
 31
0.0
  0
LINE
  5
1A63
  8
2
 10
86.187999999999974
 20
170.80000000000001
 30
0.0
 11
82.0
 21
173.2179429273661
 31
0.0
  0
LINE
  5
1A64
  8
2
 10
86.187999999999974
 20
170.80000000000001
 30
0.0
 11
77.812000000000012
 21
170.80000000000001
 31
0.0
  0
LINE
  5
1A65
  8
2
 10
77.812000000000012
 20
170.80000000000001
 30
0.0
 11
77.812000000000012
 21
154.81200000000001
 31
0.0
  0
LINE
  5
1A66
  8
2
 10
86.187999999999974
 20
154.81200000000001
 30
0.0
 11
86.187999999999974
 21
170.80000000000001
 31
0.0
  0
LINE
  5
1A67
  8
2
 10
86.187999999999974
 20
154.81200000000001
 30
0.0
 11
77.812000000000012
 21
154.81200000000001
 31
0.0
  0
LINE
  5
1A68
  8
2
 10
77.812000000000012
 20
154.81200000000001
 30
0.0
 11
77.0
 21
154.0
 31
0.0
  0
LINE
  5
1A69
  8
2
 10
87.0
 20
154.0
 30
0.0
 11
86.187999999999974
 21
154.81200000000001
 31
0.0
  0
LINE
  5
1A6A
  8
0
 10
90.0
 20
154.0
 30
0.0
 11
74.0
 21
154.0
 31
0.0
  0
LINE
  5
1A6B
  8
0
 10
74.0
 20
158.5
 30
0.0
 11
74.0
 21
154.0
 31
0.0
  0
LINE
  5
1A6C
  8
0
 10
90.0
 20
154.0
 30
0.0
 11
90.0
 21
158.5
 31
0.0
  0
LINE
  5
1A6F
  8
0
 10
91.774999999999977
 20
198.5
 30
0.0
 11
72.225000000000023
 21
198.5
 31
0.0
  0
LINE
  5
1A70
  8
0
 10
72.225000000000023
 20
198.5
 30
0.0
 11
70.0
 21
196.27499999999989
 31
0.0
  0
LINE
  5
1A71
  8
0
 10
94.0
 20
196.27499999999989
 30
0.0
 11
91.774999999999977
 21
198.5
 31
0.0
  0
LINE
  5
1A72
  8
0
 10
93.549999999999955
 20
158.5
 30
0.0
 11
70.450000000000045
 21
158.5
 31
0.0
  0
LINE
  5
1A73
  8
0
 10
93.549999999999955
 20
158.5
 30
0.0
 11
94.0
 21
158.94999999999999
 31
0.0
  0
LINE
  5
1A74
  8
0
 10
70.0
 20
158.94999999999999
 30
0.0
 11
70.450000000000045
 21
158.5
 31
0.0
  0
LINE
  5
1A75
  8
0
 10
94.0
 20
158.94999999999999
 30
0.0
 11
70.0
 21
158.94999999999999
 31
0.0
  0
LINE
  5
1A78
  8
0
 10
94.0
 20
196.27499999999989
 30
0.0
 11
70.0
 21
196.27499999999989
 31
0.0
  0
LINE
  5
1A79
  8
0
 10
70.0
 20
196.27499999999989
 30
0.0
 11
70.0
 21
158.94999999999999
 31
0.0
  0
LINE
  5
1A7A
  8
0
 10
94.0
 20
158.94999999999999
 30
0.0
 11
94.0
 21
196.27499999999989
 31
0.0
  0
POLYLINE
  5
1A85
  8
0
 10
82.0
 20
214.39830600258327
 30
0.0
 66
     1
 70
     8
  0
VERTEX
  8
0
  5
2186
 10
82.0000
 20
214.398
 30
0.000000
  70
    32
  0
VERTEX
  8
0
  5
2187
 10
81.9386
 20
214.398
 30
0.000000
  70
    32
  0
VERTEX
  8
0
  5
2188
 10
81.8773
 20
214.397
 30
0.000000
  70
    32
  0
VERTEX
  8
0
  5
2189
 10
81.8160
 20
214.395
 30
0.000000
  70
    32
  0
VERTEX
  8
0
  5
218A
 10
81.7547
 20
214.393
 30
0.000000
  70
    32
  0
VERTEX
  8
0
  5
218B
 10
81.6934
 20
214.389
 30
0.000000
  70
    32
  0
VERTEX
  8
0
  5
218C
 10
81.6322
 20
214.386
 30
0.000000
  70
    32
  0
VERTEX
  8
0
  5
218D
 10
81.5710
 20
214.381
 30
0.000000
  70
    32
  0
VERTEX
  8
0
  5
218E
 10
81.5099
 20
214.376
 30
0.000000
  70
    32
  0
VERTEX
  8
0
  5
218F
 10
81.4489
 20
214.370
 30
0.000000
  70
    32
  0
VERTEX
  8
0
  5
2190
 10
81.3879
 20
214.363
 30
0.000000
  70
    32
  0
VERTEX
  8
0
  5
2191
 10
81.3271
 20
214.356
 30
0.000000
  70
    32
  0
VERTEX
  8
0
  5
2192
 10
81.2663
 20
214.347
 30
0.000000
  70
    32
  0
VERTEX
  8
0
  5
2193
 10
81.2057
 20
214.339
 30
0.000000
  70
    32
  0
VERTEX
  8
0
  5
2194
 10
81.1452
 20
214.329
 30
0.000000
  70
    32
  0
VERTEX
  8
0
  5
2195
 10
81.0848
 20
214.319
 30
0.000000
  70
    32
  0
VERTEX
  8
0
  5
2196
 10
81.0245
 20
214.308
 30
0.000000
  70
    32
  0
VERTEX
  8
0
  5
2197
 10
80.9644
 20
214.296
 30
0.000000
  70
    32
  0
VERTEX
  8
0
  5
2198
 10
80.9045
 20
214.284
 30
0.000000
  70
    32
  0
VERTEX
  8
0
  5
2199
 10
80.8447
 20
214.271
 30
0.000000
  70
    32
  0
VERTEX
  8
0
  5
219A
 10
80.7851
 20
214.257
 30
0.000000
  70
    32
  0
VERTEX
  8
0
  5
219B
 10
80.7257
 20
214.243
 30
0.000000
  70
    32
  0
VERTEX
  8
0
  5
219C
 10
80.6664
 20
214.228
 30
0.000000
  70
    32
  0
VERTEX
  8
0
  5
219D
 10
80.6074
 20
214.212
 30
0.000000
  70
    32
  0
VERTEX
  8
0
  5
219E
 10
80.5486
 20
214.196
 30
0.000000
  70
    32
  0
VERTEX
  8
0
  5
219F
 10
80.4900
 20
214.179
 30
0.000000
  70
    32
  0
VERTEX
  8
0
  5
21A0
 10
80.4316
 20
214.161
 30
0.000000
  70
    32
  0
VERTEX
  8
0
  5
21A1
 10
80.3734
 20
214.143
 30
0.000000
  70
    32
  0
VERTEX
  8
0
  5
21A2
 10
80.3156
 20
214.124
 30
0.000000
  70
    32
  0
VERTEX
  8
0
  5
21A3
 10
80.2579
 20
214.104
 30
0.000000
  70
    32
  0
VERTEX
  8
0
  5
21A4
 10
80.2005
 20
214.083
 30
0.000000
  70
    32
  0
VERTEX
  8
0
  5
21A5
 10
80.1434
 20
214.062
 30
0.000000
  70
    32
  0
VERTEX
  8
0
  5
21A6
 10
80.0866
 20
214.041
 30
0.000000
  70
    32
  0
VERTEX
  8
0
  5
21A7
 10
80.0300
 20
214.018
 30
0.000000
  70
    32
  0
VERTEX
  8
0
  5
21A8
 10
79.9738
 20
213.995
 30
0.000000
  70
    32
  0
VERTEX
  8
0
  5
21A9
 10
79.9179
 20
213.972
 30
0.000000
  70
    32
  0
VERTEX
  8
0
  5
21AA
 10
79.8622
 20
213.947
 30
0.000000
  70
    32
  0
VERTEX
  8
0
  5
21AB
 10
79.8069
 20
213.922
 30
0.000000
  70
    32
  0
VERTEX
  8
0
  5
21AC
 10
79.7519
 20
213.897
 30
0.000000
  70
    32
  0
VERTEX
  8
0
  5
21AD
 10
79.6973
 20
213.870
 30
0.000000
  70
    32
  0
VERTEX
  8
0
  5
21AE
 10
79.6430
 20
213.844
 30
0.000000
  70
    32
  0
VERTEX
  8
0
  5
21AF
 10
79.5891
 20
213.816
 30
0.000000
  70
    32
  0
VERTEX
  8
0
  5
21B0
 10
79.5355
 20
213.788
 30
0.000000
  70
    32
  0
VERTEX
  8
0
  5
21B1
 10
79.4823
 20
213.759
 30
0.000000
  70
    32
  0
VERTEX
  8
0
  5
21B2
 10
79.4295
 20
213.730
 30
0.000000
  70
    32
  0
VERTEX
  8
0
  5
21B3
 10
79.3771
 20
213.700
 30
0.000000
  70
    32
  0
VERTEX
  8
0
  5
21B4
 10
79.3250
 20
213.669
 30
0.000000
  70
    32
  0
VERTEX
  8
0
  5
21B5
 10
79.2734
 20
213.638
 30
0.000000
  70
    32
  0
VERTEX
  8
0
  5
21B6
 10
79.2221
 20
213.606
 30
0.000000
  70
    32
  0
VERTEX
  8
0
  5
21B7
 10
79.1713
 20
213.574
 30
0.000000
  70
    32
  0
VERTEX
  8
0
  5
21B8
 10
79.1210
 20
213.541
 30
0.000000
  70
    32
  0
VERTEX
  8
0
  5
21B9
 10
79.0710
 20
213.508
 30
0.000000
  70
    32
  0
VERTEX
  8
0
  5
21BA
 10
79.0215
 20
213.474
 30
0.000000
  70
    32
  0
VERTEX
  8
0
  5
21BB
 10
78.9724
 20
213.439
 30
0.000000
  70
    32
  0
VERTEX
  8
0
  5
21BC
 10
78.9238
 20
213.404
 30
0.000000
  70
    32
  0
VERTEX
  8
0
  5
21BD
 10
78.8757
 20
213.368
 30
0.000000
  70
    32
  0
VERTEX
  8
0
  5
21BE
 10
78.8280
 20
213.332
 30
0.000000
  70
    32
  0
VERTEX
  8
0
  5
21BF
 10
78.7808
 20
213.295
 30
0.000000
  70
    32
  0
VERTEX
  8
0
  5
21C0
 10
78.7341
 20
213.258
 30
0.000000
  70
    32
  0
VERTEX
  8
0
  5
21C1
 10
78.6879
 20
213.220
 30
0.000000
  70
    32
  0
VERTEX
  8
0
  5
21C2
 10
78.6422
 20
213.181
 30
0.000000
  70
    32
  0
VERTEX
  8
0
  5
21C3
 10
78.5970
 20
213.142
 30
0.000000
  70
    32
  0
VERTEX
  8
0
  5
21C4
 10
78.5523
 20
213.103
 30
0.000000
  70
    32
  0
VERTEX
  8
0
  5
21C5
 10
78.5081
 20
213.063
 30
0.000000
  70
    32
  0
VERTEX
  8
0
  5
21C6
 10
78.4645
 20
213.022
 30
0.000000
  70
    32
  0
VERTEX
  8
0
  5
21C7
 10
78.4213
 20
212.981
 30
0.000000
  70
    32
  0
VERTEX
  8
0
  5
21C8
 10
78.3788
 20
212.940
 30
0.000000
  70
    32
  0
VERTEX
  8
0
  5
21C9
 10
78.3367
 20
212.898
 30
0.000000
  70
    32
  0
VERTEX
  8
0
  5
21CA
 10
78.2952
 20
212.855
 30
0.000000
  70
    32
  0
VERTEX
  8
0
  5
21CB
 10
78.2543
 20
212.812
 30
0.000000
  70
    32
  0
VERTEX
  8
0
  5
21CC
 10
78.2140
 20
212.769
 30
0.000000
  70
    32
  0
VERTEX
  8
0
  5
21CD
 10
78.1742
 20
212.725
 30
0.000000
  70
    32
  0
VERTEX
  8
0
  5
21CE
 10
78.1349
 20
212.681
 30
0.000000
  70
    32
  0
VERTEX
  8
0
  5
21CF
 10
78.0963
 20
212.636
 30
0.000000
  70
    32
  0
VERTEX
  8
0
  5
21D0
 10
78.0583
 20
212.590
 30
0.000000
  70
    32
  0
VERTEX
  8
0
  5
21D1
 10
78.0208
 20
212.545
 30
0.000000
  70
    32
  0
VERTEX
  8
0
  5
21D2
 10
77.9840
 20
212.499
 30
0.000000
  70
    32
  0
VERTEX
  8
0
  5
21D3
 10
77.9477
 20
212.452
 30
0.000000
  70
    32
  0
VERTEX
  8
0
  5
21D4
 10
77.9121
 20
212.405
 30
0.000000
  70
    32
  0
VERTEX
  8
0
  5
21D5
 10
77.8771
 20
212.358
 30
0.000000
  70
    32
  0
VERTEX
  8
0
  5
21D6
 10
77.8427
 20
212.310
 30
0.000000
  70
    32
  0
VERTEX
  8
0
  5
21D7
 10
77.8089
 20
212.262
 30
0.000000
  70
    32
  0
VERTEX
  8
0
  5
21D8
 10
77.7757
 20
212.214
 30
0.000000
  70
    32
  0
VERTEX
  8
0
  5
21D9
 10
77.7432
 20
212.165
 30
0.000000
  70
    32
  0
VERTEX
  8
0
  5
21DA
 10
77.7114
 20
212.115
 30
0.000000
  70
    32
  0
VERTEX
  8
0
  5
21DB
 10
77.6801
 20
212.066
 30
0.000000
  70
    32
  0
VERTEX
  8
0
  5
21DC
 10
77.6496
 20
212.016
 30
0.000000
  70
    32
  0
VERTEX
  8
0
  5
21DD
 10
77.6196
 20
211.965
 30
0.000000
  70
    32
  0
VERTEX
  8
0
  5
21DE
 10
77.5904
 20
211.915
 30
0.000000
  70
    32
  0
VERTEX
  8
0
  5
21DF
 10
77.5618
 20
211.864
 30
0.000000
  70
    32
  0
VERTEX
  8
0
  5
21E0
 10
77.5339
 20
211.812
 30
0.000000
  70
    32
  0
VERTEX
  8
0
  5
21E1
 10
77.5066
 20
211.761
 30
0.000000
  70
    32
  0
VERTEX
  8
0
  5
21E2
 10
77.4801
 20
211.709
 30
0.000000
  70
    32
  0
VERTEX
  8
0
  5
21E3
 10
77.4542
 20
211.656
 30
0.000000
  70
    32
  0
VERTEX
  8
0
  5
21E4
 10
77.4290
 20
211.604
 30
0.000000
  70
    32
  0
VERTEX
  8
0
  5
21E5
 10
77.4044
 20
211.551
 30
0.000000
  70
    32
  0
VERTEX
  8
0
  5
21E6
 10
77.3806
 20
211.498
 30
0.000000
  70
    32
  0
VERTEX
  8
0
  5
21E7
 10
77.3575
 20
211.444
 30
0.000000
  70
    32
  0
VERTEX
  8
0
  5
21E8
 10
77.3350
 20
211.391
 30
0.000000
  70
    32
  0
VERTEX
  8
0
  5
21E9
 10
77.3133
 20
211.337
 30
0.000000
  70
    32
  0
VERTEX
  8
0
  5
21EA
 10
77.2923
 20
211.283
 30
0.000000
  70
    32
  0
VERTEX
  8
0
  5
21EB
 10
77.2720
 20
211.228
 30
0.000000
  70
    32
  0
VERTEX
  8
0
  5
21EC
 10
77.2524
 20
211.174
 30
0.000000
  70
    32
  0
VERTEX
  8
0
  5
21ED
 10
77.2335
 20
211.119
 30
0.000000
  70
    32
  0
VERTEX
  8
0
  5
21EE
 10
77.2153
 20
211.064
 30
0.000000
  70
    32
  0
VERTEX
  8
0
  5
21EF
 10
77.1978
 20
211.008
 30
0.000000
  70
    32
  0
VERTEX
  8
0
  5
21F0
 10
77.1811
 20
210.953
 30
0.000000
  70
    32
  0
VERTEX
  8
0
  5
21F1
 10
77.1651
 20
210.897
 30
0.000000
  70
    32
  0
VERTEX
  8
0
  5
21F2
 10
77.1498
 20
210.841
 30
0.000000
  70
    32
  0
VERTEX
  8
0
  5
21F3
 10
77.1353
 20
210.785
 30
0.000000
  70
    32
  0
VERTEX
  8
0
  5
21F4
 10
77.1215
 20
210.729
 30
0.000000
  70
    32
  0
VERTEX
  8
0
  5
21F5
 10
77.1084
 20
210.673
 30
0.000000
  70
    32
  0
VERTEX
  8
0
  5
21F6
 10
77.0961
 20
210.616
 30
0.000000
  70
    32
  0
VERTEX
  8
0
  5
21F7
 10
77.0845
 20
210.560
 30
0.000000
  70
    32
  0
VERTEX
  8
0
  5
21F8
 10
77.0736
 20
210.503
 30
0.000000
  70
    32
  0
VERTEX
  8
0
  5
21F9
 10
77.0635
 20
210.446
 30
0.000000
  70
    32
  0
VERTEX
  8
0
  5
21FA
 10
77.0541
 20
210.389
 30
0.000000
  70
    32
  0
VERTEX
  8
0
  5
21FB
 10
77.0455
 20
210.332
 30
0.000000
  70
    32
  0
VERTEX
  8
0
  5
21FC
 10
77.0376
 20
210.275
 30
0.000000
  70
    32
  0
VERTEX
  8
0
  5
21FD
 10
77.0305
 20
210.218
 30
0.000000
  70
    32
  0
VERTEX
  8
0
  5
21FE
 10
77.0241
 20
210.160
 30
0.000000
  70
    32
  0
VERTEX
  8
0
  5
21FF
 10
77.0184
 20
210.103
 30
0.000000
  70
    32
  0
VERTEX
  8
0
  5
2200
 10
77.0135
 20
210.045
 30
0.000000
  70
    32
  0
VERTEX
  8
0
  5
2201
 10
77.0094
 20
209.988
 30
0.000000
  70
    32
  0
VERTEX
  8
0
  5
2202
 10
77.0060
 20
209.930
 30
0.000000
  70
    32
  0
VERTEX
  8
0
  5
2203
 10
77.0034
 20
209.873
 30
0.000000
  70
    32
  0
VERTEX
  8
0
  5
2204
 10
77.0015
 20
209.815
 30
0.000000
  70
    32
  0
VERTEX
  8
0
  5
2205
 10
77.0004
 20
209.758
 30
0.000000
  70
    32
  0
VERTEX
  8
0
  5
2206
 10
77.0000
 20
209.700
 30
0.000000
  70
    32
  0
SEQEND
  8
0
  5
2207
  0
LINE
  5
1A87
  8
0
 10
87.0
 20
198.49999999999989
 30
0.0
 11
87.0
 21
209.69984289865371
 31
0.0
  0
LINE
  5
1A8A
  8
0
 10
77.0
 20
209.69984289865371
 30
0.0
 11
77.0
 21
198.5
 31
0.0
  0
POLYLINE
  5
1A8B
  8
0
 10
87.0
 20
209.69984289865369
 30
0.0
 66
     1
 70
     8
  0
VERTEX
  8
0
  5
2208
 10
87.0000
 20
209.700
 30
0.000000
  70
    32
  0
VERTEX
  8
0
  5
2209
 10
86.9996
 20
209.758
 30
0.000000
  70
    32
  0
VERTEX
  8
0
  5
220A
 10
86.9985
 20
209.815
 30
0.000000
  70
    32
  0
VERTEX
  8
0
  5
220B
 10
86.9966
 20
209.873
 30
0.000000
  70
    32
  0
VERTEX
  8
0
  5
220C
 10
86.9940
 20
209.930
 30
0.000000
  70
    32
  0
VERTEX
  8
0
  5
220D
 10
86.9906
 20
209.988
 30
0.000000
  70
    32
  0
VERTEX
  8
0
  5
220E
 10
86.9865
 20
210.045
 30
0.000000
  70
    32
  0
VERTEX
  8
0
  5
220F
 10
86.9816
 20
210.103
 30
0.000000
  70
    32
  0
VERTEX
  8
0
  5
2210
 10
86.9759
 20
210.160
 30
0.000000
  70
    32
  0
VERTEX
  8
0
  5
2211
 10
86.9695
 20
210.218
 30
0.000000
  70
    32
  0
VERTEX
  8
0
  5
2212
 10
86.9624
 20
210.275
 30
0.000000
  70
    32
  0
VERTEX
  8
0
  5
2213
 10
86.9545
 20
210.332
 30
0.000000
  70
    32
  0
VERTEX
  8
0
  5
2214
 10
86.9459
 20
210.389
 30
0.000000
  70
    32
  0
VERTEX
  8
0
  5
2215
 10
86.9365
 20
210.446
 30
0.000000
  70
    32
  0
VERTEX
  8
0
  5
2216
 10
86.9264
 20
210.503
 30
0.000000
  70
    32
  0
VERTEX
  8
0
  5
2217
 10
86.9155
 20
210.560
 30
0.000000
  70
    32
  0
VERTEX
  8
0
  5
2218
 10
86.9039
 20
210.616
 30
0.000000
  70
    32
  0
VERTEX
  8
0
  5
2219
 10
86.8916
 20
210.673
 30
0.000000
  70
    32
  0
VERTEX
  8
0
  5
221A
 10
86.8785
 20
210.729
 30
0.000000
  70
    32
  0
VERTEX
  8
0
  5
221B
 10
86.8647
 20
210.785
 30
0.000000
  70
    32
  0
VERTEX
  8
0
  5
221C
 10
86.8502
 20
210.841
 30
0.000000
  70
    32
  0
VERTEX
  8
0
  5
221D
 10
86.8349
 20
210.897
 30
0.000000
  70
    32
  0
VERTEX
  8
0
  5
221E
 10
86.8189
 20
210.953
 30
0.000000
  70
    32
  0
VERTEX
  8
0
  5
221F
 10
86.8022
 20
211.008
 30
0.000000
  70
    32
  0
VERTEX
  8
0
  5
2220
 10
86.7847
 20
211.064
 30
0.000000
  70
    32
  0
VERTEX
  8
0
  5
2221
 10
86.7665
 20
211.119
 30
0.000000
  70
    32
  0
VERTEX
  8
0
  5
2222
 10
86.7476
 20
211.174
 30
0.000000
  70
    32
  0
VERTEX
  8
0
  5
2223
 10
86.7280
 20
211.228
 30
0.000000
  70
    32
  0
VERTEX
  8
0
  5
2224
 10
86.7077
 20
211.283
 30
0.000000
  70
    32
  0
VERTEX
  8
0
  5
2225
 10
86.6867
 20
211.337
 30
0.000000
  70
    32
  0
VERTEX
  8
0
  5
2226
 10
86.6650
 20
211.391
 30
0.000000
  70
    32
  0
VERTEX
  8
0
  5
2227
 10
86.6425
 20
211.444
 30
0.000000
  70
    32
  0
VERTEX
  8
0
  5
2228
 10
86.6194
 20
211.498
 30
0.000000
  70
    32
  0
VERTEX
  8
0
  5
2229
 10
86.5956
 20
211.551
 30
0.000000
  70
    32
  0
VERTEX
  8
0
  5
222A
 10
86.5710
 20
211.604
 30
0.000000
  70
    32
  0
VERTEX
  8
0
  5
222B
 10
86.5458
 20
211.656
 30
0.000000
  70
    32
  0
VERTEX
  8
0
  5
222C
 10
86.5199
 20
211.709
 30
0.000000
  70
    32
  0
VERTEX
  8
0
  5
222D
 10
86.4934
 20
211.761
 30
0.000000
  70
    32
  0
VERTEX
  8
0
  5
222E
 10
86.4661
 20
211.812
 30
0.000000
  70
    32
  0
VERTEX
  8
0
  5
222F
 10
86.4382
 20
211.864
 30
0.000000
  70
    32
  0
VERTEX
  8
0
  5
2230
 10
86.4096
 20
211.915
 30
0.000000
  70
    32
  0
VERTEX
  8
0
  5
2231
 10
86.3804
 20
211.965
 30
0.000000
  70
    32
  0
VERTEX
  8
0
  5
2232
 10
86.3504
 20
212.016
 30
0.000000
  70
    32
  0
VERTEX
  8
0
  5
2233
 10
86.3199
 20
212.066
 30
0.000000
  70
    32
  0
VERTEX
  8
0
  5
2234
 10
86.2886
 20
212.115
 30
0.000000
  70
    32
  0
VERTEX
  8
0
  5
2235
 10
86.2568
 20
212.165
 30
0.000000
  70
    32
  0
VERTEX
  8
0
  5
2236
 10
86.2243
 20
212.214
 30
0.000000
  70
    32
  0
VERTEX
  8
0
  5
2237
 10
86.1911
 20
212.262
 30
0.000000
  70
    32
  0
VERTEX
  8
0
  5
2238
 10
86.1573
 20
212.310
 30
0.000000
  70
    32
  0
VERTEX
  8
0
  5
2239
 10
86.1229
 20
212.358
 30
0.000000
  70
    32
  0
VERTEX
  8
0
  5
223A
 10
86.0879
 20
212.405
 30
0.000000
  70
    32
  0
VERTEX
  8
0
  5
223B
 10
86.0523
 20
212.452
 30
0.000000
  70
    32
  0
VERTEX
  8
0
  5
223C
 10
86.0160
 20
212.499
 30
0.000000
  70
    32
  0
VERTEX
  8
0
  5
223D
 10
85.9792
 20
212.545
 30
0.000000
  70
    32
  0
VERTEX
  8
0
  5
223E
 10
85.9417
 20
212.590
 30
0.000000
  70
    32
  0
VERTEX
  8
0
  5
223F
 10
85.9037
 20
212.636
 30
0.000000
  70
    32
  0
VERTEX
  8
0
  5
2240
 10
85.8651
 20
212.681
 30
0.000000
  70
    32
  0
VERTEX
  8
0
  5
2241
 10
85.8258
 20
212.725
 30
0.000000
  70
    32
  0
VERTEX
  8
0
  5
2242
 10
85.7860
 20
212.769
 30
0.000000
  70
    32
  0
VERTEX
  8
0
  5
2243
 10
85.7457
 20
212.812
 30
0.000000
  70
    32
  0
VERTEX
  8
0
  5
2244
 10
85.7048
 20
212.855
 30
0.000000
  70
    32
  0
VERTEX
  8
0
  5
2245
 10
85.6633
 20
212.898
 30
0.000000
  70
    32
  0
VERTEX
  8
0
  5
2246
 10
85.6212
 20
212.940
 30
0.000000
  70
    32
  0
VERTEX
  8
0
  5
2247
 10
85.5787
 20
212.981
 30
0.000000
  70
    32
  0
VERTEX
  8
0
  5
2248
 10
85.5355
 20
213.022
 30
0.000000
  70
    32
  0
VERTEX
  8
0
  5
2249
 10
85.4919
 20
213.063
 30
0.000000
  70
    32
  0
VERTEX
  8
0
  5
224A
 10
85.4477
 20
213.103
 30
0.000000
  70
    32
  0
VERTEX
  8
0
  5
224B
 10
85.4030
 20
213.142
 30
0.000000
  70
    32
  0
VERTEX
  8
0
  5
224C
 10
85.3578
 20
213.181
 30
0.000000
  70
    32
  0
VERTEX
  8
0
  5
224D
 10
85.3121
 20
213.220
 30
0.000000
  70
    32
  0
VERTEX
  8
0
  5
224E
 10
85.2659
 20
213.258
 30
0.000000
  70
    32
  0
VERTEX
  8
0
  5
224F
 10
85.2192
 20
213.295
 30
0.000000
  70
    32
  0
VERTEX
  8
0
  5
2250
 10
85.1720
 20
213.332
 30
0.000000
  70
    32
  0
VERTEX
  8
0
  5
2251
 10
85.1243
 20
213.368
 30
0.000000
  70
    32
  0
VERTEX
  8
0
  5
2252
 10
85.0762
 20
213.404
 30
0.000000
  70
    32
  0
VERTEX
  8
0
  5
2253
 10
85.0276
 20
213.439
 30
0.000000
  70
    32
  0
VERTEX
  8
0
  5
2254
 10
84.9785
 20
213.474
 30
0.000000
  70
    32
  0
VERTEX
  8
0
  5
2255
 10
84.9290
 20
213.508
 30
0.000000
  70
    32
  0
VERTEX
  8
0
  5
2256
 10
84.8790
 20
213.541
 30
0.000000
  70
    32
  0
VERTEX
  8
0
  5
2257
 10
84.8287
 20
213.574
 30
0.000000
  70
    32
  0
VERTEX
  8
0
  5
2258
 10
84.7779
 20
213.606
 30
0.000000
  70
    32
  0
VERTEX
  8
0
  5
2259
 10
84.7266
 20
213.638
 30
0.000000
  70
    32
  0
VERTEX
  8
0
  5
225A
 10
84.6750
 20
213.669
 30
0.000000
  70
    32
  0
VERTEX
  8
0
  5
225B
 10
84.6229
 20
213.700
 30
0.000000
  70
    32
  0
VERTEX
  8
0
  5
225C
 10
84.5705
 20
213.730
 30
0.000000
  70
    32
  0
VERTEX
  8
0
  5
225D
 10
84.5177
 20
213.759
 30
0.000000
  70
    32
  0
VERTEX
  8
0
  5
225E
 10
84.4645
 20
213.788
 30
0.000000
  70
    32
  0
VERTEX
  8
0
  5
225F
 10
84.4109
 20
213.816
 30
0.000000
  70
    32
  0
VERTEX
  8
0
  5
2260
 10
84.3570
 20
213.844
 30
0.000000
  70
    32
  0
VERTEX
  8
0
  5
2261
 10
84.3027
 20
213.870
 30
0.000000
  70
    32
  0
VERTEX
  8
0
  5
2262
 10
84.2481
 20
213.897
 30
0.000000
  70
    32
  0
VERTEX
  8
0
  5
2263
 10
84.1931
 20
213.922
 30
0.000000
  70
    32
  0
VERTEX
  8
0
  5
2264
 10
84.1378
 20
213.947
 30
0.000000
  70
    32
  0
VERTEX
  8
0
  5
2265
 10
84.0821
 20
213.972
 30
0.000000
  70
    32
  0
VERTEX
  8
0
  5
2266
 10
84.0262
 20
213.995
 30
0.000000
  70
    32
  0
VERTEX
  8
0
  5
2267
 10
83.9700
 20
214.018
 30
0.000000
  70
    32
  0
VERTEX
  8
0
  5
2268
 10
83.9134
 20
214.041
 30
0.000000
  70
    32
  0
VERTEX
  8
0
  5
2269
 10
83.8566
 20
214.062
 30
0.000000
  70
    32
  0
VERTEX
  8
0
  5
226A
 10
83.7995
 20
214.083
 30
0.000000
  70
    32
  0
VERTEX
  8
0
  5
226B
 10
83.7421
 20
214.104
 30
0.000000
  70
    32
  0
VERTEX
  8
0
  5
226C
 10
83.6844
 20
214.124
 30
0.000000
  70
    32
  0
VERTEX
  8
0
  5
226D
 10
83.6266
 20
214.143
 30
0.000000
  70
    32
  0
VERTEX
  8
0
  5
226E
 10
83.5684
 20
214.161
 30
0.000000
  70
    32
  0
VERTEX
  8
0
  5
226F
 10
83.5100
 20
214.179
 30
0.000000
  70
    32
  0
VERTEX
  8
0
  5
2270
 10
83.4514
 20
214.196
 30
0.000000
  70
    32
  0
VERTEX
  8
0
  5
2271
 10
83.3926
 20
214.212
 30
0.000000
  70
    32
  0
VERTEX
  8
0
  5
2272
 10
83.3336
 20
214.228
 30
0.000000
  70
    32
  0
VERTEX
  8
0
  5
2273
 10
83.2743
 20
214.243
 30
0.000000
  70
    32
  0
VERTEX
  8
0
  5
2274
 10
83.2149
 20
214.257
 30
0.000000
  70
    32
  0
VERTEX
  8
0
  5
2275
 10
83.1553
 20
214.271
 30
0.000000
  70
    32
  0
VERTEX
  8
0
  5
2276
 10
83.0955
 20
214.284
 30
0.000000
  70
    32
  0
VERTEX
  8
0
  5
2277
 10
83.0356
 20
214.296
 30
0.000000
  70
    32
  0
VERTEX
  8
0
  5
2278
 10
82.9755
 20
214.308
 30
0.000000
  70
    32
  0
VERTEX
  8
0
  5
2279
 10
82.9152
 20
214.319
 30
0.000000
  70
    32
  0
VERTEX
  8
0
  5
227A
 10
82.8548
 20
214.329
 30
0.000000
  70
    32
  0
VERTEX
  8
0
  5
227B
 10
82.7943
 20
214.339
 30
0.000000
  70
    32
  0
VERTEX
  8
0
  5
227C
 10
82.7337
 20
214.347
 30
0.000000
  70
    32
  0
VERTEX
  8
0
  5
227D
 10
82.6729
 20
214.356
 30
0.000000
  70
    32
  0
VERTEX
  8
0
  5
227E
 10
82.6121
 20
214.363
 30
0.000000
  70
    32
  0
VERTEX
  8
0
  5
227F
 10
82.5511
 20
214.370
 30
0.000000
  70
    32
  0
VERTEX
  8
0
  5
2280
 10
82.4901
 20
214.376
 30
0.000000
  70
    32
  0
VERTEX
  8
0
  5
2281
 10
82.4290
 20
214.381
 30
0.000000
  70
    32
  0
VERTEX
  8
0
  5
2282
 10
82.3678
 20
214.386
 30
0.000000
  70
    32
  0
VERTEX
  8
0
  5
2283
 10
82.3066
 20
214.389
 30
0.000000
  70
    32
  0
VERTEX
  8
0
  5
2284
 10
82.2453
 20
214.393
 30
0.000000
  70
    32
  0
VERTEX
  8
0
  5
2285
 10
82.1840
 20
214.395
 30
0.000000
  70
    32
  0
VERTEX
  8
0
  5
2286
 10
82.1227
 20
214.397
 30
0.000000
  70
    32
  0
VERTEX
  8
0
  5
2287
 10
82.0614
 20
214.398
 30
0.000000
  70
    32
  0
VERTEX
  8
0
  5
2288
 10
82.0000
 20
214.398
 30
0.000000
  70
    32
  0
SEQEND
  8
0
  5
2289
  0
POLYLINE
  5
1A8D
  8
0
 10
86.999999999999986
 20
205.31359927244884
 30
0.0
 66
     1
 70
     8
  0
VERTEX
  8
0
  5
228A
 10
87.0000
 20
205.314
 30
0.000000
  70
    32
  0
VERTEX
  8
0
  5
228B
 10
87.1660
 20
205.487
 30
0.000000
  70
    32
  0
VERTEX
  8
0
  5
228C
 10
87.3252
 20
205.666
 30
0.000000
  70
    32
  0
VERTEX
  8
0
  5
228D
 10
87.4774
 20
205.850
 30
0.000000
  70
    32
  0
VERTEX
  8
0
  5
228E
 10
87.6224
 20
206.039
 30
0.000000
  70
    32
  0
VERTEX
  8
0
  5
228F
 10
87.7600
 20
206.233
 30
0.000000
  70
    32
  0
VERTEX
  8
0
  5
2290
 10
87.8900
 20
206.432
 30
0.000000
  70
    32
  0
VERTEX
  8
0
  5
2291
 10
88.0123
 20
206.635
 30
0.000000
  70
    32
  0
VERTEX
  8
0
  5
2292
 10
88.1267
 20
206.842
 30
0.000000
  70
    32
  0
VERTEX
  8
0
  5
2293
 10
88.2330
 20
207.052
 30
0.000000
  70
    32
  0
VERTEX
  8
0
  5
2294
 10
88.3311
 20
207.266
 30
0.000000
  70
    32
  0
VERTEX
  8
0
  5
2295
 10
88.4208
 20
207.484
 30
0.000000
  70
    32
  0
VERTEX
  8
0
  5
2296
 10
88.5021
 20
207.704
 30
0.000000
  70
    32
  0
VERTEX
  8
0
  5
2297
 10
88.5749
 20
207.927
 30
0.000000
  70
    32
  0
VERTEX
  8
0
  5
2298
 10
88.6390
 20
208.152
 30
0.000000
  70
    32
  0
VERTEX
  8
0
  5
2299
 10
88.6943
 20
208.380
 30
0.000000
  70
    32
  0
VERTEX
  8
0
  5
229A
 10
88.7409
 20
208.609
 30
0.000000
  70
    32
  0
VERTEX
  8
0
  5
229B
 10
88.7786
 20
208.839
 30
0.000000
  70
    32
  0
VERTEX
  8
0
  5
229C
 10
88.8073
 20
209.071
 30
0.000000
  70
    32
  0
VERTEX
  8
0
  5
229D
 10
88.8271
 20
209.303
 30
0.000000
  70
    32
  0
VERTEX
  8
0
  5
229E
 10
88.8379
 20
209.536
 30
0.000000
  70
    32
  0
VERTEX
  8
0
  5
229F
 10
88.8398
 20
209.769
 30
0.000000
  70
    32
  0
VERTEX
  8
0
  5
22A0
 10
88.8326
 20
210.002
 30
0.000000
  70
    32
  0
VERTEX
  8
0
  5
22A1
 10
88.8164
 20
210.235
 30
0.000000
  70
    32
  0
VERTEX
  8
0
  5
22A2
 10
88.7913
 20
210.467
 30
0.000000
  70
    32
  0
VERTEX
  8
0
  5
22A3
 10
88.7572
 20
210.698
 30
0.000000
  70
    32
  0
VERTEX
  8
0
  5
22A4
 10
88.7142
 20
210.928
 30
0.000000
  70
    32
  0
VERTEX
  8
0
  5
22A5
 10
88.6624
 20
211.156
 30
0.000000
  70
    32
  0
VERTEX
  8
0
  5
22A6
 10
88.6018
 20
211.382
 30
0.000000
  70
    32
  0
VERTEX
  8
0
  5
22A7
 10
88.5326
 20
211.606
 30
0.000000
  70
    32
  0
VERTEX
  8
0
  5
22A8
 10
88.4547
 20
211.827
 30
0.000000
  70
    32
  0
VERTEX
  8
0
  5
22A9
 10
88.3683
 20
212.046
 30
0.000000
  70
    32
  0
VERTEX
  8
0
  5
22AA
 10
88.2736
 20
212.261
 30
0.000000
  70
    32
  0
VERTEX
  8
0
  5
22AB
 10
88.1706
 20
212.473
 30
0.000000
  70
    32
  0
VERTEX
  8
0
  5
22AC
 10
88.0595
 20
212.682
 30
0.000000
  70
    32
  0
VERTEX
  8
0
  5
22AD
 10
87.9404
 20
212.886
 30
0.000000
  70
    32
  0
VERTEX
  8
0
  5
22AE
 10
87.8135
 20
213.087
 30
0.000000
  70
    32
  0
VERTEX
  8
0
  5
22AF
 10
87.6789
 20
213.283
 30
0.000000
  70
    32
  0
VERTEX
  8
0
  5
22B0
 10
87.5369
 20
213.474
 30
0.000000
  70
    32
  0
VERTEX
  8
0
  5
22B1
 10
87.3876
 20
213.660
 30
0.000000
  70
    32
  0
VERTEX
  8
0
  5
22B2
 10
87.2312
 20
213.841
 30
0.000000
  70
    32
  0
VERTEX
  8
0
  5
22B3
 10
87.0679
 20
214.017
 30
0.000000
  70
    32
  0
VERTEX
  8
0
  5
22B4
 10
86.8979
 20
214.187
 30
0.000000
  70
    32
  0
VERTEX
  8
0
  5
22B5
 10
86.7215
 20
214.351
 30
0.000000
  70
    32
  0
VERTEX
  8
0
  5
22B6
 10
86.5389
 20
214.508
 30
0.000000
  70
    32
  0
VERTEX
  8
0
  5
22B7
 10
86.3503
 20
214.660
 30
0.000000
  70
    32
  0
VERTEX
  8
0
  5
22B8
 10
86.1560
 20
214.805
 30
0.000000
  70
    32
  0
VERTEX
  8
0
  5
22B9
 10
85.9562
 20
214.943
 30
0.000000
  70
    32
  0
VERTEX
  8
0
  5
22BA
 10
85.7512
 20
215.075
 30
0.000000
  70
    32
  0
VERTEX
  8
0
  5
22BB
 10
85.5413
 20
215.199
 30
0.000000
  70
    32
  0
VERTEX
  8
0
  5
22BC
 10
85.3267
 20
215.316
 30
0.000000
  70
    32
  0
VERTEX
  8
0
  5
22BD
 10
85.1077
 20
215.426
 30
0.000000
  70
    32
  0
VERTEX
  8
0
  5
22BE
 10
84.8847
 20
215.528
 30
0.000000
  70
    32
  0
VERTEX
  8
0
  5
22BF
 10
84.6578
 20
215.622
 30
0.000000
  70
    32
  0
VERTEX
  8
0
  5
22C0
 10
84.4274
 20
215.709
 30
0.000000
  70
    32
  0
VERTEX
  8
0
  5
22C1
 10
84.1939
 20
215.788
 30
0.000000
  70
    32
  0
VERTEX
  8
0
  5
22C2
 10
83.9575
 20
215.859
 30
0.000000
  70
    32
  0
VERTEX
  8
0
  5
22C3
 10
83.7185
 20
215.921
 30
0.000000
  70
    32
  0
VERTEX
  8
0
  5
22C4
 10
83.4772
 20
215.976
 30
0.000000
  70
    32
  0
VERTEX
  8
0
  5
22C5
 10
83.2340
 20
216.022
 30
0.000000
  70
    32
  0
VERTEX
  8
0
  5
22C6
 10
82.9891
 20
216.060
 30
0.000000
  70
    32
  0
VERTEX
  8
0
  5
22C7
 10
82.7430
 20
216.089
 30
0.000000
  70
    32
  0
VERTEX
  8
0
  5
22C8
 10
82.4959
 20
216.111
 30
0.000000
  70
    32
  0
VERTEX
  8
0
  5
22C9
 10
82.2481
 20
216.123
 30
0.000000
  70
    32
  0
VERTEX
  8
0
  5
22CA
 10
82.0000
 20
216.127
 30
0.000000
  70
    32
  0
VERTEX
  8
0
  5
22CB
 10
81.7519
 20
216.123
 30
0.000000
  70
    32
  0
VERTEX
  8
0
  5
22CC
 10
81.5041
 20
216.111
 30
0.000000
  70
    32
  0
VERTEX
  8
0
  5
22CD
 10
81.2570
 20
216.089
 30
0.000000
  70
    32
  0
VERTEX
  8
0
  5
22CE
 10
81.0109
 20
216.060
 30
0.000000
  70
    32
  0
VERTEX
  8
0
  5
22CF
 10
80.7660
 20
216.022
 30
0.000000
  70
    32
  0
VERTEX
  8
0
  5
22D0
 10
80.5228
 20
215.976
 30
0.000000
  70
    32
  0
VERTEX
  8
0
  5
22D1
 10
80.2815
 20
215.921
 30
0.000000
  70
    32
  0
VERTEX
  8
0
  5
22D2
 10
80.0425
 20
215.859
 30
0.000000
  70
    32
  0
VERTEX
  8
0
  5
22D3
 10
79.8061
 20
215.788
 30
0.000000
  70
    32
  0
VERTEX
  8
0
  5
22D4
 10
79.5726
 20
215.709
 30
0.000000
  70
    32
  0
VERTEX
  8
0
  5
22D5
 10
79.3422
 20
215.622
 30
0.000000
  70
    32
  0
VERTEX
  8
0
  5
22D6
 10
79.1153
 20
215.528
 30
0.000000
  70
    32
  0
VERTEX
  8
0
  5
22D7
 10
78.8923
 20
215.426
 30
0.000000
  70
    32
  0
VERTEX
  8
0
  5
22D8
 10
78.6733
 20
215.316
 30
0.000000
  70
    32
  0
VERTEX
  8
0
  5
22D9
 10
78.4587
 20
215.199
 30
0.000000
  70
    32
  0
VERTEX
  8
0
  5
22DA
 10
78.2488
 20
215.075
 30
0.000000
  70
    32
  0
VERTEX
  8
0
  5
22DB
 10
78.0438
 20
214.943
 30
0.000000
  70
    32
  0
VERTEX
  8
0
  5
22DC
 10
77.8440
 20
214.805
 30
0.000000
  70
    32
  0
VERTEX
  8
0
  5
22DD
 10
77.6497
 20
214.660
 30
0.000000
  70
    32
  0
VERTEX
  8
0
  5
22DE
 10
77.4611
 20
214.508
 30
0.000000
  70
    32
  0
VERTEX
  8
0
  5
22DF
 10
77.2785
 20
214.351
 30
0.000000
  70
    32
  0
VERTEX
  8
0
  5
22E0
 10
77.1021
 20
214.187
 30
0.000000
  70
    32
  0
VERTEX
  8
0
  5
22E1
 10
76.9321
 20
214.017
 30
0.000000
  70
    32
  0
VERTEX
  8
0
  5
22E2
 10
76.7688
 20
213.841
 30
0.000000
  70
    32
  0
VERTEX
  8
0
  5
22E3
 10
76.6124
 20
213.660
 30
0.000000
  70
    32
  0
VERTEX
  8
0
  5
22E4
 10
76.4631
 20
213.474
 30
0.000000
  70
    32
  0
VERTEX
  8
0
  5
22E5
 10
76.3211
 20
213.283
 30
0.000000
  70
    32
  0
VERTEX
  8
0
  5
22E6
 10
76.1865
 20
213.087
 30
0.000000
  70
    32
  0
VERTEX
  8
0
  5
22E7
 10
76.0596
 20
212.886
 30
0.000000
  70
    32
  0
VERTEX
  8
0
  5
22E8
 10
75.9405
 20
212.682
 30
0.000000
  70
    32
  0
VERTEX
  8
0
  5
22E9
 10
75.8294
 20
212.473
 30
0.000000
  70
    32
  0
VERTEX
  8
0
  5
22EA
 10
75.7264
 20
212.261
 30
0.000000
  70
    32
  0
VERTEX
  8
0
  5
22EB
 10
75.6317
 20
212.046
 30
0.000000
  70
    32
  0
VERTEX
  8
0
  5
22EC
 10
75.5453
 20
211.827
 30
0.000000
  70
    32
  0
VERTEX
  8
0
  5
22ED
 10
75.4674
 20
211.606
 30
0.000000
  70
    32
  0
VERTEX
  8
0
  5
22EE
 10
75.3982
 20
211.382
 30
0.000000
  70
    32
  0
VERTEX
  8
0
  5
22EF
 10
75.3376
 20
211.156
 30
0.000000
  70
    32
  0
VERTEX
  8
0
  5
22F0
 10
75.2858
 20
210.928
 30
0.000000
  70
    32
  0
VERTEX
  8
0
  5
22F1
 10
75.2428
 20
210.698
 30
0.000000
  70
    32
  0
VERTEX
  8
0
  5
22F2
 10
75.2087
 20
210.467
 30
0.000000
  70
    32
  0
VERTEX
  8
0
  5
22F3
 10
75.1836
 20
210.235
 30
0.000000
  70
    32
  0
VERTEX
  8
0
  5
22F4
 10
75.1674
 20
210.002
 30
0.000000
  70
    32
  0
VERTEX
  8
0
  5
22F5
 10
75.1602
 20
209.769
 30
0.000000
  70
    32
  0
VERTEX
  8
0
  5
22F6
 10
75.1621
 20
209.536
 30
0.000000
  70
    32
  0
VERTEX
  8
0
  5
22F7
 10
75.1729
 20
209.303
 30
0.000000
  70
    32
  0
VERTEX
  8
0
  5
22F8
 10
75.1927
 20
209.071
 30
0.000000
  70
    32
  0
VERTEX
  8
0
  5
22F9
 10
75.2214
 20
208.839
 30
0.000000
  70
    32
  0
VERTEX
  8
0
  5
22FA
 10
75.2591
 20
208.609
 30
0.000000
  70
    32
  0
VERTEX
  8
0
  5
22FB
 10
75.3057
 20
208.380
 30
0.000000
  70
    32
  0
VERTEX
  8
0
  5
22FC
 10
75.3610
 20
208.152
 30
0.000000
  70
    32
  0
VERTEX
  8
0
  5
22FD
 10
75.4251
 20
207.927
 30
0.000000
  70
    32
  0
VERTEX
  8
0
  5
22FE
 10
75.4979
 20
207.704
 30
0.000000
  70
    32
  0
VERTEX
  8
0
  5
22FF
 10
75.5792
 20
207.484
 30
0.000000
  70
    32
  0
VERTEX
  8
0
  5
2300
 10
75.6689
 20
207.266
 30
0.000000
  70
    32
  0
VERTEX
  8
0
  5
2301
 10
75.7670
 20
207.052
 30
0.000000
  70
    32
  0
VERTEX
  8
0
  5
2302
 10
75.8733
 20
206.842
 30
0.000000
  70
    32
  0
VERTEX
  8
0
  5
2303
 10
75.9877
 20
206.635
 30
0.000000
  70
    32
  0
VERTEX
  8
0
  5
2304
 10
76.1100
 20
206.432
 30
0.000000
  70
    32
  0
VERTEX
  8
0
  5
2305
 10
76.2400
 20
206.233
 30
0.000000
  70
    32
  0
VERTEX
  8
0
  5
2306
 10
76.3776
 20
206.039
 30
0.000000
  70
    32
  0
VERTEX
  8
0
  5
2307
 10
76.5226
 20
205.850
 30
0.000000
  70
    32
  0
VERTEX
  8
0
  5
2308
 10
76.6748
 20
205.666
 30
0.000000
  70
    32
  0
VERTEX
  8
0
  5
2309
 10
76.8340
 20
205.487
 30
0.000000
  70
    32
  0
VERTEX
  8
0
  5
230A
 10
77.0000
 20
205.314
 30
0.000000
  70
    32
  0
SEQEND
  8
0
  5
230B
  0
POLYLINE
  5
1A8E
  8
0
 66
     1
 10
0.0
 20
0.0
 30
0.0
  0
VERTEX
  5
1EDD
  8
0
 10
82.0
 20
225.0
 30
0.0
  0
VERTEX
  5
1EDE
  8
0
 10
81.571786369768915
 20
224.9922262360848
 30
0.0
  0
VERTEX
  5
1EDF
  8
0
 10
81.120215151341199
 20
224.96715104098561
 30
0.0
  0
VERTEX
  5
1EE0
  8
0
 10
80.669736966498135
 20
224.92476508000769
 30
0.0
  0
VERTEX
  5
1EE1
  8
0
 10
80.221014811632131
 20
224.8651089001973
 30
0.0
  0
VERTEX
  5
1EE2
  8
0
 10
79.774707595421432
 20
224.7882484143762
 30
0.0
  0
VERTEX
  5
1EE3
  8
0
 10
79.331473405729284
 20
224.69427529422029
 30
0.0
  0
VERTEX
  5
1EE4
  8
0
 10
78.891968460504586
 20
224.5833071618124
 30
0.0
  0
VERTEX
  5
1EE5
  8
0
 10
78.456846013503991
 20
224.45548772725419
 30
0.0
  0
VERTEX
  5
1EE6
  8
0
 10
78.026755220804603
 20
224.3109868659181
 30
0.0
  0
VERTEX
  5
1EE7
  8
0
 10
77.602339973591825
 20
224.1500006294583
 30
0.0
  0
VERTEX
  5
1EE8
  8
0
 10
77.184237703732151
 20
223.97275118554671
 30
0.0
  0
VERTEX
  5
1EE9
  8
0
 10
76.773078169461883
 20
223.77948668229411
 30
0.0
  0
VERTEX
  5
1EEA
  8
0
 10
76.369482229158962
 20
223.57048103442909
 30
0.0
  0
VERTEX
  5
1EEB
  8
0
 10
75.974060611549476
 20
223.34603362947561
 30
0.0
  0
VERTEX
  5
1EEC
  8
0
 10
75.587412690884435
 20
223.10646895336771
 30
0.0
  0
VERTEX
  5
1EED
  8
0
 10
75.210125275565247
 20
222.8521361361077
 30
0.0
  0
VERTEX
  5
1EEE
  8
0
 10
74.842771418434722
 20
222.58340841917681
 30
0.0
  0
VERTEX
  5
1EEF
  8
0
 10
74.485909256508876
 20
222.3006825474111
 30
0.0
  0
VERTEX
  5
1EF0
  8
0
 10
74.140080887336921
 20
222.00437808894409
 30
0.0
  0
VERTEX
  5
1EF1
  8
0
 10
73.805811288460859
 20
221.69493668755101
 30
0.0
  0
VERTEX
  5
1EF2
  8
0
 10
73.483607285660582
 20
221.37282125233
 30
0.0
  0
VERTEX
  5
1EF3
  8
0
 10
73.173956574821204
 20
221.03851509008189
 30
0.0
  0
VERTEX
  5
1EF4
  8
0
 10
72.877326801419713
 20
220.69252098605961
 30
0.0
  0
VERTEX
  5
1EF5
  8
0
 10
72.594164700769511
 20
220.33536023889789
 30
0.0
  0
VERTEX
  5
1EF6
  8
0
 10
72.324895301366723
 20
219.96757165558299
 30
0.0
  0
VERTEX
  5
1EF7
  8
0
 10
72.069921192918173
 20
219.5897105122331
 30
0.0
  0
VERTEX
  5
1EF8
  8
0
 10
71.82962185995234
 20
219.20234748632319
 30
0.0
  0
VERTEX
  5
1EF9
  8
0
 10
71.604353081289446
 20
218.80606756573309
 30
0.0
  0
VERTEX
  5
1EFA
  8
0
 10
71.394446395122372
 20
218.40146893973821
 30
0.0
  0
VERTEX
  5
1EFB
  8
0
 10
71.200208628995483
 20
217.9891618767312
 30
0.0
  0
VERTEX
  5
1EFC
  8
0
 10
71.021921493592799
 20
217.5697675931338
 30
0.0
  0
VERTEX
  5
1EFD
  8
0
 10
70.85984123893536
 20
217.1439171175991
 30
0.0
  0
VERTEX
  5
1EFE
  8
0
 10
70.714198371345674
 20
216.7122501542693
 30
0.0
  0
VERTEX
  5
1EFF
  8
0
 10
70.585197429355389
 20
216.27541394850829
 30
0.0
  0
VERTEX
  5
1F00
  8
0
 10
70.473016816591894
 20
215.83406215820779
 30
0.0
  0
VERTEX
  5
1F01
  8
0
 10
70.377808689596236
 20
215.38885373346281
 30
0.0
  0
VERTEX
  5
1F02
  8
0
 10
70.299698898464385
 20
214.94045180713451
 30
0.0
  0
VERTEX
  5
1F03
  8
0
 10
70.238786978178268
 20
214.48952259855761
 30
0.0
  0
VERTEX
  5
1F04
  8
0
 10
70.195146188489502
 20
214.03673433242119
 30
0.0
  0
VERTEX
  5
1F05
  8
0
 10
70.168823600226233
 20
213.58275617464099
 30
0.0
  0
VERTEX
  5
1F06
  8
0
 10
70.159840225918401
 20
213.1282571868598
 30
0.0
  0
VERTEX
  5
1F07
  8
0
 10
70.168191192661538
 20
212.67390530104279
 30
0.0
  0
VERTEX
  5
1F08
  8
0
 10
70.193845884370148
 20
212.22036725063501
 30
0.0
  0
VERTEX
  5
1F09
  8
0
 10
70.23674811421165
 20
211.76830670433279
 30
0.0
  0
VERTEX
  5
1F0A
  8
0
 10
70.296816564846608
 20
211.31838222554279
 30
0.0
  0
VERTEX
  5
1F0B
  8
0
 10
70.373945112842307
 20
210.87124735003621
 30
0.0
  0
VERTEX
  5
1F0C
  8
0
 10
70.468003184586451
 20
210.4275496791208
 30
0.0
  0
VERTEX
  5
1F0D
  8
0
 10
70.578836142472483
 20
209.98792999918001
 30
0.0
  0
VERTEX
  5
1F0E
  8
0
 10
70.706265699406231
 20
209.55302142833941
 30
0.0
  0
VERTEX
  5
1F0F
  8
0
 10
70.85009035968119
 20
209.1234485908615
 30
0.0
  0
VERTEX
  5
1F10
  8
0
 10
71.010085884258046
 20
208.69982681978109
 30
0.0
  0
VERTEX
  5
1F11
  8
0
 10
71.186005778459617
 20
208.2827613881947
 30
0.0
  0
VERTEX
  5
1F12
  8
0
 10
71.377581800076314
 20
207.87284676950941
 30
0.0
  0
VERTEX
  5
1F13
  8
0
 10
71.584524485845122
 20
207.47066592684931
 30
0.0
  0
VERTEX
  5
1F14
  8
0
 10
71.806523694244447
 20
207.0767896316799
 30
0.0
  0
VERTEX
  5
1F15
  8
0
 10
72.043249162525171
 20
206.69177581158041
 30
0.0
  0
VERTEX
  5
1F16
  8
0
 10
72.294351075880513
 20
206.31616892693691
 30
0.0
  0
VERTEX
  5
1F17
  8
0
 10
72.559460646656817
 20
205.95049937615741
 30
0.0
  0
VERTEX
  5
1F18
  8
0
 10
72.838190701515714
 20
205.5952829288326
 30
0.0
  0
VERTEX
  5
1F19
  8
0
 10
73.130136274487199
 20
205.2510201860641
 30
0.0
  0
VERTEX
  5
1F1A
  8
0
 10
73.434875203908291
 20
204.91819606697399
 30
0.0
  0
VERTEX
  5
1F1B
  8
0
 10
73.751968731323359
 20
204.5972793201924
 30
0.0
  0
VERTEX
  5
1F1C
  8
0
 10
74.080962100540546
 20
204.2887220588876
 30
0.0
  0
VERTEX
  5
1F1D
  8
0
 10
74.421385155196276
 20
203.99295931768111
 30
0.0
  0
VERTEX
  5
1F1E
  8
0
 10
74.772752933375159
 20
203.71040862956491
 30
0.0
  0
VERTEX
  5
1F1F
  8
0
 10
75.134566258088626
 20
203.4414696207192
 30
0.0
  0
VERTEX
  5
1F20
  8
0
 10
75.506312322707799
 20
203.1865236209448
 30
0.0
  0
VERTEX
  5
1F21
  8
0
 10
75.887465270805819
 20
202.9459332872481
 30
0.0
  0
VERTEX
  5
1F22
  8
0
 10
76.277486770260793
 20
202.720042238003
 30
0.0
  0
VERTEX
  5
1F23
  8
0
 10
76.67582658193578
 20
202.5091746950302
 30
0.0
  0
VERTEX
  5
1F24
  8
0
 10
77.0
 20
202.35308193792829
 30
0.0
  0
SEQEND
  5
1F25
  8
0
  0
LINE
  5
1A8F
  8
2
 10
77.0
 20
154.0
 30
0.0
 11
77.0
 21
168.0
 31
0.0
  0
LINE
  5
1A90
  8
2
 10
77.0
 20
168.0
 30
0.0
 11
87.0
 21
168.0
 31
0.0
  0
LINE
  5
1A91
  8
2
 10
87.0
 20
154.0
 30
0.0
 11
87.0
 21
168.0
 31
0.0
  0
LINE
  5
1A92
  8
1
 10
82.0
 20
230.000823845837
 30
0.0
 11
82.0
 21
149.0
 31
0.0
  0
CIRCLE
  5
1A95
  8
0
 10
166.00000000000011
 20
81.999999999999986
 30
0.0
 40
8.0
  0
CIRCLE
  5
1A96
  8
0
 10
166.00000000000011
 20
81.999999999999986
 30
0.0
 40
11.550000000000001
  0
CIRCLE
  5
1A97
  8
0
 10
166.00000000000011
 20
81.999999999999986
 30
0.0
 40
4.1880000000000006
  0
ARC
  5
1A99
  8
0
 10
192.99999999999989
 20
82.000000000018048
 30
0.0
 40
5.0000000000180762
 50
270.00000000000648
 51
275.38350107171829
  0
ARC
  5
1A9A
  8
0
 10
193.0
 20
81.999999999995438
 30
0.0
 40
5.0000000000045581
 50
84.6164989283144
 51
90.0
  0
POLYLINE
  5
1A9C
  8
0
 10
193.46910813389417
 20
77.022054885927872
 30
0.0
 66
     1
 70
     8
  0
VERTEX
  8
0
  5
230C
 10
193.469
 20
77.0221
 30
0.000000
  70
    32
  0
VERTEX
  8
0
  5
230D
 10
193.510
 20
77.0274
 30
0.000000
  70
    32
  0
VERTEX
  8
0
  5
230E
 10
193.551
 20
77.0355
 30
0.000000
  70
    32
  0
VERTEX
  8
0
  5
230F
 10
193.592
 20
77.0466
 30
0.000000
  70
    32
  0
VERTEX
  8
0
  5
2310
 10
193.632
 20
77.0605
 30
0.000000
  70
    32
  0
VERTEX
  8
0
  5
2311
 10
193.673
 20
77.0772
 30
0.000000
  70
    32
  0
VERTEX
  8
0
  5
2312
 10
193.713
 20
77.0968
 30
0.000000
  70
    32
  0
VERTEX
  8
0
  5
2313
 10
193.753
 20
77.1192
 30
0.000000
  70
    32
  0
VERTEX
  8
0
  5
2314
 10
193.794
 20
77.1445
 30
0.000000
  70
    32
  0
VERTEX
  8
0
  5
2315
 10
193.833
 20
77.1726
 30
0.000000
  70
    32
  0
VERTEX
  8
0
  5
2316
 10
193.873
 20
77.2034
 30
0.000000
  70
    32
  0
VERTEX
  8
0
  5
2317
 10
193.912
 20
77.2370
 30
0.000000
  70
    32
  0
VERTEX
  8
0
  5
2318
 10
193.951
 20
77.2734
 30
0.000000
  70
    32
  0
VERTEX
  8
0
  5
2319
 10
193.990
 20
77.3125
 30
0.000000
  70
    32
  0
VERTEX
  8
0
  5
231A
 10
194.028
 20
77.3543
 30
0.000000
  70
    32
  0
VERTEX
  8
0
  5
231B
 10
194.066
 20
77.3988
 30
0.000000
  70
    32
  0
VERTEX
  8
0
  5
231C
 10
194.104
 20
77.4460
 30
0.000000
  70
    32
  0
VERTEX
  8
0
  5
231D
 10
194.141
 20
77.4958
 30
0.000000
  70
    32
  0
VERTEX
  8
0
  5
231E
 10
194.178
 20
77.5482
 30
0.000000
  70
    32
  0
VERTEX
  8
0
  5
231F
 10
194.214
 20
77.6031
 30
0.000000
  70
    32
  0
VERTEX
  8
0
  5
2320
 10
194.250
 20
77.6606
 30
0.000000
  70
    32
  0
VERTEX
  8
0
  5
2321
 10
194.286
 20
77.7207
 30
0.000000
  70
    32
  0
VERTEX
  8
0
  5
2322
 10
194.321
 20
77.7831
 30
0.000000
  70
    32
  0
VERTEX
  8
0
  5
2323
 10
194.355
 20
77.8481
 30
0.000000
  70
    32
  0
VERTEX
  8
0
  5
2324
 10
194.389
 20
77.9154
 30
0.000000
  70
    32
  0
VERTEX
  8
0
  5
2325
 10
194.422
 20
77.9851
 30
0.000000
  70
    32
  0
VERTEX
  8
0
  5
2326
 10
194.455
 20
78.0571
 30
0.000000
  70
    32
  0
VERTEX
  8
0
  5
2327
 10
194.487
 20
78.1314
 30
0.000000
  70
    32
  0
VERTEX
  8
0
  5
2328
 10
194.519
 20
78.2079
 30
0.000000
  70
    32
  0
VERTEX
  8
0
  5
2329
 10
194.549
 20
78.2866
 30
0.000000
  70
    32
  0
VERTEX
  8
0
  5
232A
 10
194.580
 20
78.3675
 30
0.000000
  70
    32
  0
VERTEX
  8
0
  5
232B
 10
194.609
 20
78.4504
 30
0.000000
  70
    32
  0
VERTEX
  8
0
  5
232C
 10
194.638
 20
78.5354
 30
0.000000
  70
    32
  0
VERTEX
  8
0
  5
232D
 10
194.666
 20
78.6224
 30
0.000000
  70
    32
  0
VERTEX
  8
0
  5
232E
 10
194.694
 20
78.7114
 30
0.000000
  70
    32
  0
VERTEX
  8
0
  5
232F
 10
194.720
 20
78.8023
 30
0.000000
  70
    32
  0
VERTEX
  8
0
  5
2330
 10
194.746
 20
78.8950
 30
0.000000
  70
    32
  0
VERTEX
  8
0
  5
2331
 10
194.771
 20
78.9895
 30
0.000000
  70
    32
  0
VERTEX
  8
0
  5
2332
 10
194.796
 20
79.0857
 30
0.000000
  70
    32
  0
VERTEX
  8
0
  5
2333
 10
194.819
 20
79.1836
 30
0.000000
  70
    32
  0
VERTEX
  8
0
  5
2334
 10
194.842
 20
79.2832
 30
0.000000
  70
    32
  0
VERTEX
  8
0
  5
2335
 10
194.864
 20
79.3843
 30
0.000000
  70
    32
  0
VERTEX
  8
0
  5
2336
 10
194.885
 20
79.4870
 30
0.000000
  70
    32
  0
VERTEX
  8
0
  5
2337
 10
194.905
 20
79.5911
 30
0.000000
  70
    32
  0
VERTEX
  8
0
  5
2338
 10
194.925
 20
79.6965
 30
0.000000
  70
    32
  0
VERTEX
  8
0
  5
2339
 10
194.943
 20
79.8034
 30
0.000000
  70
    32
  0
VERTEX
  8
0
  5
233A
 10
194.961
 20
79.9114
 30
0.000000
  70
    32
  0
VERTEX
  8
0
  5
233B
 10
194.977
 20
80.0207
 30
0.000000
  70
    32
  0
VERTEX
  8
0
  5
233C
 10
194.993
 20
80.1312
 30
0.000000
  70
    32
  0
VERTEX
  8
0
  5
233D
 10
195.008
 20
80.2427
 30
0.000000
  70
    32
  0
VERTEX
  8
0
  5
233E
 10
195.022
 20
80.3552
 30
0.000000
  70
    32
  0
VERTEX
  8
0
  5
233F
 10
195.035
 20
80.4687
 30
0.000000
  70
    32
  0
VERTEX
  8
0
  5
2340
 10
195.047
 20
80.5830
 30
0.000000
  70
    32
  0
VERTEX
  8
0
  5
2341
 10
195.058
 20
80.6982
 30
0.000000
  70
    32
  0
VERTEX
  8
0
  5
2342
 10
195.069
 20
80.8142
 30
0.000000
  70
    32
  0
VERTEX
  8
0
  5
2343
 10
195.078
 20
80.9308
 30
0.000000
  70
    32
  0
VERTEX
  8
0
  5
2344
 10
195.086
 20
81.0480
 30
0.000000
  70
    32
  0
VERTEX
  8
0
  5
2345
 10
195.094
 20
81.1658
 30
0.000000
  70
    32
  0
VERTEX
  8
0
  5
2346
 10
195.100
 20
81.2841
 30
0.000000
  70
    32
  0
VERTEX
  8
0
  5
2347
 10
195.105
 20
81.4028
 30
0.000000
  70
    32
  0
VERTEX
  8
0
  5
2348
 10
195.110
 20
81.5218
 30
0.000000
  70
    32
  0
VERTEX
  8
0
  5
2349
 10
195.113
 20
81.6411
 30
0.000000
  70
    32
  0
VERTEX
  8
0
  5
234A
 10
195.116
 20
81.7606
 30
0.000000
  70
    32
  0
VERTEX
  8
0
  5
234B
 10
195.117
 20
81.8803
 30
0.000000
  70
    32
  0
VERTEX
  8
0
  5
234C
 10
195.118
 20
82.0000
 30
0.000000
  70
    32
  0
VERTEX
  8
0
  5
234D
 10
195.117
 20
82.1197
 30
0.000000
  70
    32
  0
VERTEX
  8
0
  5
234E
 10
195.116
 20
82.2394
 30
0.000000
  70
    32
  0
VERTEX
  8
0
  5
234F
 10
195.113
 20
82.3589
 30
0.000000
  70
    32
  0
VERTEX
  8
0
  5
2350
 10
195.110
 20
82.4782
 30
0.000000
  70
    32
  0
VERTEX
  8
0
  5
2351
 10
195.105
 20
82.5972
 30
0.000000
  70
    32
  0
VERTEX
  8
0
  5
2352
 10
195.100
 20
82.7159
 30
0.000000
  70
    32
  0
VERTEX
  8
0
  5
2353
 10
195.094
 20
82.8342
 30
0.000000
  70
    32
  0
VERTEX
  8
0
  5
2354
 10
195.086
 20
82.9520
 30
0.000000
  70
    32
  0
VERTEX
  8
0
  5
2355
 10
195.078
 20
83.0692
 30
0.000000
  70
    32
  0
VERTEX
  8
0
  5
2356
 10
195.069
 20
83.1858
 30
0.000000
  70
    32
  0
VERTEX
  8
0
  5
2357
 10
195.058
 20
83.3018
 30
0.000000
  70
    32
  0
VERTEX
  8
0
  5
2358
 10
195.047
 20
83.4170
 30
0.000000
  70
    32
  0
VERTEX
  8
0
  5
2359
 10
195.035
 20
83.5313
 30
0.000000
  70
    32
  0
VERTEX
  8
0
  5
235A
 10
195.022
 20
83.6448
 30
0.000000
  70
    32
  0
VERTEX
  8
0
  5
235B
 10
195.008
 20
83.7573
 30
0.000000
  70
    32
  0
VERTEX
  8
0
  5
235C
 10
194.993
 20
83.8688
 30
0.000000
  70
    32
  0
VERTEX
  8
0
  5
235D
 10
194.977
 20
83.9793
 30
0.000000
  70
    32
  0
VERTEX
  8
0
  5
235E
 10
194.961
 20
84.0886
 30
0.000000
  70
    32
  0
VERTEX
  8
0
  5
235F
 10
194.943
 20
84.1966
 30
0.000000
  70
    32
  0
VERTEX
  8
0
  5
2360
 10
194.925
 20
84.3035
 30
0.000000
  70
    32
  0
VERTEX
  8
0
  5
2361
 10
194.905
 20
84.4089
 30
0.000000
  70
    32
  0
VERTEX
  8
0
  5
2362
 10
194.885
 20
84.5130
 30
0.000000
  70
    32
  0
VERTEX
  8
0
  5
2363
 10
194.864
 20
84.6157
 30
0.000000
  70
    32
  0
VERTEX
  8
0
  5
2364
 10
194.842
 20
84.7168
 30
0.000000
  70
    32
  0
VERTEX
  8
0
  5
2365
 10
194.819
 20
84.8164
 30
0.000000
  70
    32
  0
VERTEX
  8
0
  5
2366
 10
194.796
 20
84.9143
 30
0.000000
  70
    32
  0
VERTEX
  8
0
  5
2367
 10
194.771
 20
85.0105
 30
0.000000
  70
    32
  0
VERTEX
  8
0
  5
2368
 10
194.746
 20
85.1050
 30
0.000000
  70
    32
  0
VERTEX
  8
0
  5
2369
 10
194.720
 20
85.1977
 30
0.000000
  70
    32
  0
VERTEX
  8
0
  5
236A
 10
194.694
 20
85.2886
 30
0.000000
  70
    32
  0
VERTEX
  8
0
  5
236B
 10
194.666
 20
85.3776
 30
0.000000
  70
    32
  0
VERTEX
  8
0
  5
236C
 10
194.638
 20
85.4646
 30
0.000000
  70
    32
  0
VERTEX
  8
0
  5
236D
 10
194.609
 20
85.5496
 30
0.000000
  70
    32
  0
VERTEX
  8
0
  5
236E
 10
194.580
 20
85.6325
 30
0.000000
  70
    32
  0
VERTEX
  8
0
  5
236F
 10
194.549
 20
85.7134
 30
0.000000
  70
    32
  0
VERTEX
  8
0
  5
2370
 10
194.519
 20
85.7921
 30
0.000000
  70
    32
  0
VERTEX
  8
0
  5
2371
 10
194.487
 20
85.8686
 30
0.000000
  70
    32
  0
VERTEX
  8
0
  5
2372
 10
194.455
 20
85.9429
 30
0.000000
  70
    32
  0
VERTEX
  8
0
  5
2373
 10
194.422
 20
86.0149
 30
0.000000
  70
    32
  0
VERTEX
  8
0
  5
2374
 10
194.389
 20
86.0846
 30
0.000000
  70
    32
  0
VERTEX
  8
0
  5
2375
 10
194.355
 20
86.1519
 30
0.000000
  70
    32
  0
VERTEX
  8
0
  5
2376
 10
194.321
 20
86.2169
 30
0.000000
  70
    32
  0
VERTEX
  8
0
  5
2377
 10
194.286
 20
86.2793
 30
0.000000
  70
    32
  0
VERTEX
  8
0
  5
2378
 10
194.250
 20
86.3394
 30
0.000000
  70
    32
  0
VERTEX
  8
0
  5
2379
 10
194.214
 20
86.3969
 30
0.000000
  70
    32
  0
VERTEX
  8
0
  5
237A
 10
194.178
 20
86.4518
 30
0.000000
  70
    32
  0
VERTEX
  8
0
  5
237B
 10
194.141
 20
86.5042
 30
0.000000
  70
    32
  0
VERTEX
  8
0
  5
237C
 10
194.104
 20
86.5540
 30
0.000000
  70
    32
  0
VERTEX
  8
0
  5
237D
 10
194.066
 20
86.6012
 30
0.000000
  70
    32
  0
VERTEX
  8
0
  5
237E
 10
194.028
 20
86.6457
 30
0.000000
  70
    32
  0
VERTEX
  8
0
  5
237F
 10
193.990
 20
86.6875
 30
0.000000
  70
    32
  0
VERTEX
  8
0
  5
2380
 10
193.951
 20
86.7266
 30
0.000000
  70
    32
  0
VERTEX
  8
0
  5
2381
 10
193.912
 20
86.7630
 30
0.000000
  70
    32
  0
VERTEX
  8
0
  5
2382
 10
193.873
 20
86.7966
 30
0.000000
  70
    32
  0
VERTEX
  8
0
  5
2383
 10
193.833
 20
86.8274
 30
0.000000
  70
    32
  0
VERTEX
  8
0
  5
2384
 10
193.794
 20
86.8555
 30
0.000000
  70
    32
  0
VERTEX
  8
0
  5
2385
 10
193.753
 20
86.8808
 30
0.000000
  70
    32
  0
VERTEX
  8
0
  5
2386
 10
193.713
 20
86.9032
 30
0.000000
  70
    32
  0
VERTEX
  8
0
  5
2387
 10
193.673
 20
86.9228
 30
0.000000
  70
    32
  0
VERTEX
  8
0
  5
2388
 10
193.632
 20
86.9395
 30
0.000000
  70
    32
  0
VERTEX
  8
0
  5
2389
 10
193.592
 20
86.9534
 30
0.000000
  70
    32
  0
VERTEX
  8
0
  5
238A
 10
193.551
 20
86.9645
 30
0.000000
  70
    32
  0
VERTEX
  8
0
  5
238B
 10
193.510
 20
86.9726
 30
0.000000
  70
    32
  0
VERTEX
  8
0
  5
238C
 10
193.469
 20
86.9779
 30
0.000000
  70
    32
  0
SEQEND
  8
0
  5
238D
  0
CIRCLE
  5
1AA8
  8
0
 10
166.00000000000011
 20
81.999999999999986
 30
0.0
 40
12.0
  0
LINE
  5
1AAC
  8
0
 10
176.90871211463579
 20
76.999999999999986
 30
0.0
 11
244.37739611140009
 21
76.999999999999986
 31
0.0
  0
LINE
  5
1AAD
  8
0
 10
244.37739611140009
 20
86.999999999999986
 30
0.0
 11
176.90871211463579
 21
86.999999999999986
 31
0.0
  0
POLYLINE
  5
1AB0
  8
0
 10
243.24098974595708
 20
87.978959339789284
 30
0.0
 66
     1
 70
     8
  0
VERTEX
  8
0
  5
238E
 10
243.241
 20
87.9790
 30
0.000000
  70
    32
  0
VERTEX
  8
0
  5
238F
 10
243.237
 20
87.9726
 30
0.000000
  70
    32
  0
VERTEX
  8
0
  5
2390
 10
243.233
 20
87.9663
 30
0.000000
  70
    32
  0
VERTEX
  8
0
  5
2391
 10
243.229
 20
87.9599
 30
0.000000
  70
    32
  0
VERTEX
  8
0
  5
2392
 10
243.225
 20
87.9535
 30
0.000000
  70
    32
  0
VERTEX
  8
0
  5
2393
 10
243.222
 20
87.9470
 30
0.000000
  70
    32
  0
VERTEX
  8
0
  5
2394
 10
243.218
 20
87.9406
 30
0.000000
  70
    32
  0
VERTEX
  8
0
  5
2395
 10
243.214
 20
87.9341
 30
0.000000
  70
    32
  0
VERTEX
  8
0
  5
2396
 10
243.210
 20
87.9276
 30
0.000000
  70
    32
  0
VERTEX
  8
0
  5
2397
 10
243.206
 20
87.9211
 30
0.000000
  70
    32
  0
VERTEX
  8
0
  5
2398
 10
243.202
 20
87.9146
 30
0.000000
  70
    32
  0
VERTEX
  8
0
  5
2399
 10
243.198
 20
87.9080
 30
0.000000
  70
    32
  0
VERTEX
  8
0
  5
239A
 10
243.195
 20
87.9015
 30
0.000000
  70
    32
  0
VERTEX
  8
0
  5
239B
 10
243.191
 20
87.8949
 30
0.000000
  70
    32
  0
VERTEX
  8
0
  5
239C
 10
243.187
 20
87.8882
 30
0.000000
  70
    32
  0
VERTEX
  8
0
  5
239D
 10
243.183
 20
87.8816
 30
0.000000
  70
    32
  0
VERTEX
  8
0
  5
239E
 10
243.179
 20
87.8749
 30
0.000000
  70
    32
  0
VERTEX
  8
0
  5
239F
 10
243.175
 20
87.8682
 30
0.000000
  70
    32
  0
VERTEX
  8
0
  5
23A0
 10
243.172
 20
87.8615
 30
0.000000
  70
    32
  0
VERTEX
  8
0
  5
23A1
 10
243.168
 20
87.8548
 30
0.000000
  70
    32
  0
VERTEX
  8
0
  5
23A2
 10
243.164
 20
87.8481
 30
0.000000
  70
    32
  0
VERTEX
  8
0
  5
23A3
 10
243.160
 20
87.8413
 30
0.000000
  70
    32
  0
VERTEX
  8
0
  5
23A4
 10
243.156
 20
87.8345
 30
0.000000
  70
    32
  0
VERTEX
  8
0
  5
23A5
 10
243.153
 20
87.8277
 30
0.000000
  70
    32
  0
VERTEX
  8
0
  5
23A6
 10
243.149
 20
87.8209
 30
0.000000
  70
    32
  0
VERTEX
  8
0
  5
23A7
 10
243.145
 20
87.8140
 30
0.000000
  70
    32
  0
VERTEX
  8
0
  5
23A8
 10
243.141
 20
87.8071
 30
0.000000
  70
    32
  0
VERTEX
  8
0
  5
23A9
 10
243.137
 20
87.8002
 30
0.000000
  70
    32
  0
VERTEX
  8
0
  5
23AA
 10
243.134
 20
87.7933
 30
0.000000
  70
    32
  0
VERTEX
  8
0
  5
23AB
 10
243.130
 20
87.7864
 30
0.000000
  70
    32
  0
VERTEX
  8
0
  5
23AC
 10
243.126
 20
87.7794
 30
0.000000
  70
    32
  0
VERTEX
  8
0
  5
23AD
 10
243.122
 20
87.7725
 30
0.000000
  70
    32
  0
VERTEX
  8
0
  5
23AE
 10
243.119
 20
87.7655
 30
0.000000
  70
    32
  0
VERTEX
  8
0
  5
23AF
 10
243.115
 20
87.7584
 30
0.000000
  70
    32
  0
VERTEX
  8
0
  5
23B0
 10
243.111
 20
87.7514
 30
0.000000
  70
    32
  0
VERTEX
  8
0
  5
23B1
 10
243.107
 20
87.7443
 30
0.000000
  70
    32
  0
VERTEX
  8
0
  5
23B2
 10
243.104
 20
87.7372
 30
0.000000
  70
    32
  0
VERTEX
  8
0
  5
23B3
 10
243.100
 20
87.7301
 30
0.000000
  70
    32
  0
VERTEX
  8
0
  5
23B4
 10
243.096
 20
87.7230
 30
0.000000
  70
    32
  0
VERTEX
  8
0
  5
23B5
 10
243.092
 20
87.7159
 30
0.000000
  70
    32
  0
VERTEX
  8
0
  5
23B6
 10
243.089
 20
87.7087
 30
0.000000
  70
    32
  0
VERTEX
  8
0
  5
23B7
 10
243.085
 20
87.7015
 30
0.000000
  70
    32
  0
VERTEX
  8
0
  5
23B8
 10
243.081
 20
87.6943
 30
0.000000
  70
    32
  0
VERTEX
  8
0
  5
23B9
 10
243.077
 20
87.6871
 30
0.000000
  70
    32
  0
VERTEX
  8
0
  5
23BA
 10
243.074
 20
87.6798
 30
0.000000
  70
    32
  0
VERTEX
  8
0
  5
23BB
 10
243.070
 20
87.6725
 30
0.000000
  70
    32
  0
VERTEX
  8
0
  5
23BC
 10
243.066
 20
87.6653
 30
0.000000
  70
    32
  0
VERTEX
  8
0
  5
23BD
 10
243.063
 20
87.6579
 30
0.000000
  70
    32
  0
VERTEX
  8
0
  5
23BE
 10
243.059
 20
87.6506
 30
0.000000
  70
    32
  0
VERTEX
  8
0
  5
23BF
 10
243.055
 20
87.6433
 30
0.000000
  70
    32
  0
VERTEX
  8
0
  5
23C0
 10
243.052
 20
87.6359
 30
0.000000
  70
    32
  0
VERTEX
  8
0
  5
23C1
 10
243.048
 20
87.6285
 30
0.000000
  70
    32
  0
VERTEX
  8
0
  5
23C2
 10
243.044
 20
87.6211
 30
0.000000
  70
    32
  0
VERTEX
  8
0
  5
23C3
 10
243.041
 20
87.6136
 30
0.000000
  70
    32
  0
VERTEX
  8
0
  5
23C4
 10
243.037
 20
87.6062
 30
0.000000
  70
    32
  0
VERTEX
  8
0
  5
23C5
 10
243.033
 20
87.5987
 30
0.000000
  70
    32
  0
VERTEX
  8
0
  5
23C6
 10
243.030
 20
87.5912
 30
0.000000
  70
    32
  0
VERTEX
  8
0
  5
23C7
 10
243.026
 20
87.5837
 30
0.000000
  70
    32
  0
VERTEX
  8
0
  5
23C8
 10
243.022
 20
87.5762
 30
0.000000
  70
    32
  0
VERTEX
  8
0
  5
23C9
 10
243.019
 20
87.5686
 30
0.000000
  70
    32
  0
VERTEX
  8
0
  5
23CA
 10
243.015
 20
87.5610
 30
0.000000
  70
    32
  0
VERTEX
  8
0
  5
23CB
 10
243.012
 20
87.5534
 30
0.000000
  70
    32
  0
VERTEX
  8
0
  5
23CC
 10
243.008
 20
87.5458
 30
0.000000
  70
    32
  0
VERTEX
  8
0
  5
23CD
 10
243.004
 20
87.5382
 30
0.000000
  70
    32
  0
VERTEX
  8
0
  5
23CE
 10
243.001
 20
87.5305
 30
0.000000
  70
    32
  0
VERTEX
  8
0
  5
23CF
 10
242.997
 20
87.5228
 30
0.000000
  70
    32
  0
VERTEX
  8
0
  5
23D0
 10
242.994
 20
87.5152
 30
0.000000
  70
    32
  0
VERTEX
  8
0
  5
23D1
 10
242.990
 20
87.5074
 30
0.000000
  70
    32
  0
VERTEX
  8
0
  5
23D2
 10
242.986
 20
87.4997
 30
0.000000
  70
    32
  0
VERTEX
  8
0
  5
23D3
 10
242.983
 20
87.4919
 30
0.000000
  70
    32
  0
VERTEX
  8
0
  5
23D4
 10
242.979
 20
87.4842
 30
0.000000
  70
    32
  0
VERTEX
  8
0
  5
23D5
 10
242.976
 20
87.4764
 30
0.000000
  70
    32
  0
VERTEX
  8
0
  5
23D6
 10
242.972
 20
87.4685
 30
0.000000
  70
    32
  0
VERTEX
  8
0
  5
23D7
 10
242.969
 20
87.4607
 30
0.000000
  70
    32
  0
VERTEX
  8
0
  5
23D8
 10
242.965
 20
87.4529
 30
0.000000
  70
    32
  0
VERTEX
  8
0
  5
23D9
 10
242.961
 20
87.4450
 30
0.000000
  70
    32
  0
VERTEX
  8
0
  5
23DA
 10
242.958
 20
87.4371
 30
0.000000
  70
    32
  0
VERTEX
  8
0
  5
23DB
 10
242.954
 20
87.4292
 30
0.000000
  70
    32
  0
VERTEX
  8
0
  5
23DC
 10
242.951
 20
87.4212
 30
0.000000
  70
    32
  0
VERTEX
  8
0
  5
23DD
 10
242.947
 20
87.4133
 30
0.000000
  70
    32
  0
VERTEX
  8
0
  5
23DE
 10
242.944
 20
87.4053
 30
0.000000
  70
    32
  0
VERTEX
  8
0
  5
23DF
 10
242.940
 20
87.3973
 30
0.000000
  70
    32
  0
VERTEX
  8
0
  5
23E0
 10
242.937
 20
87.3893
 30
0.000000
  70
    32
  0
VERTEX
  8
0
  5
23E1
 10
242.933
 20
87.3813
 30
0.000000
  70
    32
  0
VERTEX
  8
0
  5
23E2
 10
242.930
 20
87.3732
 30
0.000000
  70
    32
  0
VERTEX
  8
0
  5
23E3
 10
242.926
 20
87.3651
 30
0.000000
  70
    32
  0
VERTEX
  8
0
  5
23E4
 10
242.923
 20
87.3570
 30
0.000000
  70
    32
  0
VERTEX
  8
0
  5
23E5
 10
242.919
 20
87.3489
 30
0.000000
  70
    32
  0
VERTEX
  8
0
  5
23E6
 10
242.916
 20
87.3408
 30
0.000000
  70
    32
  0
VERTEX
  8
0
  5
23E7
 10
242.912
 20
87.3327
 30
0.000000
  70
    32
  0
VERTEX
  8
0
  5
23E8
 10
242.909
 20
87.3245
 30
0.000000
  70
    32
  0
VERTEX
  8
0
  5
23E9
 10
242.905
 20
87.3163
 30
0.000000
  70
    32
  0
VERTEX
  8
0
  5
23EA
 10
242.902
 20
87.3081
 30
0.000000
  70
    32
  0
VERTEX
  8
0
  5
23EB
 10
242.898
 20
87.2999
 30
0.000000
  70
    32
  0
VERTEX
  8
0
  5
23EC
 10
242.895
 20
87.2916
 30
0.000000
  70
    32
  0
VERTEX
  8
0
  5
23ED
 10
242.892
 20
87.2833
 30
0.000000
  70
    32
  0
VERTEX
  8
0
  5
23EE
 10
242.888
 20
87.2751
 30
0.000000
  70
    32
  0
VERTEX
  8
0
  5
23EF
 10
242.885
 20
87.2668
 30
0.000000
  70
    32
  0
VERTEX
  8
0
  5
23F0
 10
242.881
 20
87.2584
 30
0.000000
  70
    32
  0
VERTEX
  8
0
  5
23F1
 10
242.878
 20
87.2501
 30
0.000000
  70
    32
  0
VERTEX
  8
0
  5
23F2
 10
242.874
 20
87.2417
 30
0.000000
  70
    32
  0
VERTEX
  8
0
  5
23F3
 10
242.871
 20
87.2333
 30
0.000000
  70
    32
  0
VERTEX
  8
0
  5
23F4
 10
242.868
 20
87.2249
 30
0.000000
  70
    32
  0
VERTEX
  8
0
  5
23F5
 10
242.864
 20
87.2165
 30
0.000000
  70
    32
  0
VERTEX
  8
0
  5
23F6
 10
242.861
 20
87.2081
 30
0.000000
  70
    32
  0
VERTEX
  8
0
  5
23F7
 10
242.857
 20
87.1996
 30
0.000000
  70
    32
  0
VERTEX
  8
0
  5
23F8
 10
242.854
 20
87.1912
 30
0.000000
  70
    32
  0
VERTEX
  8
0
  5
23F9
 10
242.851
 20
87.1827
 30
0.000000
  70
    32
  0
VERTEX
  8
0
  5
23FA
 10
242.847
 20
87.1742
 30
0.000000
  70
    32
  0
VERTEX
  8
0
  5
23FB
 10
242.844
 20
87.1656
 30
0.000000
  70
    32
  0
VERTEX
  8
0
  5
23FC
 10
242.840
 20
87.1571
 30
0.000000
  70
    32
  0
VERTEX
  8
0
  5
23FD
 10
242.837
 20
87.1485
 30
0.000000
  70
    32
  0
VERTEX
  8
0
  5
23FE
 10
242.834
 20
87.1399
 30
0.000000
  70
    32
  0
VERTEX
  8
0
  5
23FF
 10
242.830
 20
87.1313
 30
0.000000
  70
    32
  0
VERTEX
  8
0
  5
2400
 10
242.827
 20
87.1227
 30
0.000000
  70
    32
  0
VERTEX
  8
0
  5
2401
 10
242.824
 20
87.1140
 30
0.000000
  70
    32
  0
VERTEX
  8
0
  5
2402
 10
242.820
 20
87.1054
 30
0.000000
  70
    32
  0
VERTEX
  8
0
  5
2403
 10
242.817
 20
87.0967
 30
0.000000
  70
    32
  0
VERTEX
  8
0
  5
2404
 10
242.814
 20
87.0880
 30
0.000000
  70
    32
  0
VERTEX
  8
0
  5
2405
 10
242.810
 20
87.0793
 30
0.000000
  70
    32
  0
VERTEX
  8
0
  5
2406
 10
242.807
 20
87.0705
 30
0.000000
  70
    32
  0
VERTEX
  8
0
  5
2407
 10
242.804
 20
87.0618
 30
0.000000
  70
    32
  0
VERTEX
  8
0
  5
2408
 10
242.801
 20
87.0530
 30
0.000000
  70
    32
  0
VERTEX
  8
0
  5
2409
 10
242.797
 20
87.0442
 30
0.000000
  70
    32
  0
VERTEX
  8
0
  5
240A
 10
242.794
 20
87.0354
 30
0.000000
  70
    32
  0
VERTEX
  8
0
  5
240B
 10
242.791
 20
87.0266
 30
0.000000
  70
    32
  0
VERTEX
  8
0
  5
240C
 10
242.787
 20
87.0177
 30
0.000000
  70
    32
  0
VERTEX
  8
0
  5
240D
 10
242.784
 20
87.0089
 30
0.000000
  70
    32
  0
VERTEX
  8
0
  5
240E
 10
242.781
 20
87.0000
 30
0.000000
  70
    32
  0
SEQEND
  8
0
  5
240F
  0
POLYLINE
  5
1AB1
  8
0
 66
     1
 10
0.0
 20
0.0
 30
0.0
  0
VERTEX
  5
1F26
  8
0
 10
243.2401660934575
 20
76.022377237773796
 30
0.0
  0
VERTEX
  5
1F27
  8
0
 10
243.43634615747749
 20
75.714269727724158
 30
0.0
  0
VERTEX
  5
1F28
  8
0
 10
243.68043994107211
 20
75.357283022437215
 30
0.0
  0
VERTEX
  5
1F29
  8
0
 10
243.9375347545361
 20
75.008497168170877
 30
0.0
  0
VERTEX
  5
1F2A
  8
0
 10
244.20728499435751
 20
74.668461109258018
 30
0.0
  0
VERTEX
  5
1F2B
  8
0
 10
244.48932951047391
 20
74.337698348121563
 30
0.0
  0
VERTEX
  5
1F2C
  8
0
 10
244.78329263399459
 20
74.016707714682113
 30
0.0
  0
VERTEX
  5
1F2D
  8
0
 10
245.08878498053181
 20
73.705964291862855
 30
0.0
  0
VERTEX
  5
1F2E
  8
0
 10
245.405404100021
 20
73.405920335757614
 30
0.0
  0
VERTEX
  5
1F2F
  8
0
 10
245.73273502818449
 20
73.117006106199113
 30
0.0
  0
VERTEX
  5
1F30
  8
0
 10
246.07035078009349
 20
72.83963057134558
 30
0.0
  0
VERTEX
  5
1F31
  8
0
 10
246.4570384870336
 20
72.545417888585334
 30
0.0
  0
VERTEX
  5
1F32
  8
0
 10
246.8548076718219
 20
72.266742802084181
 30
0.0
  0
VERTEX
  5
1F33
  8
0
 10
247.2618831783345
 20
72.0047053020986
 30
0.0
  0
VERTEX
  5
1F34
  8
0
 10
247.67754816937691
 20
71.759537043126201
 30
0.0
  0
VERTEX
  5
1F35
  8
0
 10
248.10111555508161
 20
71.531425619971841
 30
0.0
  0
VERTEX
  5
1F36
  8
0
 10
248.53189979906679
 20
71.3205355154589
 30
0.0
  0
VERTEX
  5
1F37
  8
0
 10
248.9692161782003
 20
71.127008713305344
 30
0.0
  0
VERTEX
  5
1F38
  8
0
 10
249.41238087989711
 20
70.950964735735781
 30
0.0
  0
VERTEX
  5
1F39
  8
0
 10
249.8607112410933
 20
70.792500606479834
 30
0.0
  0
VERTEX
  5
1F3A
  8
0
 10
250.31352609115311
 20
70.65169078049307
 30
0.0
  0
VERTEX
  5
1F3B
  8
0
 10
250.7701461798101
 20
70.528587062786045
 30
0.0
  0
VERTEX
  5
1F3C
  8
0
 10
251.2298946746636
 20
70.423218531795882
 30
0.0
  0
VERTEX
  5
1F3D
  8
0
 10
251.692097715329
 20
70.335591477898205
 30
0.0
  0
VERTEX
  5
1F3E
  8
0
 10
252.15608501344769
 20
70.265689364207773
 30
0.0
  0
VERTEX
  5
1F3F
  8
0
 10
252.6211904894941
 20
70.213472814338814
 30
0.0
  0
VERTEX
  5
1F40
  8
0
 10
253.0867529387331
 20
70.178879630029513
 30
0.0
  0
VERTEX
  5
1F41
  8
0
 10
253.5521167198344
 20
70.161824840249423
 30
0.0
  0
VERTEX
  5
1F42
  8
0
 10
254.01663246060789
 20
70.162200782489876
 30
0.0
  0
VERTEX
  5
1F43
  8
0
 10
254.479657738111
 20
70.1798772140978
 30
0.0
  0
VERTEX
  5
1F44
  8
0
 10
254.94055617813129
 20
70.21470129697677
 30
0.0
  0
VERTEX
  5
1F45
  8
0
 10
255.39870158514719
 20
70.266497908932223
 30
0.0
  0
VERTEX
  5
1F46
  8
0
 10
255.85347693134341
 20
70.335069877111536
 30
0.0
  0
VERTEX
  5
1F47
  8
0
 10
256.30427508782537
 20
70.420198208540384
 30
0.0
  0
VERTEX
  5
1F48
  8
0
 10
256.75049955253053
 20
70.521642347367887
 30
0.0
  0
VERTEX
  5
1F49
  8
0
 10
257.19156517217152
 20
70.639140456922561
 30
0.0
  0
VERTEX
  5
1F4A
  8
0
 10
257.6268988563092
 20
70.772409724527151
 30
0.0
  0
VERTEX
  5
1F4B
  8
0
 10
258.05594028185971
 20
70.921146686848587
 30
0.0
  0
VERTEX
  5
1F4C
  8
0
 10
258.47814258652789
 20
71.085027573386341
 30
0.0
  0
VERTEX
  5
1F4D
  8
0
 10
258.89297304984359
 20
71.263708665523652
 30
0.0
  0
VERTEX
  5
1F4E
  8
0
 10
259.29991376065419
 20
71.456826668388075
 30
0.0
  0
VERTEX
  5
1F4F
  8
0
 10
259.69846227010959
 20
71.663999092596015
 30
0.0
  0
VERTEX
  5
1F50
  8
0
 10
260.08813222939989
 20
71.884824642825251
 30
0.0
  0
VERTEX
  5
1F51
  8
0
 10
260.4684540117446
 20
72.118883610087025
 30
0.0
  0
VERTEX
  5
1F52
  8
0
 10
260.83897531847771
 20
72.365738264649607
 30
0.0
  0
VERTEX
  5
1F53
  8
0
 10
261.19926176949161
 20
72.62493324687749
 30
0.0
  0
VERTEX
  5
1F54
  8
0
 10
261.54889747892139
 20
72.895995954006636
 30
0.0
  0
VERTEX
  5
1F55
  8
0
 10
261.88748561777868
 20
73.178436922331883
 30
0.0
  0
VERTEX
  5
1F56
  8
0
 10
262.21464896643158
 20
73.471750206935539
 30
0.0
  0
VERTEX
  5
1F57
  8
0
 10
262.53003046147921
 20
73.775413765639982
 30
0.0
  0
VERTEX
  5
1F58
  8
0
 10
262.83329374385079
 20
74.088889861491893
 30
0.0
  0
VERTEX
  5
1F59
  8
0
 10
263.12412371804197
 20
74.411625510541271
 30
0.0
  0
VERTEX
  5
1F5A
  8
0
 10
263.4022271364081
 20
74.743053021675266
 30
0.0
  0
VERTEX
  5
1F5B
  8
0
 10
263.66733322734308
 20
75.082590706817129
 30
0.0
  0
VERTEX
  5
1F5C
  8
0
 10
263.91919439151388
 20
75.429643888631034
 30
0.0
  0
VERTEX
  5
1F5D
  8
0
 10
264.15758699474588
 20
75.783606406783392
 30
0.0
  0
VERTEX
  5
1F5E
  8
0
 10
264.38231228639199
 20
76.143862932210794
 30
0.0
  0
VERTEX
  5
1F5F
  8
0
 10
264.59319746135441
 20
76.509792550785832
 30
0.0
  0
VERTEX
  5
1F60
  8
0
 10
264.79009684941349
 20
76.880774275387452
 30
0.0
  0
VERTEX
  5
1F61
  8
0
 10
264.9728931342753
 20
77.256195368240625
 30
0.0
  0
VERTEX
  5
1F62
  8
0
 10
265.14149833966718
 20
77.635463525882116
 30
0.0
  0
VERTEX
  5
1F63
  8
0
 10
265.2958540183584
 20
78.018023893700601
 30
0.0
  0
VERTEX
  5
1F64
  8
0
 10
265.43592958651141
 20
78.403381084050736
 30
0.0
  0
VERTEX
  5
1F65
  8
0
 10
265.5617170552801
 20
78.79112399719223
 30
0.0
  0
VERTEX
  5
1F66
  8
0
 10
265.67321972923071
 20
79.180945895076874
 30
0.0
  0
VERTEX
  5
1F67
  8
0
 10
265.77043256912327
 20
79.572642586242281
 30
0.0
  0
VERTEX
  5
1F68
  8
0
 10
265.85331494269349
 20
79.966060263347103
 30
0.0
  0
VERTEX
  5
1F69
  8
0
 10
265.92176597403738
 20
80.360969453835125
 30
0.0
  0
VERTEX
  5
1F6A
  8
0
 10
265.97562883990253
 20
80.756914144788695
 30
0.0
  0
VERTEX
  5
1F6B
  8
0
 10
266.01475149335772
 20
81.153274991065516
 30
0.0
  0
VERTEX
  5
1F6C
  8
0
 10
266.0390642674563
 20
81.549914068037793
 30
0.0
  0
VERTEX
  5
1F6D
  8
0
 10
266.0485183129253
 20
81.948320969258518
 30
0.0
  0
VERTEX
  5
1F6E
  8
0
 10
266.04277376582968
 20
82.352323727674204
 30
0.0
  0
VERTEX
  5
1F6F
  8
0
 10
266.02085404084011
 20
82.766683279326884
 30
0.0
  0
VERTEX
  5
1F70
  8
0
 10
265.98110248241409
 20
83.195548244978539
 30
0.0
  0
VERTEX
  5
1F71
  8
0
 10
265.92851568504051
 20
83.59480189713274
 30
0.0
  0
VERTEX
  5
1F72
  8
0
 10
265.86014076227991
 20
83.998071186208662
 30
0.0
  0
VERTEX
  5
1F73
  8
0
 10
265.7760243825665
 20
84.402856679535816
 30
0.0
  0
VERTEX
  5
1F74
  8
0
 10
265.67636543199671
 20
84.807249520868567
 30
0.0
  0
VERTEX
  5
1F75
  8
0
 10
265.5613697660196
 20
85.210013938210778
 30
0.0
  0
VERTEX
  5
1F76
  8
0
 10
265.43121290460721
 20
85.610309098439004
 30
0.0
  0
VERTEX
  5
1F77
  8
0
 10
265.28605495782921
 20
86.00744982406853
 30
0.0
  0
VERTEX
  5
1F78
  8
0
 10
265.12606234578772
 20
86.400787764445667
 30
0.0
  0
VERTEX
  5
1F79
  8
0
 10
264.9514218837416
 20
86.789672090777657
 30
0.0
  0
VERTEX
  5
1F7A
  8
0
 10
264.76234681554899
 20
87.173446207187723
 30
0.0
  0
VERTEX
  5
1F7B
  8
0
 10
264.55907770634161
 20
87.551456078161536
 30
0.0
  0
VERTEX
  5
1F7C
  8
0
 10
264.3418808217711
 20
87.923059630865723
 30
0.0
  0
VERTEX
  5
1F7D
  8
0
 10
264.11104564900859
 20
88.287633791982984
 30
0.0
  0
VERTEX
  5
1F7E
  8
0
 10
263.86688241102382
 20
88.644578725389223
 30
0.0
  0
VERTEX
  5
1F7F
  8
0
 10
263.60971992316649
 20
88.993319844640368
 30
0.0
  0
VERTEX
  5
1F80
  8
0
 10
263.33990387414673
 20
89.33330834102388
 30
0.0
  0
VERTEX
  5
1F81
  8
0
 10
263.05779549307238
 20
89.664020844510148
 30
0.0
  0
VERTEX
  5
1F82
  8
0
 10
262.76377052312409
 20
89.984958652913718
 30
0.0
  0
VERTEX
  5
1F83
  8
0
 10
262.45821841920372
 20
90.295646806077954
 30
0.0
  0
VERTEX
  5
1F84
  8
0
 10
262.14154169876531
 20
90.595633166010074
 30
0.0
  0
VERTEX
  5
1F85
  8
0
 10
261.8141553907501
 20
90.884487586914958
 30
0.0
  0
VERTEX
  5
1F86
  8
0
 10
261.47648654224531
 20
91.161801211313204
 30
0.0
  0
VERTEX
  5
1F87
  8
0
 10
261.08974967886201
 20
91.455937587090588
 30
0.0
  0
VERTEX
  5
1F88
  8
0
 10
260.69193502722879
 20
91.734534522431247
 30
0.0
  0
VERTEX
  5
1F89
  8
0
 10
260.28481732768699
 20
91.996492798686205
 30
0.0
  0
VERTEX
  5
1F8A
  8
0
 10
259.86911338936142
 20
92.241580895609417
 30
0.0
  0
VERTEX
  5
1F8B
  8
0
 10
259.44551029696368
 20
92.469611326622555
 30
0.0
  0
VERTEX
  5
1F8C
  8
0
 10
259.0146935831246
 20
92.680419715385185
 30
0.0
  0
VERTEX
  5
1F8D
  8
0
 10
258.57734796705131
 20
92.873864184295456
 30
0.0
  0
VERTEX
  5
1F8E
  8
0
 10
258.13415725655068
 20
93.049825317296992
 30
0.0
  0
VERTEX
  5
1F8F
  8
0
 10
257.68580410851553
 20
93.208206197103877
 30
0.0
  0
VERTEX
  5
1F90
  8
0
 10
257.23296968557509
 20
93.348932475576461
 30
0.0
  0
VERTEX
  5
1F91
  8
0
 10
256.77633322779218
 20
93.471952454902734
 30
0.0
  0
VERTEX
  5
1F92
  8
0
 10
256.3165715548688
 20
93.577237164177049
 30
0.0
  0
VERTEX
  5
1F93
  8
0
 10
255.8543585117568
 20
93.664780420797271
 30
0.0
  0
VERTEX
  5
1F94
  8
0
 10
255.3903643684537
 20
93.734598869546502
 30
0.0
  0
VERTEX
  5
1F95
  8
0
 10
254.92525518304001
 20
93.786731994696567
 30
0.0
  0
VERTEX
  5
1F96
  8
0
 10
254.4596921356017
 20
93.821242102238827
 30
0.0
  0
VERTEX
  5
1F97
  8
0
 10
253.99433083952101
 20
93.838214270624675
 30
0.0
  0
VERTEX
  5
1F98
  8
0
 10
253.5298206356741
 20
93.837756269323094
 30
0.0
  0
VERTEX
  5
1F99
  8
0
 10
253.0668039205633
 20
93.819998447815166
 30
0.0
  0
VERTEX
  5
1F9A
  8
0
 10
252.6059170217695
 20
93.785093750219218
 30
0.0
  0
VERTEX
  5
1F9B
  8
0
 10
252.1477860932151
 20
93.733217403404623
 30
0.0
  0
VERTEX
  5
1F9C
  8
0
 10
251.69302811766741
 20
93.66456668387552
 30
0.0
  0
VERTEX
  5
1F9D
  8
0
 10
251.24225017552209
 20
93.579360687103559
 30
0.0
  0
VERTEX
  5
1F9E
  8
0
 10
250.79604871691751
 20
93.477840070161363
 30
0.0
  0
VERTEX
  5
1F9F
  8
0
 10
250.3550088398228
 20
93.360266769553817
 30
0.0
  0
VERTEX
  5
1FA0
  8
0
 10
249.91970357600661
 20
93.226923696300886
 30
0.0
  0
VERTEX
  5
1FA1
  8
0
 10
249.49069318657931
 20
93.078114410496426
 30
0.0
  0
VERTEX
  5
1FA2
  8
0
 10
249.0685244686149
 20
92.914162777739691
 30
0.0
  0
VERTEX
  5
1FA3
  8
0
 10
248.65373007417611
 20
92.735412610017349
 30
0.0
  0
VERTEX
  5
1FA4
  8
0
 10
248.24682784288879
 20
92.542227293789296
 30
0.0
  0
VERTEX
  5
1FA5
  8
0
 10
247.84832014902591
 20
92.334989408203839
 30
0.0
  0
VERTEX
  5
1FA6
  8
0
 10
247.45869326384559
 20
92.114100336501494
 30
0.0
  0
VERTEX
  5
1FA7
  8
0
 10
247.07841673367511
 20
91.879979873731813
 30
0.0
  0
VERTEX
  5
1FA8
  8
0
 10
246.70794277390209
 20
91.633065833834493
 30
0.0
  0
VERTEX
  5
1FA9
  8
0
 10
246.34770567860099
 20
91.373813658813944
 30
0.0
  0
VERTEX
  5
1FAA
  8
0
 10
245.99812124491751
 20
91.102696031988216
 30
0.0
  0
VERTEX
  5
1FAB
  8
0
 10
245.65958621048941
 20
90.820202495819316
 30
0.0
  0
VERTEX
  5
1FAC
  8
0
 10
245.3324777010053
 20
90.526839072185325
 30
0.0
  0
VERTEX
  5
1FAD
  8
0
 10
245.0171526833434
 20
90.223127878382385
 30
0.0
  0
VERTEX
  5
1FAE
  8
0
 10
244.71394741744359
 20
89.909606724499085
 30
0.0
  0
VERTEX
  5
1FAF
  8
0
 10
244.4231768969924
 20
89.586828665335744
 30
0.0
  0
VERTEX
  5
1FB0
  8
0
 10
244.14513426496751
 20
89.255361459977095
 30
0.0
  0
VERTEX
  5
1FB1
  8
0
 10
243.88009018520111
 20
88.915786860535817
 30
0.0
  0
VERTEX
  5
1FB2
  8
0
 10
243.62829214575589
 20
88.568699602634055
 30
0.0
  0
VERTEX
  5
1FB3
  8
0
 10
243.3899636655147
 20
88.214705896153973
 30
0.0
  0
VERTEX
  5
1FB4
  8
0
 10
243.23658396931739
 20
87.971802114278404
 30
0.0
  0
SEQEND
  5
1FB5
  8
0
  0
POLYLINE
  5
1AB2
  8
0
 10
243.24188194529123
 20
76.019591743414935
 30
0.0
 66
     1
 70
     8
  0
VERTEX
  8
0
  5
2410
 10
243.242
 20
76.0196
 30
0.000000
  70
    32
  0
VERTEX
  8
0
  5
2411
 10
243.309
 20
75.9150
 30
0.000000
  70
    32
  0
VERTEX
  8
0
  5
2412
 10
243.377
 20
75.8168
 30
0.000000
  70
    32
  0
VERTEX
  8
0
  5
2413
 10
243.446
 20
75.7251
 30
0.000000
  70
    32
  0
VERTEX
  8
0
  5
2414
 10
243.516
 20
75.6400
 30
0.000000
  70
    32
  0
VERTEX
  8
0
  5
2415
 10
243.587
 20
75.5616
 30
0.000000
  70
    32
  0
VERTEX
  8
0
  5
2416
 10
243.659
 20
75.4901
 30
0.000000
  70
    32
  0
VERTEX
  8
0
  5
2417
 10
243.732
 20
75.4253
 30
0.000000
  70
    32
  0
VERTEX
  8
0
  5
2418
 10
243.805
 20
75.3675
 30
0.000000
  70
    32
  0
VERTEX
  8
0
  5
2419
 10
243.879
 20
75.3167
 30
0.000000
  70
    32
  0
VERTEX
  8
0
  5
241A
 10
243.954
 20
75.2730
 30
0.000000
  70
    32
  0
VERTEX
  8
0
  5
241B
 10
244.029
 20
75.2363
 30
0.000000
  70
    32
  0
VERTEX
  8
0
  5
241C
 10
244.104
 20
75.2068
 30
0.000000
  70
    32
  0
VERTEX
  8
0
  5
241D
 10
244.179
 20
75.1844
 30
0.000000
  70
    32
  0
VERTEX
  8
0
  5
241E
 10
244.255
 20
75.1692
 30
0.000000
  70
    32
  0
VERTEX
  8
0
  5
241F
 10
244.331
 20
75.1612
 30
0.000000
  70
    32
  0
VERTEX
  8
0
  5
2420
 10
244.407
 20
75.1604
 30
0.000000
  70
    32
  0
VERTEX
  8
0
  5
2421
 10
244.483
 20
75.1668
 30
0.000000
  70
    32
  0
VERTEX
  8
0
  5
2422
 10
244.559
 20
75.1804
 30
0.000000
  70
    32
  0
VERTEX
  8
0
  5
2423
 10
244.634
 20
75.2012
 30
0.000000
  70
    32
  0
VERTEX
  8
0
  5
2424
 10
244.710
 20
75.2292
 30
0.000000
  70
    32
  0
VERTEX
  8
0
  5
2425
 10
244.785
 20
75.2643
 30
0.000000
  70
    32
  0
VERTEX
  8
0
  5
2426
 10
244.859
 20
75.3065
 30
0.000000
  70
    32
  0
VERTEX
  8
0
  5
2427
 10
244.933
 20
75.3558
 30
0.000000
  70
    32
  0
VERTEX
  8
0
  5
2428
 10
245.007
 20
75.4120
 30
0.000000
  70
    32
  0
VERTEX
  8
0
  5
2429
 10
245.080
 20
75.4752
 30
0.000000
  70
    32
  0
VERTEX
  8
0
  5
242A
 10
245.152
 20
75.5453
 30
0.000000
  70
    32
  0
VERTEX
  8
0
  5
242B
 10
245.223
 20
75.6222
 30
0.000000
  70
    32
  0
VERTEX
  8
0
  5
242C
 10
245.293
 20
75.7058
 30
0.000000
  70
    32
  0
VERTEX
  8
0
  5
242D
 10
245.363
 20
75.7960
 30
0.000000
  70
    32
  0
VERTEX
  8
0
  5
242E
 10
245.431
 20
75.8928
 30
0.000000
  70
    32
  0
VERTEX
  8
0
  5
242F
 10
245.498
 20
75.9960
 30
0.000000
  70
    32
  0
VERTEX
  8
0
  5
2430
 10
245.564
 20
76.1056
 30
0.000000
  70
    32
  0
VERTEX
  8
0
  5
2431
 10
245.629
 20
76.2213
 30
0.000000
  70
    32
  0
VERTEX
  8
0
  5
2432
 10
245.693
 20
76.3432
 30
0.000000
  70
    32
  0
VERTEX
  8
0
  5
2433
 10
245.755
 20
76.4710
 30
0.000000
  70
    32
  0
VERTEX
  8
0
  5
2434
 10
245.815
 20
76.6046
 30
0.000000
  70
    32
  0
VERTEX
  8
0
  5
2435
 10
245.875
 20
76.7439
 30
0.000000
  70
    32
  0
VERTEX
  8
0
  5
2436
 10
245.932
 20
76.8888
 30
0.000000
  70
    32
  0
VERTEX
  8
0
  5
2437
 10
245.988
 20
77.0390
 30
0.000000
  70
    32
  0
VERTEX
  8
0
  5
2438
 10
246.042
 20
77.1945
 30
0.000000
  70
    32
  0
VERTEX
  8
0
  5
2439
 10
246.095
 20
77.3551
 30
0.000000
  70
    32
  0
VERTEX
  8
0
  5
243A
 10
246.145
 20
77.5205
 30
0.000000
  70
    32
  0
VERTEX
  8
0
  5
243B
 10
246.194
 20
77.6907
 30
0.000000
  70
    32
  0
VERTEX
  8
0
  5
243C
 10
246.241
 20
77.8654
 30
0.000000
  70
    32
  0
VERTEX
  8
0
  5
243D
 10
246.286
 20
78.0444
 30
0.000000
  70
    32
  0
VERTEX
  8
0
  5
243E
 10
246.329
 20
78.2276
 30
0.000000
  70
    32
  0
VERTEX
  8
0
  5
243F
 10
246.370
 20
78.4148
 30
0.000000
  70
    32
  0
VERTEX
  8
0
  5
2440
 10
246.409
 20
78.6058
 30
0.000000
  70
    32
  0
VERTEX
  8
0
  5
2441
 10
246.445
 20
78.8004
 30
0.000000
  70
    32
  0
VERTEX
  8
0
  5
2442
 10
246.480
 20
78.9983
 30
0.000000
  70
    32
  0
VERTEX
  8
0
  5
2443
 10
246.512
 20
79.1994
 30
0.000000
  70
    32
  0
VERTEX
  8
0
  5
2444
 10
246.542
 20
79.4034
 30
0.000000
  70
    32
  0
VERTEX
  8
0
  5
2445
 10
246.569
 20
79.6102
 30
0.000000
  70
    32
  0
VERTEX
  8
0
  5
2446
 10
246.595
 20
79.8195
 30
0.000000
  70
    32
  0
VERTEX
  8
0
  5
2447
 10
246.618
 20
80.0311
 30
0.000000
  70
    32
  0
VERTEX
  8
0
  5
2448
 10
246.639
 20
80.2448
 30
0.000000
  70
    32
  0
VERTEX
  8
0
  5
2449
 10
246.657
 20
80.4603
 30
0.000000
  70
    32
  0
VERTEX
  8
0
  5
244A
 10
246.673
 20
80.6775
 30
0.000000
  70
    32
  0
VERTEX
  8
0
  5
244B
 10
246.686
 20
80.8960
 30
0.000000
  70
    32
  0
VERTEX
  8
0
  5
244C
 10
246.697
 20
81.1157
 30
0.000000
  70
    32
  0
VERTEX
  8
0
  5
244D
 10
246.706
 20
81.3363
 30
0.000000
  70
    32
  0
VERTEX
  8
0
  5
244E
 10
246.712
 20
81.5577
 30
0.000000
  70
    32
  0
VERTEX
  8
0
  5
244F
 10
246.716
 20
81.7795
 30
0.000000
  70
    32
  0
VERTEX
  8
0
  5
2450
 10
246.717
 20
82.0015
 30
0.000000
  70
    32
  0
VERTEX
  8
0
  5
2451
 10
246.716
 20
82.2235
 30
0.000000
  70
    32
  0
VERTEX
  8
0
  5
2452
 10
246.712
 20
82.4453
 30
0.000000
  70
    32
  0
VERTEX
  8
0
  5
2453
 10
246.706
 20
82.6666
 30
0.000000
  70
    32
  0
VERTEX
  8
0
  5
2454
 10
246.697
 20
82.8873
 30
0.000000
  70
    32
  0
VERTEX
  8
0
  5
2455
 10
246.686
 20
83.1070
 30
0.000000
  70
    32
  0
VERTEX
  8
0
  5
2456
 10
246.673
 20
83.3255
 30
0.000000
  70
    32
  0
VERTEX
  8
0
  5
2457
 10
246.657
 20
83.5426
 30
0.000000
  70
    32
  0
VERTEX
  8
0
  5
2458
 10
246.638
 20
83.7581
 30
0.000000
  70
    32
  0
VERTEX
  8
0
  5
2459
 10
246.618
 20
83.9717
 30
0.000000
  70
    32
  0
VERTEX
  8
0
  5
245A
 10
246.594
 20
84.1833
 30
0.000000
  70
    32
  0
VERTEX
  8
0
  5
245B
 10
246.569
 20
84.3926
 30
0.000000
  70
    32
  0
VERTEX
  8
0
  5
245C
 10
246.541
 20
84.5993
 30
0.000000
  70
    32
  0
VERTEX
  8
0
  5
245D
 10
246.511
 20
84.8033
 30
0.000000
  70
    32
  0
VERTEX
  8
0
  5
245E
 10
246.479
 20
85.0044
 30
0.000000
  70
    32
  0
VERTEX
  8
0
  5
245F
 10
246.445
 20
85.2023
 30
0.000000
  70
    32
  0
VERTEX
  8
0
  5
2460
 10
246.408
 20
85.3968
 30
0.000000
  70
    32
  0
VERTEX
  8
0
  5
2461
 10
246.369
 20
85.5877
 30
0.000000
  70
    32
  0
VERTEX
  8
0
  5
2462
 10
246.328
 20
85.7749
 30
0.000000
  70
    32
  0
VERTEX
  8
0
  5
2463
 10
246.285
 20
85.9580
 30
0.000000
  70
    32
  0
VERTEX
  8
0
  5
2464
 10
246.240
 20
86.1370
 30
0.000000
  70
    32
  0
VERTEX
  8
0
  5
2465
 10
246.194
 20
86.3117
 30
0.000000
  70
    32
  0
VERTEX
  8
0
  5
2466
 10
246.145
 20
86.4818
 30
0.000000
  70
    32
  0
VERTEX
  8
0
  5
2467
 10
246.094
 20
86.6471
 30
0.000000
  70
    32
  0
VERTEX
  8
0
  5
2468
 10
246.042
 20
86.8076
 30
0.000000
  70
    32
  0
VERTEX
  8
0
  5
2469
 10
245.987
 20
86.9630
 30
0.000000
  70
    32
  0
VERTEX
  8
0
  5
246A
 10
245.931
 20
87.1132
 30
0.000000
  70
    32
  0
VERTEX
  8
0
  5
246B
 10
245.874
 20
87.2580
 30
0.000000
  70
    32
  0
VERTEX
  8
0
  5
246C
 10
245.815
 20
87.3972
 30
0.000000
  70
    32
  0
VERTEX
  8
0
  5
246D
 10
245.754
 20
87.5308
 30
0.000000
  70
    32
  0
VERTEX
  8
0
  5
246E
 10
245.692
 20
87.6585
 30
0.000000
  70
    32
  0
VERTEX
  8
0
  5
246F
 10
245.628
 20
87.7803
 30
0.000000
  70
    32
  0
VERTEX
  8
0
  5
2470
 10
245.563
 20
87.8959
 30
0.000000
  70
    32
  0
VERTEX
  8
0
  5
2471
 10
245.497
 20
88.0054
 30
0.000000
  70
    32
  0
VERTEX
  8
0
  5
2472
 10
245.430
 20
88.1085
 30
0.000000
  70
    32
  0
VERTEX
  8
0
  5
2473
 10
245.362
 20
88.2052
 30
0.000000
  70
    32
  0
VERTEX
  8
0
  5
2474
 10
245.292
 20
88.2954
 30
0.000000
  70
    32
  0
VERTEX
  8
0
  5
2475
 10
245.222
 20
88.3789
 30
0.000000
  70
    32
  0
VERTEX
  8
0
  5
2476
 10
245.151
 20
88.4557
 30
0.000000
  70
    32
  0
VERTEX
  8
0
  5
2477
 10
245.079
 20
88.5257
 30
0.000000
  70
    32
  0
VERTEX
  8
0
  5
2478
 10
245.006
 20
88.5888
 30
0.000000
  70
    32
  0
VERTEX
  8
0
  5
2479
 10
244.932
 20
88.6449
 30
0.000000
  70
    32
  0
VERTEX
  8
0
  5
247A
 10
244.858
 20
88.6941
 30
0.000000
  70
    32
  0
VERTEX
  8
0
  5
247B
 10
244.784
 20
88.7362
 30
0.000000
  70
    32
  0
VERTEX
  8
0
  5
247C
 10
244.709
 20
88.7712
 30
0.000000
  70
    32
  0
VERTEX
  8
0
  5
247D
 10
244.633
 20
88.7991
 30
0.000000
  70
    32
  0
VERTEX
  8
0
  5
247E
 10
244.558
 20
88.8198
 30
0.000000
  70
    32
  0
VERTEX
  8
0
  5
247F
 10
244.482
 20
88.8333
 30
0.000000
  70
    32
  0
VERTEX
  8
0
  5
2480
 10
244.406
 20
88.8397
 30
0.000000
  70
    32
  0
VERTEX
  8
0
  5
2481
 10
244.330
 20
88.8388
 30
0.000000
  70
    32
  0
VERTEX
  8
0
  5
2482
 10
244.254
 20
88.8307
 30
0.000000
  70
    32
  0
VERTEX
  8
0
  5
2483
 10
244.178
 20
88.8154
 30
0.000000
  70
    32
  0
VERTEX
  8
0
  5
2484
 10
244.103
 20
88.7929
 30
0.000000
  70
    32
  0
VERTEX
  8
0
  5
2485
 10
244.028
 20
88.7633
 30
0.000000
  70
    32
  0
VERTEX
  8
0
  5
2486
 10
243.953
 20
88.7265
 30
0.000000
  70
    32
  0
VERTEX
  8
0
  5
2487
 10
243.878
 20
88.6826
 30
0.000000
  70
    32
  0
VERTEX
  8
0
  5
2488
 10
243.804
 20
88.6317
 30
0.000000
  70
    32
  0
VERTEX
  8
0
  5
2489
 10
243.731
 20
88.5738
 30
0.000000
  70
    32
  0
VERTEX
  8
0
  5
248A
 10
243.658
 20
88.5090
 30
0.000000
  70
    32
  0
VERTEX
  8
0
  5
248B
 10
243.586
 20
88.4373
 30
0.000000
  70
    32
  0
VERTEX
  8
0
  5
248C
 10
243.515
 20
88.3589
 30
0.000000
  70
    32
  0
VERTEX
  8
0
  5
248D
 10
243.445
 20
88.2737
 30
0.000000
  70
    32
  0
VERTEX
  8
0
  5
248E
 10
243.376
 20
88.1820
 30
0.000000
  70
    32
  0
VERTEX
  8
0
  5
248F
 10
243.308
 20
88.0837
 30
0.000000
  70
    32
  0
VERTEX
  8
0
  5
2490
 10
243.241
 20
87.9790
 30
0.000000
  70
    32
  0
SEQEND
  8
0
  5
2491
  0
LINE
  5
1AB4
  8
1
 10
149.00000000000011
 20
81.999999999999986
 30
0.0
 11
271.0482889146756
 21
81.999999999999986
 31
0.0
  0
LINE
  5
1AB5
  8
1
 10
166.00000000000011
 20
64.999999999999986
 30
0.0
 11
166.00000000000011
 21
98.999999999999986
 31
0.0
  0
POLYLINE
  5
1AB6
  8
0
 10
244.37739611140009
 20
76.999999999999986
 30
0.0
 66
     1
 70
     8
  0
VERTEX
  8
0
  5
2492
 10
244.377
 20
77.0000
 30
0.000000
  70
    32
  0
VERTEX
  8
0
  5
2493
 10
244.419
 20
77.0015
 30
0.000000
  70
    32
  0
VERTEX
  8
0
  5
2494
 10
244.461
 20
77.0060
 30
0.000000
  70
    32
  0
VERTEX
  8
0
  5
2495
 10
244.503
 20
77.0135
 30
0.000000
  70
    32
  0
VERTEX
  8
0
  5
2496
 10
244.545
 20
77.0241
 30
0.000000
  70
    32
  0
VERTEX
  8
0
  5
2497
 10
244.587
 20
77.0376
 30
0.000000
  70
    32
  0
VERTEX
  8
0
  5
2498
 10
244.628
 20
77.0541
 30
0.000000
  70
    32
  0
VERTEX
  8
0
  5
2499
 10
244.670
 20
77.0736
 30
0.000000
  70
    32
  0
VERTEX
  8
0
  5
249A
 10
244.711
 20
77.0961
 30
0.000000
  70
    32
  0
VERTEX
  8
0
  5
249B
 10
244.752
 20
77.1215
 30
0.000000
  70
    32
  0
VERTEX
  8
0
  5
249C
 10
244.793
 20
77.1498
 30
0.000000
  70
    32
  0
VERTEX
  8
0
  5
249D
 10
244.834
 20
77.1811
 30
0.000000
  70
    32
  0
VERTEX
  8
0
  5
249E
 10
244.874
 20
77.2153
 30
0.000000
  70
    32
  0
VERTEX
  8
0
  5
249F
 10
244.914
 20
77.2524
 30
0.000000
  70
    32
  0
VERTEX
  8
0
  5
24A0
 10
244.954
 20
77.2923
 30
0.000000
  70
    32
  0
VERTEX
  8
0
  5
24A1
 10
244.993
 20
77.3350
 30
0.000000
  70
    32
  0
VERTEX
  8
0
  5
24A2
 10
245.032
 20
77.3806
 30
0.000000
  70
    32
  0
VERTEX
  8
0
  5
24A3
 10
245.070
 20
77.4290
 30
0.000000
  70
    32
  0
VERTEX
  8
0
  5
24A4
 10
245.109
 20
77.4801
 30
0.000000
  70
    32
  0
VERTEX
  8
0
  5
24A5
 10
245.146
 20
77.5339
 30
0.000000
  70
    32
  0
VERTEX
  8
0
  5
24A6
 10
245.184
 20
77.5904
 30
0.000000
  70
    32
  0
VERTEX
  8
0
  5
24A7
 10
245.220
 20
77.6496
 30
0.000000
  70
    32
  0
VERTEX
  8
0
  5
24A8
 10
245.257
 20
77.7114
 30
0.000000
  70
    32
  0
VERTEX
  8
0
  5
24A9
 10
245.292
 20
77.7757
 30
0.000000
  70
    32
  0
VERTEX
  8
0
  5
24AA
 10
245.327
 20
77.8427
 30
0.000000
  70
    32
  0
VERTEX
  8
0
  5
24AB
 10
245.362
 20
77.9121
 30
0.000000
  70
    32
  0
VERTEX
  8
0
  5
24AC
 10
245.396
 20
77.9840
 30
0.000000
  70
    32
  0
VERTEX
  8
0
  5
24AD
 10
245.430
 20
78.0583
 30
0.000000
  70
    32
  0
VERTEX
  8
0
  5
24AE
 10
245.462
 20
78.1349
 30
0.000000
  70
    32
  0
VERTEX
  8
0
  5
24AF
 10
245.494
 20
78.2140
 30
0.000000
  70
    32
  0
VERTEX
  8
0
  5
24B0
 10
245.526
 20
78.2952
 30
0.000000
  70
    32
  0
VERTEX
  8
0
  5
24B1
 10
245.557
 20
78.3788
 30
0.000000
  70
    32
  0
VERTEX
  8
0
  5
24B2
 10
245.587
 20
78.4645
 30
0.000000
  70
    32
  0
VERTEX
  8
0
  5
24B3
 10
245.616
 20
78.5523
 30
0.000000
  70
    32
  0
VERTEX
  8
0
  5
24B4
 10
245.644
 20
78.6422
 30
0.000000
  70
    32
  0
VERTEX
  8
0
  5
24B5
 10
245.672
 20
78.7341
 30
0.000000
  70
    32
  0
VERTEX
  8
0
  5
24B6
 10
245.699
 20
78.8280
 30
0.000000
  70
    32
  0
VERTEX
  8
0
  5
24B7
 10
245.726
 20
78.9238
 30
0.000000
  70
    32
  0
VERTEX
  8
0
  5
24B8
 10
245.751
 20
79.0215
 30
0.000000
  70
    32
  0
VERTEX
  8
0
  5
24B9
 10
245.776
 20
79.1210
 30
0.000000
  70
    32
  0
VERTEX
  8
0
  5
24BA
 10
245.799
 20
79.2221
 30
0.000000
  70
    32
  0
VERTEX
  8
0
  5
24BB
 10
245.822
 20
79.3250
 30
0.000000
  70
    32
  0
VERTEX
  8
0
  5
24BC
 10
245.844
 20
79.4295
 30
0.000000
  70
    32
  0
VERTEX
  8
0
  5
24BD
 10
245.865
 20
79.5355
 30
0.000000
  70
    32
  0
VERTEX
  8
0
  5
24BE
 10
245.886
 20
79.6430
 30
0.000000
  70
    32
  0
VERTEX
  8
0
  5
24BF
 10
245.905
 20
79.7519
 30
0.000000
  70
    32
  0
VERTEX
  8
0
  5
24C0
 10
245.923
 20
79.8622
 30
0.000000
  70
    32
  0
VERTEX
  8
0
  5
24C1
 10
245.941
 20
79.9738
 30
0.000000
  70
    32
  0
VERTEX
  8
0
  5
24C2
 10
245.957
 20
80.0866
 30
0.000000
  70
    32
  0
VERTEX
  8
0
  5
24C3
 10
245.973
 20
80.2005
 30
0.000000
  70
    32
  0
VERTEX
  8
0
  5
24C4
 10
245.988
 20
80.3156
 30
0.000000
  70
    32
  0
VERTEX
  8
0
  5
24C5
 10
246.001
 20
80.4316
 30
0.000000
  70
    32
  0
VERTEX
  8
0
  5
24C6
 10
246.014
 20
80.5486
 30
0.000000
  70
    32
  0
VERTEX
  8
0
  5
24C7
 10
246.026
 20
80.6664
 30
0.000000
  70
    32
  0
VERTEX
  8
0
  5
24C8
 10
246.036
 20
80.7851
 30
0.000000
  70
    32
  0
VERTEX
  8
0
  5
24C9
 10
246.046
 20
80.9045
 30
0.000000
  70
    32
  0
VERTEX
  8
0
  5
24CA
 10
246.055
 20
81.0245
 30
0.000000
  70
    32
  0
VERTEX
  8
0
  5
24CB
 10
246.062
 20
81.1452
 30
0.000000
  70
    32
  0
VERTEX
  8
0
  5
24CC
 10
246.069
 20
81.2663
 30
0.000000
  70
    32
  0
VERTEX
  8
0
  5
24CD
 10
246.075
 20
81.3879
 30
0.000000
  70
    32
  0
VERTEX
  8
0
  5
24CE
 10
246.079
 20
81.5099
 30
0.000000
  70
    32
  0
VERTEX
  8
0
  5
24CF
 10
246.083
 20
81.6322
 30
0.000000
  70
    32
  0
VERTEX
  8
0
  5
24D0
 10
246.085
 20
81.7547
 30
0.000000
  70
    32
  0
VERTEX
  8
0
  5
24D1
 10
246.087
 20
81.8773
 30
0.000000
  70
    32
  0
VERTEX
  8
0
  5
24D2
 10
246.087
 20
82.0000
 30
0.000000
  70
    32
  0
VERTEX
  8
0
  5
24D3
 10
246.087
 20
82.1227
 30
0.000000
  70
    32
  0
VERTEX
  8
0
  5
24D4
 10
246.085
 20
82.2453
 30
0.000000
  70
    32
  0
VERTEX
  8
0
  5
24D5
 10
246.083
 20
82.3678
 30
0.000000
  70
    32
  0
VERTEX
  8
0
  5
24D6
 10
246.079
 20
82.4901
 30
0.000000
  70
    32
  0
VERTEX
  8
0
  5
24D7
 10
246.075
 20
82.6121
 30
0.000000
  70
    32
  0
VERTEX
  8
0
  5
24D8
 10
246.069
 20
82.7337
 30
0.000000
  70
    32
  0
VERTEX
  8
0
  5
24D9
 10
246.062
 20
82.8548
 30
0.000000
  70
    32
  0
VERTEX
  8
0
  5
24DA
 10
246.055
 20
82.9755
 30
0.000000
  70
    32
  0
VERTEX
  8
0
  5
24DB
 10
246.046
 20
83.0955
 30
0.000000
  70
    32
  0
VERTEX
  8
0
  5
24DC
 10
246.036
 20
83.2149
 30
0.000000
  70
    32
  0
VERTEX
  8
0
  5
24DD
 10
246.026
 20
83.3336
 30
0.000000
  70
    32
  0
VERTEX
  8
0
  5
24DE
 10
246.014
 20
83.4514
 30
0.000000
  70
    32
  0
VERTEX
  8
0
  5
24DF
 10
246.001
 20
83.5684
 30
0.000000
  70
    32
  0
VERTEX
  8
0
  5
24E0
 10
245.988
 20
83.6844
 30
0.000000
  70
    32
  0
VERTEX
  8
0
  5
24E1
 10
245.973
 20
83.7995
 30
0.000000
  70
    32
  0
VERTEX
  8
0
  5
24E2
 10
245.957
 20
83.9134
 30
0.000000
  70
    32
  0
VERTEX
  8
0
  5
24E3
 10
245.941
 20
84.0262
 30
0.000000
  70
    32
  0
VERTEX
  8
0
  5
24E4
 10
245.923
 20
84.1378
 30
0.000000
  70
    32
  0
VERTEX
  8
0
  5
24E5
 10
245.905
 20
84.2481
 30
0.000000
  70
    32
  0
VERTEX
  8
0
  5
24E6
 10
245.886
 20
84.3570
 30
0.000000
  70
    32
  0
VERTEX
  8
0
  5
24E7
 10
245.865
 20
84.4645
 30
0.000000
  70
    32
  0
VERTEX
  8
0
  5
24E8
 10
245.844
 20
84.5705
 30
0.000000
  70
    32
  0
VERTEX
  8
0
  5
24E9
 10
245.822
 20
84.6750
 30
0.000000
  70
    32
  0
VERTEX
  8
0
  5
24EA
 10
245.799
 20
84.7779
 30
0.000000
  70
    32
  0
VERTEX
  8
0
  5
24EB
 10
245.776
 20
84.8790
 30
0.000000
  70
    32
  0
VERTEX
  8
0
  5
24EC
 10
245.751
 20
84.9785
 30
0.000000
  70
    32
  0
VERTEX
  8
0
  5
24ED
 10
245.726
 20
85.0762
 30
0.000000
  70
    32
  0
VERTEX
  8
0
  5
24EE
 10
245.699
 20
85.1720
 30
0.000000
  70
    32
  0
VERTEX
  8
0
  5
24EF
 10
245.672
 20
85.2659
 30
0.000000
  70
    32
  0
VERTEX
  8
0
  5
24F0
 10
245.644
 20
85.3578
 30
0.000000
  70
    32
  0
VERTEX
  8
0
  5
24F1
 10
245.616
 20
85.4477
 30
0.000000
  70
    32
  0
VERTEX
  8
0
  5
24F2
 10
245.587
 20
85.5355
 30
0.000000
  70
    32
  0
VERTEX
  8
0
  5
24F3
 10
245.557
 20
85.6212
 30
0.000000
  70
    32
  0
VERTEX
  8
0
  5
24F4
 10
245.526
 20
85.7048
 30
0.000000
  70
    32
  0
VERTEX
  8
0
  5
24F5
 10
245.494
 20
85.7860
 30
0.000000
  70
    32
  0
VERTEX
  8
0
  5
24F6
 10
245.462
 20
85.8651
 30
0.000000
  70
    32
  0
VERTEX
  8
0
  5
24F7
 10
245.430
 20
85.9417
 30
0.000000
  70
    32
  0
VERTEX
  8
0
  5
24F8
 10
245.396
 20
86.0160
 30
0.000000
  70
    32
  0
VERTEX
  8
0
  5
24F9
 10
245.362
 20
86.0879
 30
0.000000
  70
    32
  0
VERTEX
  8
0
  5
24FA
 10
245.327
 20
86.1573
 30
0.000000
  70
    32
  0
VERTEX
  8
0
  5
24FB
 10
245.292
 20
86.2243
 30
0.000000
  70
    32
  0
VERTEX
  8
0
  5
24FC
 10
245.257
 20
86.2886
 30
0.000000
  70
    32
  0
VERTEX
  8
0
  5
24FD
 10
245.220
 20
86.3504
 30
0.000000
  70
    32
  0
VERTEX
  8
0
  5
24FE
 10
245.184
 20
86.4096
 30
0.000000
  70
    32
  0
VERTEX
  8
0
  5
24FF
 10
245.146
 20
86.4661
 30
0.000000
  70
    32
  0
VERTEX
  8
0
  5
2500
 10
245.109
 20
86.5199
 30
0.000000
  70
    32
  0
VERTEX
  8
0
  5
2501
 10
245.070
 20
86.5710
 30
0.000000
  70
    32
  0
VERTEX
  8
0
  5
2502
 10
245.032
 20
86.6194
 30
0.000000
  70
    32
  0
VERTEX
  8
0
  5
2503
 10
244.993
 20
86.6650
 30
0.000000
  70
    32
  0
VERTEX
  8
0
  5
2504
 10
244.954
 20
86.7077
 30
0.000000
  70
    32
  0
VERTEX
  8
0
  5
2505
 10
244.914
 20
86.7476
 30
0.000000
  70
    32
  0
VERTEX
  8
0
  5
2506
 10
244.874
 20
86.7847
 30
0.000000
  70
    32
  0
VERTEX
  8
0
  5
2507
 10
244.834
 20
86.8189
 30
0.000000
  70
    32
  0
VERTEX
  8
0
  5
2508
 10
244.793
 20
86.8502
 30
0.000000
  70
    32
  0
VERTEX
  8
0
  5
2509
 10
244.752
 20
86.8785
 30
0.000000
  70
    32
  0
VERTEX
  8
0
  5
250A
 10
244.711
 20
86.9039
 30
0.000000
  70
    32
  0
VERTEX
  8
0
  5
250B
 10
244.670
 20
86.9264
 30
0.000000
  70
    32
  0
VERTEX
  8
0
  5
250C
 10
244.628
 20
86.9459
 30
0.000000
  70
    32
  0
VERTEX
  8
0
  5
250D
 10
244.587
 20
86.9624
 30
0.000000
  70
    32
  0
VERTEX
  8
0
  5
250E
 10
244.545
 20
86.9759
 30
0.000000
  70
    32
  0
VERTEX
  8
0
  5
250F
 10
244.503
 20
86.9865
 30
0.000000
  70
    32
  0
VERTEX
  8
0
  5
2510
 10
244.461
 20
86.9940
 30
0.000000
  70
    32
  0
VERTEX
  8
0
  5
2511
 10
244.419
 20
86.9985
 30
0.000000
  70
    32
  0
VERTEX
  8
0
  5
2512
 10
244.377
 20
87.0000
 30
0.000000
  70
    32
  0
SEQEND
  8
0
  5
2513
  0
LINE
  5
1AD9
  8
1
 10
254.00000000000011
 20
280.16218568399393
 30
0.0
 11
254.00000000000011
 21
313.83822229077492
 31
0.0
  0
LINE
  5
1B15
  8
1
 10
248.2408888227568
 20
229.0252122058433
 30
0.0
 11
259.75911117724343
 21
197.3791563746334
 31
0.0
  0
POLYLINE
  5
1B57
  8
0
 10
242.78093399122164
 20
76.999999999999986
 30
0.0
 66
     1
 70
     8
  0
VERTEX
  8
0
  5
2514
 10
242.781
 20
77.0000
 30
0.000000
  70
    32
  0
VERTEX
  8
0
  5
2515
 10
242.784
 20
76.9911
 30
0.000000
  70
    32
  0
VERTEX
  8
0
  5
2516
 10
242.787
 20
76.9822
 30
0.000000
  70
    32
  0
VERTEX
  8
0
  5
2517
 10
242.791
 20
76.9734
 30
0.000000
  70
    32
  0
VERTEX
  8
0
  5
2518
 10
242.794
 20
76.9645
 30
0.000000
  70
    32
  0
VERTEX
  8
0
  5
2519
 10
242.797
 20
76.9557
 30
0.000000
  70
    32
  0
VERTEX
  8
0
  5
251A
 10
242.801
 20
76.9469
 30
0.000000
  70
    32
  0
VERTEX
  8
0
  5
251B
 10
242.804
 20
76.9381
 30
0.000000
  70
    32
  0
VERTEX
  8
0
  5
251C
 10
242.807
 20
76.9293
 30
0.000000
  70
    32
  0
VERTEX
  8
0
  5
251D
 10
242.811
 20
76.9206
 30
0.000000
  70
    32
  0
VERTEX
  8
0
  5
251E
 10
242.814
 20
76.9118
 30
0.000000
  70
    32
  0
VERTEX
  8
0
  5
251F
 10
242.817
 20
76.9031
 30
0.000000
  70
    32
  0
VERTEX
  8
0
  5
2520
 10
242.821
 20
76.8944
 30
0.000000
  70
    32
  0
VERTEX
  8
0
  5
2521
 10
242.824
 20
76.8858
 30
0.000000
  70
    32
  0
VERTEX
  8
0
  5
2522
 10
242.827
 20
76.8771
 30
0.000000
  70
    32
  0
VERTEX
  8
0
  5
2523
 10
242.831
 20
76.8685
 30
0.000000
  70
    32
  0
VERTEX
  8
0
  5
2524
 10
242.834
 20
76.8598
 30
0.000000
  70
    32
  0
VERTEX
  8
0
  5
2525
 10
242.837
 20
76.8512
 30
0.000000
  70
    32
  0
VERTEX
  8
0
  5
2526
 10
242.841
 20
76.8427
 30
0.000000
  70
    32
  0
VERTEX
  8
0
  5
2527
 10
242.844
 20
76.8341
 30
0.000000
  70
    32
  0
VERTEX
  8
0
  5
2528
 10
242.847
 20
76.8255
 30
0.000000
  70
    32
  0
VERTEX
  8
0
  5
2529
 10
242.851
 20
76.8170
 30
0.000000
  70
    32
  0
VERTEX
  8
0
  5
252A
 10
242.854
 20
76.8085
 30
0.000000
  70
    32
  0
VERTEX
  8
0
  5
252B
 10
242.858
 20
76.8000
 30
0.000000
  70
    32
  0
VERTEX
  8
0
  5
252C
 10
242.861
 20
76.7915
 30
0.000000
  70
    32
  0
VERTEX
  8
0
  5
252D
 10
242.864
 20
76.7831
 30
0.000000
  70
    32
  0
VERTEX
  8
0
  5
252E
 10
242.868
 20
76.7747
 30
0.000000
  70
    32
  0
VERTEX
  8
0
  5
252F
 10
242.871
 20
76.7662
 30
0.000000
  70
    32
  0
VERTEX
  8
0
  5
2530
 10
242.875
 20
76.7579
 30
0.000000
  70
    32
  0
VERTEX
  8
0
  5
2531
 10
242.878
 20
76.7495
 30
0.000000
  70
    32
  0
VERTEX
  8
0
  5
2532
 10
242.881
 20
76.7411
 30
0.000000
  70
    32
  0
VERTEX
  8
0
  5
2533
 10
242.885
 20
76.7328
 30
0.000000
  70
    32
  0
VERTEX
  8
0
  5
2534
 10
242.888
 20
76.7245
 30
0.000000
  70
    32
  0
VERTEX
  8
0
  5
2535
 10
242.892
 20
76.7162
 30
0.000000
  70
    32
  0
VERTEX
  8
0
  5
2536
 10
242.895
 20
76.7079
 30
0.000000
  70
    32
  0
VERTEX
  8
0
  5
2537
 10
242.899
 20
76.6996
 30
0.000000
  70
    32
  0
VERTEX
  8
0
  5
2538
 10
242.902
 20
76.6914
 30
0.000000
  70
    32
  0
VERTEX
  8
0
  5
2539
 10
242.906
 20
76.6832
 30
0.000000
  70
    32
  0
VERTEX
  8
0
  5
253A
 10
242.909
 20
76.6750
 30
0.000000
  70
    32
  0
VERTEX
  8
0
  5
253B
 10
242.913
 20
76.6668
 30
0.000000
  70
    32
  0
VERTEX
  8
0
  5
253C
 10
242.916
 20
76.6586
 30
0.000000
  70
    32
  0
VERTEX
  8
0
  5
253D
 10
242.919
 20
76.6505
 30
0.000000
  70
    32
  0
VERTEX
  8
0
  5
253E
 10
242.923
 20
76.6423
 30
0.000000
  70
    32
  0
VERTEX
  8
0
  5
253F
 10
242.926
 20
76.6342
 30
0.000000
  70
    32
  0
VERTEX
  8
0
  5
2540
 10
242.930
 20
76.6262
 30
0.000000
  70
    32
  0
VERTEX
  8
0
  5
2541
 10
242.933
 20
76.6181
 30
0.000000
  70
    32
  0
VERTEX
  8
0
  5
2542
 10
242.937
 20
76.6100
 30
0.000000
  70
    32
  0
VERTEX
  8
0
  5
2543
 10
242.941
 20
76.6020
 30
0.000000
  70
    32
  0
VERTEX
  8
0
  5
2544
 10
242.944
 20
76.5940
 30
0.000000
  70
    32
  0
VERTEX
  8
0
  5
2545
 10
242.948
 20
76.5860
 30
0.000000
  70
    32
  0
VERTEX
  8
0
  5
2546
 10
242.951
 20
76.5781
 30
0.000000
  70
    32
  0
VERTEX
  8
0
  5
2547
 10
242.955
 20
76.5701
 30
0.000000
  70
    32
  0
VERTEX
  8
0
  5
2548
 10
242.958
 20
76.5622
 30
0.000000
  70
    32
  0
VERTEX
  8
0
  5
2549
 10
242.962
 20
76.5543
 30
0.000000
  70
    32
  0
VERTEX
  8
0
  5
254A
 10
242.965
 20
76.5464
 30
0.000000
  70
    32
  0
VERTEX
  8
0
  5
254B
 10
242.969
 20
76.5385
 30
0.000000
  70
    32
  0
VERTEX
  8
0
  5
254C
 10
242.972
 20
76.5307
 30
0.000000
  70
    32
  0
VERTEX
  8
0
  5
254D
 10
242.976
 20
76.5228
 30
0.000000
  70
    32
  0
VERTEX
  8
0
  5
254E
 10
242.980
 20
76.5150
 30
0.000000
  70
    32
  0
VERTEX
  8
0
  5
254F
 10
242.983
 20
76.5072
 30
0.000000
  70
    32
  0
VERTEX
  8
0
  5
2550
 10
242.987
 20
76.4995
 30
0.000000
  70
    32
  0
VERTEX
  8
0
  5
2551
 10
242.990
 20
76.4917
 30
0.000000
  70
    32
  0
VERTEX
  8
0
  5
2552
 10
242.994
 20
76.4840
 30
0.000000
  70
    32
  0
VERTEX
  8
0
  5
2553
 10
242.998
 20
76.4763
 30
0.000000
  70
    32
  0
VERTEX
  8
0
  5
2554
 10
243.001
 20
76.4686
 30
0.000000
  70
    32
  0
VERTEX
  8
0
  5
2555
 10
243.005
 20
76.4609
 30
0.000000
  70
    32
  0
VERTEX
  8
0
  5
2556
 10
243.008
 20
76.4533
 30
0.000000
  70
    32
  0
VERTEX
  8
0
  5
2557
 10
243.012
 20
76.4457
 30
0.000000
  70
    32
  0
VERTEX
  8
0
  5
2558
 10
243.016
 20
76.4380
 30
0.000000
  70
    32
  0
VERTEX
  8
0
  5
2559
 10
243.019
 20
76.4305
 30
0.000000
  70
    32
  0
VERTEX
  8
0
  5
255A
 10
243.023
 20
76.4229
 30
0.000000
  70
    32
  0
VERTEX
  8
0
  5
255B
 10
243.027
 20
76.4153
 30
0.000000
  70
    32
  0
VERTEX
  8
0
  5
255C
 10
243.030
 20
76.4078
 30
0.000000
  70
    32
  0
VERTEX
  8
0
  5
255D
 10
243.034
 20
76.4003
 30
0.000000
  70
    32
  0
VERTEX
  8
0
  5
255E
 10
243.038
 20
76.3928
 30
0.000000
  70
    32
  0
VERTEX
  8
0
  5
255F
 10
243.041
 20
76.3854
 30
0.000000
  70
    32
  0
VERTEX
  8
0
  5
2560
 10
243.045
 20
76.3779
 30
0.000000
  70
    32
  0
VERTEX
  8
0
  5
2561
 10
243.049
 20
76.3705
 30
0.000000
  70
    32
  0
VERTEX
  8
0
  5
2562
 10
243.052
 20
76.3631
 30
0.000000
  70
    32
  0
VERTEX
  8
0
  5
2563
 10
243.056
 20
76.3557
 30
0.000000
  70
    32
  0
VERTEX
  8
0
  5
2564
 10
243.060
 20
76.3483
 30
0.000000
  70
    32
  0
VERTEX
  8
0
  5
2565
 10
243.063
 20
76.3410
 30
0.000000
  70
    32
  0
VERTEX
  8
0
  5
2566
 10
243.067
 20
76.3337
 30
0.000000
  70
    32
  0
VERTEX
  8
0
  5
2567
 10
243.071
 20
76.3264
 30
0.000000
  70
    32
  0
VERTEX
  8
0
  5
2568
 10
243.074
 20
76.3191
 30
0.000000
  70
    32
  0
VERTEX
  8
0
  5
2569
 10
243.078
 20
76.3118
 30
0.000000
  70
    32
  0
VERTEX
  8
0
  5
256A
 10
243.082
 20
76.3046
 30
0.000000
  70
    32
  0
VERTEX
  8
0
  5
256B
 10
243.085
 20
76.2974
 30
0.000000
  70
    32
  0
VERTEX
  8
0
  5
256C
 10
243.089
 20
76.2902
 30
0.000000
  70
    32
  0
VERTEX
  8
0
  5
256D
 10
243.093
 20
76.2830
 30
0.000000
  70
    32
  0
VERTEX
  8
0
  5
256E
 10
243.097
 20
76.2758
 30
0.000000
  70
    32
  0
VERTEX
  8
0
  5
256F
 10
243.100
 20
76.2687
 30
0.000000
  70
    32
  0
VERTEX
  8
0
  5
2570
 10
243.104
 20
76.2616
 30
0.000000
  70
    32
  0
VERTEX
  8
0
  5
2571
 10
243.108
 20
76.2545
 30
0.000000
  70
    32
  0
VERTEX
  8
0
  5
2572
 10
243.112
 20
76.2474
 30
0.000000
  70
    32
  0
VERTEX
  8
0
  5
2573
 10
243.115
 20
76.2404
 30
0.000000
  70
    32
  0
VERTEX
  8
0
  5
2574
 10
243.119
 20
76.2333
 30
0.000000
  70
    32
  0
VERTEX
  8
0
  5
2575
 10
243.123
 20
76.2263
 30
0.000000
  70
    32
  0
VERTEX
  8
0
  5
2576
 10
243.127
 20
76.2193
 30
0.000000
  70
    32
  0
VERTEX
  8
0
  5
2577
 10
243.130
 20
76.2124
 30
0.000000
  70
    32
  0
VERTEX
  8
0
  5
2578
 10
243.134
 20
76.2054
 30
0.000000
  70
    32
  0
VERTEX
  8
0
  5
2579
 10
243.138
 20
76.1985
 30
0.000000
  70
    32
  0
VERTEX
  8
0
  5
257A
 10
243.142
 20
76.1916
 30
0.000000
  70
    32
  0
VERTEX
  8
0
  5
257B
 10
243.146
 20
76.1847
 30
0.000000
  70
    32
  0
VERTEX
  8
0
  5
257C
 10
243.149
 20
76.1779
 30
0.000000
  70
    32
  0
VERTEX
  8
0
  5
257D
 10
243.153
 20
76.1710
 30
0.000000
  70
    32
  0
VERTEX
  8
0
  5
257E
 10
243.157
 20
76.1642
 30
0.000000
  70
    32
  0
VERTEX
  8
0
  5
257F
 10
243.161
 20
76.1574
 30
0.000000
  70
    32
  0
VERTEX
  8
0
  5
2580
 10
243.165
 20
76.1506
 30
0.000000
  70
    32
  0
VERTEX
  8
0
  5
2581
 10
243.168
 20
76.1439
 30
0.000000
  70
    32
  0
VERTEX
  8
0
  5
2582
 10
243.172
 20
76.1371
 30
0.000000
  70
    32
  0
VERTEX
  8
0
  5
2583
 10
243.176
 20
76.1304
 30
0.000000
  70
    32
  0
VERTEX
  8
0
  5
2584
 10
243.180
 20
76.1237
 30
0.000000
  70
    32
  0
VERTEX
  8
0
  5
2585
 10
243.184
 20
76.1171
 30
0.000000
  70
    32
  0
VERTEX
  8
0
  5
2586
 10
243.188
 20
76.1104
 30
0.000000
  70
    32
  0
VERTEX
  8
0
  5
2587
 10
243.191
 20
76.1038
 30
0.000000
  70
    32
  0
VERTEX
  8
0
  5
2588
 10
243.195
 20
76.0972
 30
0.000000
  70
    32
  0
VERTEX
  8
0
  5
2589
 10
243.199
 20
76.0906
 30
0.000000
  70
    32
  0
VERTEX
  8
0
  5
258A
 10
243.203
 20
76.0840
 30
0.000000
  70
    32
  0
VERTEX
  8
0
  5
258B
 10
243.207
 20
76.0775
 30
0.000000
  70
    32
  0
VERTEX
  8
0
  5
258C
 10
243.211
 20
76.0710
 30
0.000000
  70
    32
  0
VERTEX
  8
0
  5
258D
 10
243.215
 20
76.0645
 30
0.000000
  70
    32
  0
VERTEX
  8
0
  5
258E
 10
243.219
 20
76.0580
 30
0.000000
  70
    32
  0
VERTEX
  8
0
  5
258F
 10
243.222
 20
76.0515
 30
0.000000
  70
    32
  0
VERTEX
  8
0
  5
2590
 10
243.226
 20
76.0451
 30
0.000000
  70
    32
  0
VERTEX
  8
0
  5
2591
 10
243.230
 20
76.0387
 30
0.000000
  70
    32
  0
VERTEX
  8
0
  5
2592
 10
243.234
 20
76.0323
 30
0.000000
  70
    32
  0
VERTEX
  8
0
  5
2593
 10
243.238
 20
76.0259
 30
0.000000
  70
    32
  0
VERTEX
  8
0
  5
2594
 10
243.242
 20
76.0196
 30
0.000000
  70
    32
  0
SEQEND
  8
0
  5
2595
  0
CIRCLE
  5
1B62
  8
3
 10
166.00000000000011
 20
81.999999999999986
 30
0.0
 40
5.0
  0
LINE
  5
1B65
  8
1
 10
254.00000000000011
 20
98.838222290774866
 30
0.0
 11
254.00000000000011
 21
65.162185683993883
 31
0.0
  0
LINE
  5
1BB5
  8
1
 10
321.20896947988842
 20
213.20218429023839
 30
0.0
 11
354.88677753233532
 21
213.20218429023839
 31
0.0
  0
POLYLINE
  5
1BE5
  8
0
 66
     1
 10
0.0
 20
0.0
 30
0.0
  0
VERTEX
  5
1FB6
  8
0
 10
87.0
 20
202.35378229330641
 30
0.0
  0
VERTEX
  5
1FB7
  8
0
 10
87.149673959757237
 20
202.42281161663021
 30
0.0
  0
VERTEX
  5
1FB8
  8
0
 10
87.554748440004687
 20
202.62886054914
 30
0.0
  0
VERTEX
  5
1FB9
  8
0
 10
87.951763340194915
 20
202.85040983387529
 30
0.0
  0
VERTEX
  5
1FBA
  8
0
 10
88.340117043858186
 20
203.0871397021784
 30
0.0
  0
VERTEX
  5
1FBB
  8
0
 10
88.719220272546394
 20
203.33870564927221
 30
0.0
  0
VERTEX
  5
1FBC
  8
0
 10
89.088497280255524
 20
203.60473895222239
 30
0.0
  0
VERTEX
  5
1FBD
  8
0
 10
89.447387019834864
 20
203.8848472640164
 30
0.0
  0
VERTEX
  5
1FBE
  8
0
 10
89.795344274078957
 20
204.17861528032131
 30
0.0
  0
VERTEX
  5
1FBF
  8
0
 10
90.131840744884585
 20
204.48560547470851
 30
0.0
  0
VERTEX
  5
1FC0
  8
0
 10
90.456366094636451
 20
204.80535889751559
 30
0.0
  0
VERTEX
  5
1FC1
  8
0
 10
90.768428934818417
 20
205.1373960330487
 30
0.0
  0
VERTEX
  5
1FC2
  8
0
 10
91.067557757698637
 20
205.48121770950769
 30
0.0
  0
VERTEX
  5
1FC3
  8
0
 10
91.353301807785556
 20
205.8363060558323
 30
0.0
  0
VERTEX
  5
1FC4
  8
0
 10
91.62523189056742
 20
206.20212549962019
 30
0.0
  0
VERTEX
  5
1FC5
  8
0
 10
91.882941116812844
 20
206.57812380031029
 30
0.0
  0
VERTEX
  5
1FC6
  8
0
 10
92.126045581410835
 20
206.96373311197809
 30
0.0
  0
VERTEX
  5
1FC7
  8
0
 10
92.354184976360315
 20
207.3583710703015
 30
0.0
  0
VERTEX
  5
1FC8
  8
0
 10
92.56702313806295
 20
207.76144189853099
 30
0.0
  0
VERTEX
  5
1FC9
  8
0
 10
92.764248529553242
 20
208.17233752760799
 30
0.0
  0
VERTEX
  5
1FCA
  8
0
 10
92.945574658687292
 20
208.59043872591349
 30
0.0
  0
VERTEX
  5
1FCB
  8
0
 10
93.110740433636465
 20
209.015116234472
 30
0.0
  0
VERTEX
  5
1FCC
  8
0
 10
93.259510457286979
 20
209.4457319037873
 30
0.0
  0
VERTEX
  5
1FCD
  8
0
 10
93.391675262340414
 20
209.88163982882671
 30
0.0
  0
VERTEX
  5
1FCE
  8
0
 10
93.507051489054675
 20
210.32218747899279
 30
0.0
  0
VERTEX
  5
1FCF
  8
0
 10
93.605482007661067
 20
210.7667168202322
 30
0.0
  0
VERTEX
  5
1FD0
  8
0
 10
93.686835987557075
 20
211.21456542671461
 30
0.0
  0
VERTEX
  5
1FD1
  8
0
 10
93.751008915402508
 20
211.6650675797751
 30
0.0
  0
VERTEX
  5
1FD2
  8
0
 10
93.797922564261626
 20
212.11755535205029
 30
0.0
  0
VERTEX
  5
1FD3
  8
0
 10
93.827524915918715
 20
212.57135967495219
 30
0.0
  0
VERTEX
  5
1FD4
  8
0
 10
93.83979003847935
 20
213.02581138781059
 30
0.0
  0
VERTEX
  5
1FD5
  8
0
 10
93.834717921341962
 20
213.48024226718641
 30
0.0
  0
VERTEX
  5
1FD6
  8
0
 10
93.812334308503296
 20
213.9339854666552
 30
0.0
  0
VERTEX
  5
1FD7
  8
0
 10
93.772690587270404
 20
214.3863762805974
 30
0.0
  0
VERTEX
  5
1FD8
  8
0
 10
93.715863343149735
 20
214.83675529827261
 30
0.0
  0
VERTEX
  5
1FD9
  8
0
 10
93.641954031529949
 20
215.28446796210969
 30
0.0
  0
VERTEX
  5
1FDA
  8
0
 10
93.551088627714876
 20
215.7288654793829
 30
0.0
  0
VERTEX
  5
1FDB
  8
0
 10
93.443417246317495
 20
216.16930570772999
 30
0.0
  0
VERTEX
  5
1FDC
  8
0
 10
93.319113731963853
 20
216.60515401366939
 30
0.0
  0
VERTEX
  5
1FDD
  8
0
 10
93.178375223257035
 20
217.0357841034936
 30
0.0
  0
VERTEX
  5
1FDE
  8
0
 10
93.021421691964861
 20
217.46057882601411
 30
0.0
  0
VERTEX
  5
1FDF
  8
0
 10
92.848495459413456
 20
217.87893094672049
 30
0.0
  0
VERTEX
  5
1FE0
  8
0
 10
92.659860692088159
 20
218.2902438930314
 30
0.0
  0
VERTEX
  5
1FE1
  8
0
 10
92.455802878475637
 20
218.69393247041481
 30
0.0
  0
VERTEX
  5
1FE2
  8
0
 10
92.236628289197142
 20
219.0894235492913
 30
0.0
  0
VERTEX
  5
1FE3
  8
0
 10
92.002663422511205
 20
219.47615672276521
 30
0.0
  0
VERTEX
  5
1FE4
  8
0
 10
91.75425443728011
 20
219.8535849353803
 30
0.0
  0
VERTEX
  5
1FE5
  8
0
 10
91.491766575497437
 20
220.2211750832634
 30
0.0
  0
VERTEX
  5
1FE6
  8
0
 10
91.215583576473136
 20
220.5784085861977
 30
0.0
  0
VERTEX
  5
1FE7
  8
0
 10
90.926107084737737
 20
220.9247819323684
 30
0.0
  0
VERTEX
  5
1FE8
  8
0
 10
90.623756053689704
 20
221.2598071967204
 30
0.0
  0
VERTEX
  5
1FE9
  8
0
 10
90.308966146922785
 20
221.5830125340965
 30
0.0
  0
VERTEX
  5
1FEA
  8
0
 10
89.982189139067955
 20
221.8939426485407
 30
0.0
  0
VERTEX
  5
1FEB
  8
0
 10
89.643892317828644
 20
222.1921592403871
 30
0.0
  0
VERTEX
  5
1FEC
  8
0
 10
89.294557888702116
 20
222.47724143297481
 30
0.0
  0
VERTEX
  5
1FED
  8
0
 10
88.934682383640265
 20
222.74878618104489
 30
0.0
  0
VERTEX
  5
1FEE
  8
0
 10
88.564776074606016
 20
223.0064086630816
 30
0.0
  0
VERTEX
  5
1FEF
  8
0
 10
88.185362392650617
 20
223.2497426600203
 30
0.0
  0
VERTEX
  5
1FF0
  8
0
 10
87.796977352733734
 20
223.4784409228846
 30
0.0
  0
VERTEX
  5
1FF1
  8
0
 10
87.400168984062475
 20
223.69217553200161
 30
0.0
  0
VERTEX
  5
1FF2
  8
0
 10
86.995496765234975
 20
223.89063825046071
 30
0.0
  0
VERTEX
  5
1FF3
  8
0
 10
86.583531062935322
 20
224.07354087443809
 30
0.0
  0
VERTEX
  5
1FF4
  8
0
 10
86.164852572367181
 20
224.2406155828709
 30
0.0
  0
VERTEX
  5
1FF5
  8
0
 10
85.740051757032475
 20
224.39161528873069
 30
0.0
  0
VERTEX
  5
1FF6
  8
0
 10
85.309728284882794
 20
224.5263139938188
 30
0.0
  0
VERTEX
  5
1FF7
  8
0
 10
84.874490457328193
 20
224.64450714854669
 30
0.0
  0
VERTEX
  5
1FF8
  8
0
 10
84.434954627070738
 20
224.74601201761939
 30
0.0
  0
VERTEX
  5
1FF9
  8
0
 10
83.991744600323273
 20
224.83066805186189
 30
0.0
  0
VERTEX
  5
1FFA
  8
0
 10
83.545491018633925
 20
224.8983372656709
 30
0.0
  0
VERTEX
  5
1FFB
  8
0
 10
83.096830715366536
 20
224.9489046187189
 30
0.0
  0
VERTEX
  5
1FFC
  8
0
 10
82.646406041847385
 20
224.98227839963531
 30
0.0
  0
VERTEX
  5
1FFD
  8
0
 10
82.194864158350811
 20
224.99839060844559
 30
0.0
  0
VERTEX
  5
1FFE
  8
0
 10
82.0
 20
225.0
 30
0.0
  0
SEQEND
  5
1FFF
  8
0
  0
LINE
  5
1BEF
  8
1
 10
65.160324841370198
 20
213.20218429023839
 30
0.0
 11
98.838132893816905
 21
213.20218429023839
 31
0.0
  0
ENDSEC
  0
EOF
