  0
SECTION
  2
HEADER
  9
$ACADVER
  1
AC1009
  9
$INSBASE
 10
0.0
 20
0.0
 30
0.0
  9
$EXTMIN
 10
0.0
 20
-2.960436562073669
 30
0.0
  9
$EXTMAX
 10
436.45412432972068
 20
442.49999999999989
 30
0.0
  9
$LIMMIN
 10
0.0
 20
0.0
  9
$LIMMAX
 10
297.0
 20
210.0
  9
$ORTHOMODE
 70
     1
  9
$REGENMODE
 70
     1
  9
$FILLMODE
 70
     1
  9
$QTEXTMODE
 70
     0
  9
$MIRRTEXT
 70
     0
  9
$DRAGMODE
 70
     2
  9
$LTSCALE
 40
5.0
  9
$OSMODE
 70
    37
  9
$ATTMODE
 70
     1
  9
$TEXTSIZE
 40
3.0
  9
$TRACEWID
 40
0.05
  9
$TEXTSTYLE
  7
STANDARD
  9
$CLAYER
  8
0
  9
$CELTYPE
  6
BYLAYER
  9
$CECOLOR
 62
   256
  9
$DIMSCALE
 40
1.0
  9
$DIMASZ
 40
3.0
  9
$DIMEXO
 40
2.0
  9
$DIMDLI
 40
10.0
  9
$DIMRND
 40
0.0
  9
$DIMDLE
 40
0.0
  9
$DIMEXE
 40
2.0
  9
$DIMTP
 40
0.0
  9
$DIMTM
 40
0.0
  9
$DIMTXT
 40
3.0
  9
$DIMCEN
 40
0.0
  9
$DIMTSZ
 40
0.0
  9
$DIMTOL
 70
     0
  9
$DIMLIM
 70
     0
  9
$DIMTIH
 70
     0
  9
$DIMTOH
 70
     0
  9
$DIMSE1
 70
     0
  9
$DIMSE2
 70
     0
  9
$DIMTAD
 70
     1
  9
$DIMZIN
 70
     8
  9
$DIMBLK
  1

  9
$DIMASO
 70
     1
  9
$DIMSHO
 70
     0
  9
$DIMPOST
  1

  9
$DIMAPOST
  1

  9
$DIMALT
 70
     0
  9
$DIMALTD
 70
     2
  9
$DIMALTF
 40
25.399999999999999
  9
$DIMLFAC
 40
1.0
  9
$DIMTOFL
 70
     1
  9
$DIMTVP
 40
1.6000000000000001
  9
$DIMTIX
 70
     1
  9
$DIMSOXD
 70
     0
  9
$DIMSAH
 70
     0
  9
$DIMBLK1
  1

  9
$DIMBLK2
  1

  9
$DIMSTYLE
  2
STANDARD
  9
$DIMCLRD
 70
   256
  9
$DIMCLRE
 70
   256
  9
$DIMCLRT
 70
   256
  9
$DIMTFAC
 40
1.0
  9
$DIMGAP
 40
1.0
  9
$LUNITS
 70
     2
  9
$LUPREC
 70
     1
  9
$SKETCHINC
 40
0.1
  9
$FILLETRAD
 40
0.0
  9
$AUNITS
 70
     0
  9
$AUPREC
 70
     0
  9
$MENU
  1
ME
  9
$ELEVATION
 40
0.0
  9
$PELEVATION
 40
0.0
  9
$THICKNESS
 40
0.0
  9
$LIMCHECK
 70
     0
  9
$BLIPMODE
 70
     0
  9
$CHAMFERA
 40
1.0
  9
$CHAMFERB
 40
1.0
  9
$SKPOLY
 70
     0
  9
$TDCREATE
 40
2452423.367022106
  9
$TDUPDATE
 40
2459236.6037763078
  9
$TDINDWG
 40
0.3298571644
  9
$TDUSRTIMER
 40
0.3298539236
  9
$USRTIMER
 70
     1
  9
$ANGBASE
 50
0.0
  9
$ANGDIR
 70
     0
  9
$PDMODE
 70
     0
  9
$PDSIZE
 40
0.0
  9
$PLINEWID
 40
0.0
  9
$COORDS
 70
     1
  9
$SPLFRAME
 70
     0
  9
$SPLINETYPE
 70
     6
  9
$SPLINESEGS
 70
     8
  9
$ATTDIA
 70
     0
  9
$ATTREQ
 70
     1
  9
$HANDLING
 70
     1
  9
$HANDSEED
  5
1BF6
  9
$SURFTAB1
 70
     6
  9
$SURFTAB2
 70
     6
  9
$SURFTYPE
 70
     6
  9
$SURFU
 70
     6
  9
$SURFV
 70
     6
  9
$UCSNAME
  2

  9
$UCSORG
 10
0.0
 20
0.0
 30
0.0
  9
$UCSXDIR
 10
1.0
 20
0.0
 30
0.0
  9
$UCSYDIR
 10
0.0
 20
1.0
 30
0.0
  9
$PUCSNAME
  2

  9
$PUCSORG
 10
0.0
 20
0.0
 30
0.0
  9
$PUCSXDIR
 10
1.0
 20
0.0
 30
0.0
  9
$PUCSYDIR
 10
0.0
 20
1.0
 30
0.0
  9
$USERI1
 70
     4
  9
$USERI2
 70
     1
  9
$USERI3
 70
     1
  9
$USERI4
 70
     1
  9
$USERI5
 70
     0
  9
$USERR1
 40
1.0
  9
$USERR2
 40
3.0
  9
$USERR3
 40
3.0
  9
$USERR4
 40
3.0
  9
$USERR5
 40
10.0
  9
$WORLDVIEW
 70
     1
  9
$SHADEDGE
 70
     3
  9
$SHADEDIF
 70
    70
  9
$TILEMODE
 70
     1
  9
$MAXACTVP
 70
    16
  9
$PLIMCHECK
 70
     0
  9
$PEXTMIN
 10
1.0000000000000000E+020
 20
1.0000000000000000E+020
 30
1.0000000000000000E+020
  9
$PEXTMAX
 10
-1.0000000000000000E+020
 20
-1.0000000000000000E+020
 30
-1.0000000000000000E+020
  9
$PLIMMIN
 10
0.0
 20
0.0
  9
$PLIMMAX
 10
12.0
 20
9.0
  9
$UNITMODE
 70
     0
  9
$VISRETAIN
 70
     0
  9
$PLINEGEN
 70
     0
  9
$PSLTSCALE
 70
     0
  0
ENDSEC
  0
SECTION
  2
TABLES
  0
TABLE
  2
VPORT
 70
     1
  0
VPORT
  2
*ACTIVE
 70
     0
 10
0.0
 20
0.0
 11
1.0
 21
1.0
 12
661.76470588235281
 22
250.0
 13
0.0
 23
0.0
 14
5.0
 24
5.0
 15
10.0
 25
10.0
 16
0.0
 26
0.0
 36
1.0
 17
0.0
 27
0.0
 37
0.0
 40
500.0
 41
2.6470588235294108
 42
50.0
 43
0.0
 44
0.0
 50
0.0
 51
0.0
 71
     0
 72
   500
 73
     1
 74
     0
 75
     0
 76
     0
 77
     0
 78
     1
  0
ENDTAB
  0
TABLE
  2
LTYPE
 70
     3
  0
LTYPE
  2
CONTINUOUS
 70
     0
  3
Solid Line
 72
    65
 73
     0
 40
0.0
  0
LTYPE
  2
CENTER
 70
     0
  3
____ _ ____ _ ____ _ ____ _ ____ _ ____ _ ____
 72
    65
 73
     4
 40
2.0
 49
1.25
 49
-0.25
 49
0.25
 49
-0.25
  0
LTYPE
  2
HIDDEN
 70
     0
  3
_ _ _ _ _ _ _ _ _ _ _ _ _ _ _ _ _ _ _ _ _ _ _
 72
    65
 73
     2
 40
0.375
 49
0.25
 49
-0.125
  0
ENDTAB
  0
TABLE
  2
LAYER
 70
     6
  0
LAYER
  2
0
 70
     0
 62
     7
  6
CONTINUOUS
  0
LAYER
  2
1
 70
     0
 62
     1
  6
CENTER
  0
LAYER
  2
3
 70
     0
 62
     3
  6
CONTINUOUS
  0
LAYER
  2
WAKU
 70
     0
 62
     5
  6
CONTINUOUS
  0
LAYER
  2
2
 70
     0
 62
     2
  6
HIDDEN
  0
LAYER
  2
DEFPOINTS
 70
     0
 62
     7
  6
CONTINUOUS
  0
ENDTAB
  0
TABLE
  2
STYLE
 70
     2
  0
STYLE
  2
STANDARD
 70
     0
 40
0.0
 41
1.0
 50
0.0
 71
     0
 42
3.0
  3
simplex.shx
  4
EXTFONT.shx
  0
STYLE
  2
STANDARD1
 70
     0
 40
0.0
 41
1.0
 50
0.0
 71
     0
 42
3.0
  3
txt
  4

  0
ENDTAB
  0
TABLE
  2
VIEW
 70
     0
  0
ENDTAB
  0
TABLE
  2
UCS
 70
     0
  0
ENDTAB
  0
TABLE
  2
APPID
 70
     7
  0
APPID
  2
ACAD
 70
     0
  0
APPID
  2
ACAD_EXEMPT_FROM_CAD_STANDARDS
 70
     0
  0
APPID
  2
ACAD_MLEADERVER
 70
     0
  0
APPID
  2
ACAD_NAV_VCDISPLAY
 70
     0
  0
APPID
  2
ACAD_DSTYLE_DIMRADIAL_EXTENSION
 70
     0
  0
APPID
  2
ACAD_DSTYLE_DIMJAG
 70
     0
  0
APPID
  2
ACAD_DSTYLE_DIMTALN
 70
     0
  0
ENDTAB
  0
TABLE
  2
DIMSTYLE
 70
     1
  0
DIMSTYLE
  2
STANDARD
 70
     0
  3

  4

  5

  6

  7

 40
1.0
 41
0.18
 42
0.0625
 43
0.38
 44
0.18
 45
0.0
 46
0.0
 47
0.0
 48
0.0
140
0.18
141
0.09
142
0.0
143
25.399999999999999
144
1.0
145
0.0
146
1.0
147
0.09
 71
     0
 72
     0
 73
     1
 74
     1
 75
     0
 76
     0
 77
     0
 78
     0
170
     0
171
     2
172
     0
173
     0
174
     0
175
     0
176
     0
177
     0
178
     0
  0
ENDTAB
  0
ENDSEC
  0
SECTION
  2
BLOCKS
  0
BLOCK
  8
0
  2
$MODEL_SPACE
 70
     0
 10
0.0
 20
0.0
 30
0.0
  3
$MODEL_SPACE
  1

  0
ENDBLK
  5
33
  8
0
  0
BLOCK
 67
     1
  8
0
  2
$PAPER_SPACE
 70
     0
 10
0.0
 20
0.0
 30
0.0
  3
$PAPER_SPACE
  1

  0
ENDBLK
  5
31
 67
     1
  8
0
  0
BLOCK
  8
0
  2
ARROW1
 70
     0
 10
0.0
 20
0.0
 30
0.0
  3
ARROW1
  1

  0
SOLID
  5
D5
  8
WAKU
  6
CONTINUOUS
 62
     4
 10
-1.0
 20
0.1666666666666714
 30
0.0
 11
-1.0
 21
-0.1666666666666714
 31
0.0
 12
0.0
 22
0.0
 32
0.0
 13
0.0
 23
0.0
 33
0.0
  0
ENDBLK
  5
D7
  8
0
  0
ENDSEC
  0
SECTION
  2
ENTITIES
  0
TEXT
  5
1174
  8
0
 62
     3
 10
0.0
 20
0.0
 30
0.0
 40
10.0
  1
TL20X60N-SUS
  7
STANDARD1
  0
ARC
  5
123E
  8
0
 10
228.07700555701479
 20
287.89199796488163
 30
0.0
 40
6.4999999999896456
 50
284.94203718416082
 51
290.00000000000529
  0
ARC
  5
123F
  8
0
 10
227.0
 20
287.50000000000023
 30
0.0
 40
6.5000000000002194
 50
270.0
 51
295.05796281583588
  0
LINE
  5
1240
  8
0
 10
212.0
 20
281.0
 30
0.0
 11
227.0
 21
281.0
 31
0.0
  0
LINE
  5
1241
  8
0
 10
225.8538746253947
 20
294.0
 30
0.0
 11
212.0
 21
294.0
 31
0.0
  0
LINE
  5
1242
  8
0
 10
230.30013648862831
 20
281.78399592978309
 30
0.0
 11
309.9221275504176
 21
310.76403066928401
 31
0.0
  0
LINE
  5
1243
  8
0
 10
305.4758656871839
 20
322.9800347395007
 30
0.0
 11
225.8538746253947
 21
293.99999999999989
 31
0.0
  0
LINE
  5
124C
  8
0
 10
176.5
 20
238.5
 30
0.0
 11
176.5
 21
231.0
 31
0.0
  0
LINE
  5
124D
  8
0
 10
206.5
 20
231.0
 30
0.0
 11
206.5
 21
238.5
 31
0.0
  0
LINE
  5
124E
  8
0
 10
206.5
 20
231.0
 30
0.0
 11
176.5
 21
231.0
 31
0.0
  0
LINE
  5
124F
  8
0
 10
304.688541078014
 20
325.14319132497621
 30
0.0
 11
310.7094521595875
 21
308.60087408380861
 31
0.0
  0
ARC
  5
1250
  8
0
 10
320.0
 20
320.5
 30
0.0
 40
15.99999999999998
 50
22.858873454289249
 51
163.13010235415581
  0
ARC
  5
1251
  8
0
 10
319.45412432972068
 20
321.99978107792191
 30
0.0
 40
15.999999999999989
 50
236.86989764584371
 51
17.141126545710499
  0
LINE
  5
1252
  8
0
 10
174.42500000000001
 20
299.5
 30
0.0
 11
171.0
 21
296.07499999999999
 31
0.0
  0
LINE
  5
1253
  8
0
 10
212.0
 20
296.07499999999999
 30
0.0
 11
208.57499999999999
 21
299.5
 31
0.0
  0
LINE
  5
1254
  8
0
 10
208.57499999999999
 20
299.5
 30
0.0
 11
174.42500000000001
 21
299.5
 31
0.0
  0
LINE
  5
1255
  8
0
 10
211.25
 20
238.5
 30
0.0
 11
212.0
 21
239.25
 31
0.0
  0
LINE
  5
1256
  8
0
 10
171.0
 20
239.25
 30
0.0
 11
171.75
 21
238.5
 31
0.0
  0
LINE
  5
1257
  8
0
 10
211.25
 20
238.5
 30
0.0
 11
171.75
 21
238.5
 31
0.0
  0
LINE
  5
1258
  8
0
 10
171.0
 20
296.07499999999999
 30
0.0
 11
171.0
 21
239.25
 31
0.0
  0
LINE
  5
1259
  8
0
 10
212.0
 20
239.25
 30
0.0
 11
212.0
 21
281.0
 31
0.0
  0
LINE
  5
125A
  8
0
 10
212.0
 20
294.00000000000011
 30
0.0
 11
212.0
 21
296.07499999999999
 31
0.0
  0
LINE
  5
125B
  8
0
 10
212.0
 20
239.25
 30
0.0
 11
171.0
 21
239.25
 31
0.0
  0
POLYLINE
  5
125C
  8
0
 66
     1
 10
0.0
 20
0.0
 30
0.0
  0
VERTEX
  5
149A
  8
0
 10
211.99999999999281
 20
293.99999999997732
 30
0.0
  0
VERTEX
  5
149B
  8
0
 10
211.99123914596879
 20
293.97231656652252
 30
0.0
  0
VERTEX
  5
149C
  8
0
 10
211.936227241723
 20
293.79598156567681
 30
0.0
  0
VERTEX
  5
149D
  8
0
 10
211.8325107069426
 20
293.45071354107517
 30
0.0
  0
VERTEX
  5
149E
  8
0
 10
211.69398276230569
 20
292.95865732614732
 30
0.0
  0
VERTEX
  5
149F
  8
0
 10
211.5286299018388
 20
292.31103063228983
 30
0.0
  0
VERTEX
  5
14A0
  8
0
 10
211.35410379244689
 20
291.52311289939189
 30
0.0
  0
VERTEX
  5
14A1
  8
0
 10
211.1872081517192
 20
290.59615322765501
 30
0.0
  0
VERTEX
  5
14A2
  8
0
 10
211.0546139740637
 20
289.59354428533248
 30
0.0
  0
VERTEX
  5
14A3
  8
0
 10
210.96754488605541
 20
288.4926247481211
 30
0.0
  0
VERTEX
  5
14A4
  8
0
 10
210.94231827884269
 20
287.4388440042294
 30
0.0
  0
VERTEX
  5
14A5
  8
0
 10
210.9759290928948
 20
286.35465549660108
 30
0.0
  0
VERTEX
  5
14A6
  8
0
 10
211.0591406247417
 20
285.36458856928658
 30
0.0
  0
VERTEX
  5
14A7
  8
0
 10
211.1868054092522
 20
284.40640868540117
 30
0.0
  0
VERTEX
  5
14A8
  8
0
 10
211.3434890934644
 20
283.52960211031188
 30
0.0
  0
VERTEX
  5
14A9
  8
0
 10
211.5169474239467
 20
282.73783828781029
 30
0.0
  0
VERTEX
  5
14AA
  8
0
 10
211.6872081386542
 20
282.06645857351339
 30
0.0
  0
VERTEX
  5
14AB
  8
0
 10
211.8372376352938
 20
281.53315538710712
 30
0.0
  0
VERTEX
  5
14AC
  8
0
 10
211.94150035676179
 20
281.18692334630009
 30
0.0
  0
VERTEX
  5
14AD
  8
0
 10
211.9953729162454
 20
281.01460787801028
 30
0.0
  0
VERTEX
  5
14AE
  8
0
 10
211.99999999998121
 20
281.00000000005929
 30
0.0
  0
SEQEND
  5
14AF
  8
0
  0
LINE
  5
125D
  8
0
 10
212.0
 20
296.07499999999999
 30
0.0
 11
171.0
 21
296.07499999999999
 31
0.0
  0
LINE
  5
1261
  8
1
 10
191.5
 20
304.5
 30
0.0
 11
191.5
 21
166.0
 31
0.0
  0
LINE
  5
1262
  8
1
 10
191.5
 20
287.5
 30
0.0
 11
227.00000000000011
 21
287.50000000000011
 31
0.0
  0
LINE
  5
1263
  8
1
 10
227.00000000000031
 20
287.50000000000023
 30
0.0
 11
339.44635383285163
 21
328.42712574692342
 31
0.0
  0
LINE
  5
1264
  8
3
 10
227.0
 20
423.5
 30
0.0
 11
227.0
 21
410.5
 31
0.0
  0
POLYLINE
  5
1265
  8
0
 66
     1
 10
0.0
 20
0.0
 30
0.0
  0
VERTEX
  5
14B0
  8
0
 10
227.0
 20
410.71966386378909
 30
0.0
  0
VERTEX
  5
14B1
  8
0
 10
226.83563986524439
 20
410.86983246447193
 30
0.0
  0
VERTEX
  5
14B2
  8
0
 10
226.69294353876469
 20
411.06000908179402
 30
0.0
  0
VERTEX
  5
14B3
  8
0
 10
226.56325182061079
 20
411.29705430831149
 30
0.0
  0
VERTEX
  5
14B4
  8
0
 10
226.44829174141191
 20
411.57444443736892
 30
0.0
  0
VERTEX
  5
14B5
  8
0
 10
226.34881336705021
 20
411.88083973615119
 30
0.0
  0
VERTEX
  5
14B6
  8
0
 10
226.26009118265509
 20
412.2218272760465
 30
0.0
  0
VERTEX
  5
14B7
  8
0
 10
226.17914205812849
 20
412.60646270970392
 30
0.0
  0
VERTEX
  5
14B8
  8
0
 10
226.10799211987671
 20
413.02280134097163
 30
0.0
  0
VERTEX
  5
14B9
  8
0
 10
226.0471835650072
 20
413.45987454101117
 30
0.0
  0
VERTEX
  5
14BA
  8
0
 10
225.9950263545735
 20
413.92177031334592
 30
0.0
  0
VERTEX
  5
14BB
  8
0
 10
225.95011632614541
 20
414.41997411117831
 30
0.0
  0
VERTEX
  5
14BC
  8
0
 10
225.9139170554061
 20
414.93745116441318
 30
0.0
  0
VERTEX
  5
14BD
  8
0
 10
225.88789923399611
 20
415.43397812057083
 30
0.0
  0
VERTEX
  5
14BE
  8
0
 10
225.8692497967896
 20
415.94071277326401
 30
0.0
  0
VERTEX
  5
14BF
  8
0
 10
225.8577191529368
 20
416.46852527076061
 30
0.0
  0
VERTEX
  5
14C0
  8
0
 10
225.8538746253947
 20
417.0
 30
0.0
  0
SEQEND
  5
14C1
  8
0
  0
POLYLINE
  5
1266
  8
0
 10
227.0
 20
410.71966386378904
 30
0.0
 66
     1
 70
     8
  0
VERTEX
  8
0
  5
16E2
 10
227.000
 20
410.720
 30
0.000000
  70
    32
  0
VERTEX
  8
0
  5
16E3
 10
227.004
 20
410.717
 30
0.000000
  70
    32
  0
VERTEX
  8
0
  5
16E4
 10
227.007
 20
410.714
 30
0.000000
  70
    32
  0
VERTEX
  8
0
  5
16E5
 10
227.011
 20
410.712
 30
0.000000
  70
    32
  0
VERTEX
  8
0
  5
16E6
 10
227.014
 20
410.709
 30
0.000000
  70
    32
  0
VERTEX
  8
0
  5
16E7
 10
227.018
 20
410.707
 30
0.000000
  70
    32
  0
VERTEX
  8
0
  5
16E8
 10
227.022
 20
410.704
 30
0.000000
  70
    32
  0
VERTEX
  8
0
  5
16E9
 10
227.025
 20
410.702
 30
0.000000
  70
    32
  0
VERTEX
  8
0
  5
16EA
 10
227.029
 20
410.699
 30
0.000000
  70
    32
  0
VERTEX
  8
0
  5
16EB
 10
227.032
 20
410.697
 30
0.000000
  70
    32
  0
VERTEX
  8
0
  5
16EC
 10
227.036
 20
410.694
 30
0.000000
  70
    32
  0
VERTEX
  8
0
  5
16ED
 10
227.039
 20
410.692
 30
0.000000
  70
    32
  0
VERTEX
  8
0
  5
16EE
 10
227.043
 20
410.689
 30
0.000000
  70
    32
  0
VERTEX
  8
0
  5
16EF
 10
227.047
 20
410.687
 30
0.000000
  70
    32
  0
VERTEX
  8
0
  5
16F0
 10
227.050
 20
410.685
 30
0.000000
  70
    32
  0
VERTEX
  8
0
  5
16F1
 10
227.054
 20
410.682
 30
0.000000
  70
    32
  0
VERTEX
  8
0
  5
16F2
 10
227.057
 20
410.680
 30
0.000000
  70
    32
  0
VERTEX
  8
0
  5
16F3
 10
227.061
 20
410.678
 30
0.000000
  70
    32
  0
VERTEX
  8
0
  5
16F4
 10
227.065
 20
410.675
 30
0.000000
  70
    32
  0
VERTEX
  8
0
  5
16F5
 10
227.068
 20
410.673
 30
0.000000
  70
    32
  0
VERTEX
  8
0
  5
16F6
 10
227.072
 20
410.671
 30
0.000000
  70
    32
  0
VERTEX
  8
0
  5
16F7
 10
227.076
 20
410.668
 30
0.000000
  70
    32
  0
VERTEX
  8
0
  5
16F8
 10
227.079
 20
410.666
 30
0.000000
  70
    32
  0
VERTEX
  8
0
  5
16F9
 10
227.083
 20
410.664
 30
0.000000
  70
    32
  0
VERTEX
  8
0
  5
16FA
 10
227.086
 20
410.662
 30
0.000000
  70
    32
  0
VERTEX
  8
0
  5
16FB
 10
227.090
 20
410.660
 30
0.000000
  70
    32
  0
VERTEX
  8
0
  5
16FC
 10
227.094
 20
410.657
 30
0.000000
  70
    32
  0
VERTEX
  8
0
  5
16FD
 10
227.097
 20
410.655
 30
0.000000
  70
    32
  0
VERTEX
  8
0
  5
16FE
 10
227.101
 20
410.653
 30
0.000000
  70
    32
  0
VERTEX
  8
0
  5
16FF
 10
227.104
 20
410.651
 30
0.000000
  70
    32
  0
VERTEX
  8
0
  5
1700
 10
227.108
 20
410.649
 30
0.000000
  70
    32
  0
VERTEX
  8
0
  5
1701
 10
227.112
 20
410.647
 30
0.000000
  70
    32
  0
VERTEX
  8
0
  5
1702
 10
227.115
 20
410.645
 30
0.000000
  70
    32
  0
VERTEX
  8
0
  5
1703
 10
227.119
 20
410.643
 30
0.000000
  70
    32
  0
VERTEX
  8
0
  5
1704
 10
227.123
 20
410.641
 30
0.000000
  70
    32
  0
VERTEX
  8
0
  5
1705
 10
227.126
 20
410.639
 30
0.000000
  70
    32
  0
VERTEX
  8
0
  5
1706
 10
227.130
 20
410.637
 30
0.000000
  70
    32
  0
VERTEX
  8
0
  5
1707
 10
227.133
 20
410.635
 30
0.000000
  70
    32
  0
VERTEX
  8
0
  5
1708
 10
227.137
 20
410.633
 30
0.000000
  70
    32
  0
VERTEX
  8
0
  5
1709
 10
227.141
 20
410.631
 30
0.000000
  70
    32
  0
VERTEX
  8
0
  5
170A
 10
227.144
 20
410.629
 30
0.000000
  70
    32
  0
VERTEX
  8
0
  5
170B
 10
227.148
 20
410.627
 30
0.000000
  70
    32
  0
VERTEX
  8
0
  5
170C
 10
227.152
 20
410.625
 30
0.000000
  70
    32
  0
VERTEX
  8
0
  5
170D
 10
227.155
 20
410.623
 30
0.000000
  70
    32
  0
VERTEX
  8
0
  5
170E
 10
227.159
 20
410.621
 30
0.000000
  70
    32
  0
VERTEX
  8
0
  5
170F
 10
227.163
 20
410.619
 30
0.000000
  70
    32
  0
VERTEX
  8
0
  5
1710
 10
227.166
 20
410.617
 30
0.000000
  70
    32
  0
VERTEX
  8
0
  5
1711
 10
227.170
 20
410.616
 30
0.000000
  70
    32
  0
VERTEX
  8
0
  5
1712
 10
227.173
 20
410.614
 30
0.000000
  70
    32
  0
VERTEX
  8
0
  5
1713
 10
227.177
 20
410.612
 30
0.000000
  70
    32
  0
VERTEX
  8
0
  5
1714
 10
227.181
 20
410.610
 30
0.000000
  70
    32
  0
VERTEX
  8
0
  5
1715
 10
227.184
 20
410.609
 30
0.000000
  70
    32
  0
VERTEX
  8
0
  5
1716
 10
227.188
 20
410.607
 30
0.000000
  70
    32
  0
VERTEX
  8
0
  5
1717
 10
227.192
 20
410.605
 30
0.000000
  70
    32
  0
VERTEX
  8
0
  5
1718
 10
227.195
 20
410.604
 30
0.000000
  70
    32
  0
VERTEX
  8
0
  5
1719
 10
227.199
 20
410.602
 30
0.000000
  70
    32
  0
VERTEX
  8
0
  5
171A
 10
227.203
 20
410.600
 30
0.000000
  70
    32
  0
VERTEX
  8
0
  5
171B
 10
227.206
 20
410.599
 30
0.000000
  70
    32
  0
VERTEX
  8
0
  5
171C
 10
227.210
 20
410.597
 30
0.000000
  70
    32
  0
VERTEX
  8
0
  5
171D
 10
227.214
 20
410.595
 30
0.000000
  70
    32
  0
VERTEX
  8
0
  5
171E
 10
227.217
 20
410.594
 30
0.000000
  70
    32
  0
VERTEX
  8
0
  5
171F
 10
227.221
 20
410.592
 30
0.000000
  70
    32
  0
VERTEX
  8
0
  5
1720
 10
227.225
 20
410.591
 30
0.000000
  70
    32
  0
VERTEX
  8
0
  5
1721
 10
227.228
 20
410.589
 30
0.000000
  70
    32
  0
VERTEX
  8
0
  5
1722
 10
227.232
 20
410.588
 30
0.000000
  70
    32
  0
VERTEX
  8
0
  5
1723
 10
227.235
 20
410.586
 30
0.000000
  70
    32
  0
VERTEX
  8
0
  5
1724
 10
227.239
 20
410.585
 30
0.000000
  70
    32
  0
VERTEX
  8
0
  5
1725
 10
227.243
 20
410.583
 30
0.000000
  70
    32
  0
VERTEX
  8
0
  5
1726
 10
227.246
 20
410.582
 30
0.000000
  70
    32
  0
VERTEX
  8
0
  5
1727
 10
227.250
 20
410.580
 30
0.000000
  70
    32
  0
VERTEX
  8
0
  5
1728
 10
227.254
 20
410.579
 30
0.000000
  70
    32
  0
VERTEX
  8
0
  5
1729
 10
227.257
 20
410.578
 30
0.000000
  70
    32
  0
VERTEX
  8
0
  5
172A
 10
227.261
 20
410.576
 30
0.000000
  70
    32
  0
VERTEX
  8
0
  5
172B
 10
227.265
 20
410.575
 30
0.000000
  70
    32
  0
VERTEX
  8
0
  5
172C
 10
227.268
 20
410.574
 30
0.000000
  70
    32
  0
VERTEX
  8
0
  5
172D
 10
227.272
 20
410.572
 30
0.000000
  70
    32
  0
VERTEX
  8
0
  5
172E
 10
227.276
 20
410.571
 30
0.000000
  70
    32
  0
VERTEX
  8
0
  5
172F
 10
227.279
 20
410.570
 30
0.000000
  70
    32
  0
VERTEX
  8
0
  5
1730
 10
227.283
 20
410.569
 30
0.000000
  70
    32
  0
VERTEX
  8
0
  5
1731
 10
227.287
 20
410.567
 30
0.000000
  70
    32
  0
VERTEX
  8
0
  5
1732
 10
227.290
 20
410.566
 30
0.000000
  70
    32
  0
VERTEX
  8
0
  5
1733
 10
227.294
 20
410.565
 30
0.000000
  70
    32
  0
VERTEX
  8
0
  5
1734
 10
227.298
 20
410.564
 30
0.000000
  70
    32
  0
VERTEX
  8
0
  5
1735
 10
227.301
 20
410.563
 30
0.000000
  70
    32
  0
VERTEX
  8
0
  5
1736
 10
227.305
 20
410.561
 30
0.000000
  70
    32
  0
VERTEX
  8
0
  5
1737
 10
227.309
 20
410.560
 30
0.000000
  70
    32
  0
VERTEX
  8
0
  5
1738
 10
227.312
 20
410.559
 30
0.000000
  70
    32
  0
VERTEX
  8
0
  5
1739
 10
227.316
 20
410.558
 30
0.000000
  70
    32
  0
VERTEX
  8
0
  5
173A
 10
227.320
 20
410.557
 30
0.000000
  70
    32
  0
VERTEX
  8
0
  5
173B
 10
227.323
 20
410.556
 30
0.000000
  70
    32
  0
VERTEX
  8
0
  5
173C
 10
227.327
 20
410.555
 30
0.000000
  70
    32
  0
VERTEX
  8
0
  5
173D
 10
227.331
 20
410.554
 30
0.000000
  70
    32
  0
VERTEX
  8
0
  5
173E
 10
227.335
 20
410.553
 30
0.000000
  70
    32
  0
VERTEX
  8
0
  5
173F
 10
227.338
 20
410.552
 30
0.000000
  70
    32
  0
VERTEX
  8
0
  5
1740
 10
227.342
 20
410.551
 30
0.000000
  70
    32
  0
VERTEX
  8
0
  5
1741
 10
227.346
 20
410.550
 30
0.000000
  70
    32
  0
VERTEX
  8
0
  5
1742
 10
227.349
 20
410.549
 30
0.000000
  70
    32
  0
VERTEX
  8
0
  5
1743
 10
227.353
 20
410.548
 30
0.000000
  70
    32
  0
VERTEX
  8
0
  5
1744
 10
227.357
 20
410.547
 30
0.000000
  70
    32
  0
VERTEX
  8
0
  5
1745
 10
227.360
 20
410.546
 30
0.000000
  70
    32
  0
VERTEX
  8
0
  5
1746
 10
227.364
 20
410.545
 30
0.000000
  70
    32
  0
VERTEX
  8
0
  5
1747
 10
227.368
 20
410.545
 30
0.000000
  70
    32
  0
VERTEX
  8
0
  5
1748
 10
227.371
 20
410.544
 30
0.000000
  70
    32
  0
VERTEX
  8
0
  5
1749
 10
227.375
 20
410.543
 30
0.000000
  70
    32
  0
VERTEX
  8
0
  5
174A
 10
227.379
 20
410.542
 30
0.000000
  70
    32
  0
VERTEX
  8
0
  5
174B
 10
227.382
 20
410.541
 30
0.000000
  70
    32
  0
VERTEX
  8
0
  5
174C
 10
227.386
 20
410.541
 30
0.000000
  70
    32
  0
VERTEX
  8
0
  5
174D
 10
227.390
 20
410.540
 30
0.000000
  70
    32
  0
VERTEX
  8
0
  5
174E
 10
227.393
 20
410.539
 30
0.000000
  70
    32
  0
VERTEX
  8
0
  5
174F
 10
227.397
 20
410.539
 30
0.000000
  70
    32
  0
VERTEX
  8
0
  5
1750
 10
227.401
 20
410.538
 30
0.000000
  70
    32
  0
VERTEX
  8
0
  5
1751
 10
227.404
 20
410.537
 30
0.000000
  70
    32
  0
VERTEX
  8
0
  5
1752
 10
227.408
 20
410.537
 30
0.000000
  70
    32
  0
VERTEX
  8
0
  5
1753
 10
227.412
 20
410.536
 30
0.000000
  70
    32
  0
VERTEX
  8
0
  5
1754
 10
227.416
 20
410.535
 30
0.000000
  70
    32
  0
VERTEX
  8
0
  5
1755
 10
227.419
 20
410.535
 30
0.000000
  70
    32
  0
VERTEX
  8
0
  5
1756
 10
227.423
 20
410.534
 30
0.000000
  70
    32
  0
VERTEX
  8
0
  5
1757
 10
227.427
 20
410.534
 30
0.000000
  70
    32
  0
VERTEX
  8
0
  5
1758
 10
227.430
 20
410.533
 30
0.000000
  70
    32
  0
VERTEX
  8
0
  5
1759
 10
227.434
 20
410.533
 30
0.000000
  70
    32
  0
VERTEX
  8
0
  5
175A
 10
227.438
 20
410.532
 30
0.000000
  70
    32
  0
VERTEX
  8
0
  5
175B
 10
227.441
 20
410.532
 30
0.000000
  70
    32
  0
VERTEX
  8
0
  5
175C
 10
227.445
 20
410.531
 30
0.000000
  70
    32
  0
VERTEX
  8
0
  5
175D
 10
227.449
 20
410.531
 30
0.000000
  70
    32
  0
VERTEX
  8
0
  5
175E
 10
227.452
 20
410.530
 30
0.000000
  70
    32
  0
VERTEX
  8
0
  5
175F
 10
227.456
 20
410.530
 30
0.000000
  70
    32
  0
VERTEX
  8
0
  5
1760
 10
227.460
 20
410.529
 30
0.000000
  70
    32
  0
VERTEX
  8
0
  5
1761
 10
227.463
 20
410.529
 30
0.000000
  70
    32
  0
VERTEX
  8
0
  5
1762
 10
227.467
 20
410.529
 30
0.000000
  70
    32
  0
SEQEND
  8
0
  5
1763
  0
POLYLINE
  5
1267
  8
0
 66
     1
 10
0.0
 20
0.0
 30
0.0
  0
VERTEX
  5
14C2
  8
0
 10
225.8538746253947
 20
417.0
 30
0.0
  0
VERTEX
  5
14C3
  8
0
 10
225.85394577034839
 20
417.07242260235438
 30
0.0
  0
VERTEX
  5
14C4
  8
0
 10
225.85884445078
 20
417.60410784363688
 30
0.0
  0
VERTEX
  5
14C5
  8
0
 10
225.8714468793454
 20
418.13162284960703
 30
0.0
  0
VERTEX
  5
14C6
  8
0
 10
225.8925125990713
 20
418.6662581868768
 30
0.0
  0
VERTEX
  5
14C7
  8
0
 10
225.92184546292179
 20
419.18873645514032
 30
0.0
  0
VERTEX
  5
14C8
  8
0
 10
225.9583851777854
 20
419.68120557252871
 30
0.0
  0
VERTEX
  5
14C9
  8
0
 10
226.00296667736961
 20
420.15526129702351
 30
0.0
  0
VERTEX
  5
14CA
  8
0
 10
226.05742662051421
 20
420.62028979929892
 30
0.0
  0
VERTEX
  5
14CB
  8
0
 10
226.1208657274903
 20
421.05914841320572
 30
0.0
  0
VERTEX
  5
14CC
  8
0
 10
226.19187130542119
 20
421.45958308260219
 30
0.0
  0
VERTEX
  5
14CD
  8
0
 10
226.27227452417611
 20
421.82947109756418
 30
0.0
  0
VERTEX
  5
14CE
  8
0
 10
226.36544631290951
 20
422.17543378270108
 30
0.0
  0
VERTEX
  5
14CF
  8
0
 10
226.4702498722113
 20
422.48426800369953
 30
0.0
  0
VERTEX
  5
14D0
  8
0
 10
226.57842900050679
 20
422.73444422045202
 30
0.0
  0
VERTEX
  5
14D1
  8
0
 10
226.6994109075917
 20
422.95006160242349
 30
0.0
  0
VERTEX
  5
14D2
  8
0
 10
226.83932931358649
 20
423.13426002029689
 30
0.0
  0
VERTEX
  5
14D3
  8
0
 10
227.0
 20
423.28033613621079
 30
0.0
  0
SEQEND
  5
14D4
  8
0
  0
ARC
  5
1268
  8
0
 10
228.0770055570116
 20
417.00000000000432
 30
0.0
 40
6.499999999995687
 50
89.999999999996746
 51
95.383501071737598
  0
ARC
  5
1269
  8
0
 10
228.0770055570116
 20
416.99999999999568
 30
0.0
 40
6.499999999995687
 50
264.6164989282604
 51
270.00000000000171
  0
POLYLINE
  5
126A
  8
0
 10
227.46716498294913
 20
423.47132864829371
 30
0.0
 66
     1
 70
     8
  0
VERTEX
  8
0
  5
1764
 10
227.467
 20
423.471
 30
0.000000
  70
    32
  0
VERTEX
  8
0
  5
1765
 10
227.463
 20
423.471
 30
0.000000
  70
    32
  0
VERTEX
  8
0
  5
1766
 10
227.460
 20
423.471
 30
0.000000
  70
    32
  0
VERTEX
  8
0
  5
1767
 10
227.456
 20
423.470
 30
0.000000
  70
    32
  0
VERTEX
  8
0
  5
1768
 10
227.452
 20
423.470
 30
0.000000
  70
    32
  0
VERTEX
  8
0
  5
1769
 10
227.449
 20
423.469
 30
0.000000
  70
    32
  0
VERTEX
  8
0
  5
176A
 10
227.445
 20
423.469
 30
0.000000
  70
    32
  0
VERTEX
  8
0
  5
176B
 10
227.441
 20
423.468
 30
0.000000
  70
    32
  0
VERTEX
  8
0
  5
176C
 10
227.438
 20
423.468
 30
0.000000
  70
    32
  0
VERTEX
  8
0
  5
176D
 10
227.434
 20
423.467
 30
0.000000
  70
    32
  0
VERTEX
  8
0
  5
176E
 10
227.430
 20
423.467
 30
0.000000
  70
    32
  0
VERTEX
  8
0
  5
176F
 10
227.427
 20
423.466
 30
0.000000
  70
    32
  0
VERTEX
  8
0
  5
1770
 10
227.423
 20
423.466
 30
0.000000
  70
    32
  0
VERTEX
  8
0
  5
1771
 10
227.419
 20
423.465
 30
0.000000
  70
    32
  0
VERTEX
  8
0
  5
1772
 10
227.416
 20
423.465
 30
0.000000
  70
    32
  0
VERTEX
  8
0
  5
1773
 10
227.412
 20
423.464
 30
0.000000
  70
    32
  0
VERTEX
  8
0
  5
1774
 10
227.408
 20
423.463
 30
0.000000
  70
    32
  0
VERTEX
  8
0
  5
1775
 10
227.404
 20
423.463
 30
0.000000
  70
    32
  0
VERTEX
  8
0
  5
1776
 10
227.401
 20
423.462
 30
0.000000
  70
    32
  0
VERTEX
  8
0
  5
1777
 10
227.397
 20
423.461
 30
0.000000
  70
    32
  0
VERTEX
  8
0
  5
1778
 10
227.393
 20
423.461
 30
0.000000
  70
    32
  0
VERTEX
  8
0
  5
1779
 10
227.390
 20
423.460
 30
0.000000
  70
    32
  0
VERTEX
  8
0
  5
177A
 10
227.386
 20
423.459
 30
0.000000
  70
    32
  0
VERTEX
  8
0
  5
177B
 10
227.382
 20
423.459
 30
0.000000
  70
    32
  0
VERTEX
  8
0
  5
177C
 10
227.379
 20
423.458
 30
0.000000
  70
    32
  0
VERTEX
  8
0
  5
177D
 10
227.375
 20
423.457
 30
0.000000
  70
    32
  0
VERTEX
  8
0
  5
177E
 10
227.371
 20
423.456
 30
0.000000
  70
    32
  0
VERTEX
  8
0
  5
177F
 10
227.368
 20
423.455
 30
0.000000
  70
    32
  0
VERTEX
  8
0
  5
1780
 10
227.364
 20
423.455
 30
0.000000
  70
    32
  0
VERTEX
  8
0
  5
1781
 10
227.360
 20
423.454
 30
0.000000
  70
    32
  0
VERTEX
  8
0
  5
1782
 10
227.357
 20
423.453
 30
0.000000
  70
    32
  0
VERTEX
  8
0
  5
1783
 10
227.353
 20
423.452
 30
0.000000
  70
    32
  0
VERTEX
  8
0
  5
1784
 10
227.349
 20
423.451
 30
0.000000
  70
    32
  0
VERTEX
  8
0
  5
1785
 10
227.346
 20
423.450
 30
0.000000
  70
    32
  0
VERTEX
  8
0
  5
1786
 10
227.342
 20
423.449
 30
0.000000
  70
    32
  0
VERTEX
  8
0
  5
1787
 10
227.338
 20
423.448
 30
0.000000
  70
    32
  0
VERTEX
  8
0
  5
1788
 10
227.335
 20
423.447
 30
0.000000
  70
    32
  0
VERTEX
  8
0
  5
1789
 10
227.331
 20
423.446
 30
0.000000
  70
    32
  0
VERTEX
  8
0
  5
178A
 10
227.327
 20
423.445
 30
0.000000
  70
    32
  0
VERTEX
  8
0
  5
178B
 10
227.323
 20
423.444
 30
0.000000
  70
    32
  0
VERTEX
  8
0
  5
178C
 10
227.320
 20
423.443
 30
0.000000
  70
    32
  0
VERTEX
  8
0
  5
178D
 10
227.316
 20
423.442
 30
0.000000
  70
    32
  0
VERTEX
  8
0
  5
178E
 10
227.312
 20
423.441
 30
0.000000
  70
    32
  0
VERTEX
  8
0
  5
178F
 10
227.309
 20
423.440
 30
0.000000
  70
    32
  0
VERTEX
  8
0
  5
1790
 10
227.305
 20
423.439
 30
0.000000
  70
    32
  0
VERTEX
  8
0
  5
1791
 10
227.301
 20
423.437
 30
0.000000
  70
    32
  0
VERTEX
  8
0
  5
1792
 10
227.298
 20
423.436
 30
0.000000
  70
    32
  0
VERTEX
  8
0
  5
1793
 10
227.294
 20
423.435
 30
0.000000
  70
    32
  0
VERTEX
  8
0
  5
1794
 10
227.290
 20
423.434
 30
0.000000
  70
    32
  0
VERTEX
  8
0
  5
1795
 10
227.287
 20
423.433
 30
0.000000
  70
    32
  0
VERTEX
  8
0
  5
1796
 10
227.283
 20
423.431
 30
0.000000
  70
    32
  0
VERTEX
  8
0
  5
1797
 10
227.279
 20
423.430
 30
0.000000
  70
    32
  0
VERTEX
  8
0
  5
1798
 10
227.276
 20
423.429
 30
0.000000
  70
    32
  0
VERTEX
  8
0
  5
1799
 10
227.272
 20
423.428
 30
0.000000
  70
    32
  0
VERTEX
  8
0
  5
179A
 10
227.268
 20
423.426
 30
0.000000
  70
    32
  0
VERTEX
  8
0
  5
179B
 10
227.265
 20
423.425
 30
0.000000
  70
    32
  0
VERTEX
  8
0
  5
179C
 10
227.261
 20
423.424
 30
0.000000
  70
    32
  0
VERTEX
  8
0
  5
179D
 10
227.257
 20
423.422
 30
0.000000
  70
    32
  0
VERTEX
  8
0
  5
179E
 10
227.254
 20
423.421
 30
0.000000
  70
    32
  0
VERTEX
  8
0
  5
179F
 10
227.250
 20
423.420
 30
0.000000
  70
    32
  0
VERTEX
  8
0
  5
17A0
 10
227.246
 20
423.418
 30
0.000000
  70
    32
  0
VERTEX
  8
0
  5
17A1
 10
227.243
 20
423.417
 30
0.000000
  70
    32
  0
VERTEX
  8
0
  5
17A2
 10
227.239
 20
423.415
 30
0.000000
  70
    32
  0
VERTEX
  8
0
  5
17A3
 10
227.235
 20
423.414
 30
0.000000
  70
    32
  0
VERTEX
  8
0
  5
17A4
 10
227.232
 20
423.412
 30
0.000000
  70
    32
  0
VERTEX
  8
0
  5
17A5
 10
227.228
 20
423.411
 30
0.000000
  70
    32
  0
VERTEX
  8
0
  5
17A6
 10
227.225
 20
423.409
 30
0.000000
  70
    32
  0
VERTEX
  8
0
  5
17A7
 10
227.221
 20
423.408
 30
0.000000
  70
    32
  0
VERTEX
  8
0
  5
17A8
 10
227.217
 20
423.406
 30
0.000000
  70
    32
  0
VERTEX
  8
0
  5
17A9
 10
227.214
 20
423.405
 30
0.000000
  70
    32
  0
VERTEX
  8
0
  5
17AA
 10
227.210
 20
423.403
 30
0.000000
  70
    32
  0
VERTEX
  8
0
  5
17AB
 10
227.206
 20
423.401
 30
0.000000
  70
    32
  0
VERTEX
  8
0
  5
17AC
 10
227.203
 20
423.400
 30
0.000000
  70
    32
  0
VERTEX
  8
0
  5
17AD
 10
227.199
 20
423.398
 30
0.000000
  70
    32
  0
VERTEX
  8
0
  5
17AE
 10
227.195
 20
423.396
 30
0.000000
  70
    32
  0
VERTEX
  8
0
  5
17AF
 10
227.192
 20
423.395
 30
0.000000
  70
    32
  0
VERTEX
  8
0
  5
17B0
 10
227.188
 20
423.393
 30
0.000000
  70
    32
  0
VERTEX
  8
0
  5
17B1
 10
227.184
 20
423.391
 30
0.000000
  70
    32
  0
VERTEX
  8
0
  5
17B2
 10
227.181
 20
423.390
 30
0.000000
  70
    32
  0
VERTEX
  8
0
  5
17B3
 10
227.177
 20
423.388
 30
0.000000
  70
    32
  0
VERTEX
  8
0
  5
17B4
 10
227.173
 20
423.386
 30
0.000000
  70
    32
  0
VERTEX
  8
0
  5
17B5
 10
227.170
 20
423.384
 30
0.000000
  70
    32
  0
VERTEX
  8
0
  5
17B6
 10
227.166
 20
423.383
 30
0.000000
  70
    32
  0
VERTEX
  8
0
  5
17B7
 10
227.163
 20
423.381
 30
0.000000
  70
    32
  0
VERTEX
  8
0
  5
17B8
 10
227.159
 20
423.379
 30
0.000000
  70
    32
  0
VERTEX
  8
0
  5
17B9
 10
227.155
 20
423.377
 30
0.000000
  70
    32
  0
VERTEX
  8
0
  5
17BA
 10
227.152
 20
423.375
 30
0.000000
  70
    32
  0
VERTEX
  8
0
  5
17BB
 10
227.148
 20
423.373
 30
0.000000
  70
    32
  0
VERTEX
  8
0
  5
17BC
 10
227.144
 20
423.371
 30
0.000000
  70
    32
  0
VERTEX
  8
0
  5
17BD
 10
227.141
 20
423.369
 30
0.000000
  70
    32
  0
VERTEX
  8
0
  5
17BE
 10
227.137
 20
423.367
 30
0.000000
  70
    32
  0
VERTEX
  8
0
  5
17BF
 10
227.133
 20
423.365
 30
0.000000
  70
    32
  0
VERTEX
  8
0
  5
17C0
 10
227.130
 20
423.363
 30
0.000000
  70
    32
  0
VERTEX
  8
0
  5
17C1
 10
227.126
 20
423.361
 30
0.000000
  70
    32
  0
VERTEX
  8
0
  5
17C2
 10
227.123
 20
423.359
 30
0.000000
  70
    32
  0
VERTEX
  8
0
  5
17C3
 10
227.119
 20
423.357
 30
0.000000
  70
    32
  0
VERTEX
  8
0
  5
17C4
 10
227.115
 20
423.355
 30
0.000000
  70
    32
  0
VERTEX
  8
0
  5
17C5
 10
227.112
 20
423.353
 30
0.000000
  70
    32
  0
VERTEX
  8
0
  5
17C6
 10
227.108
 20
423.351
 30
0.000000
  70
    32
  0
VERTEX
  8
0
  5
17C7
 10
227.104
 20
423.349
 30
0.000000
  70
    32
  0
VERTEX
  8
0
  5
17C8
 10
227.101
 20
423.347
 30
0.000000
  70
    32
  0
VERTEX
  8
0
  5
17C9
 10
227.097
 20
423.345
 30
0.000000
  70
    32
  0
VERTEX
  8
0
  5
17CA
 10
227.094
 20
423.343
 30
0.000000
  70
    32
  0
VERTEX
  8
0
  5
17CB
 10
227.090
 20
423.340
 30
0.000000
  70
    32
  0
VERTEX
  8
0
  5
17CC
 10
227.086
 20
423.338
 30
0.000000
  70
    32
  0
VERTEX
  8
0
  5
17CD
 10
227.083
 20
423.336
 30
0.000000
  70
    32
  0
VERTEX
  8
0
  5
17CE
 10
227.079
 20
423.334
 30
0.000000
  70
    32
  0
VERTEX
  8
0
  5
17CF
 10
227.076
 20
423.332
 30
0.000000
  70
    32
  0
VERTEX
  8
0
  5
17D0
 10
227.072
 20
423.329
 30
0.000000
  70
    32
  0
VERTEX
  8
0
  5
17D1
 10
227.068
 20
423.327
 30
0.000000
  70
    32
  0
VERTEX
  8
0
  5
17D2
 10
227.065
 20
423.325
 30
0.000000
  70
    32
  0
VERTEX
  8
0
  5
17D3
 10
227.061
 20
423.322
 30
0.000000
  70
    32
  0
VERTEX
  8
0
  5
17D4
 10
227.057
 20
423.320
 30
0.000000
  70
    32
  0
VERTEX
  8
0
  5
17D5
 10
227.054
 20
423.318
 30
0.000000
  70
    32
  0
VERTEX
  8
0
  5
17D6
 10
227.050
 20
423.315
 30
0.000000
  70
    32
  0
VERTEX
  8
0
  5
17D7
 10
227.047
 20
423.313
 30
0.000000
  70
    32
  0
VERTEX
  8
0
  5
17D8
 10
227.043
 20
423.311
 30
0.000000
  70
    32
  0
VERTEX
  8
0
  5
17D9
 10
227.039
 20
423.308
 30
0.000000
  70
    32
  0
VERTEX
  8
0
  5
17DA
 10
227.036
 20
423.306
 30
0.000000
  70
    32
  0
VERTEX
  8
0
  5
17DB
 10
227.032
 20
423.303
 30
0.000000
  70
    32
  0
VERTEX
  8
0
  5
17DC
 10
227.029
 20
423.301
 30
0.000000
  70
    32
  0
VERTEX
  8
0
  5
17DD
 10
227.025
 20
423.298
 30
0.000000
  70
    32
  0
VERTEX
  8
0
  5
17DE
 10
227.022
 20
423.296
 30
0.000000
  70
    32
  0
VERTEX
  8
0
  5
17DF
 10
227.018
 20
423.293
 30
0.000000
  70
    32
  0
VERTEX
  8
0
  5
17E0
 10
227.014
 20
423.291
 30
0.000000
  70
    32
  0
VERTEX
  8
0
  5
17E1
 10
227.011
 20
423.288
 30
0.000000
  70
    32
  0
VERTEX
  8
0
  5
17E2
 10
227.007
 20
423.286
 30
0.000000
  70
    32
  0
VERTEX
  8
0
  5
17E3
 10
227.004
 20
423.283
 30
0.000000
  70
    32
  0
VERTEX
  8
0
  5
17E4
 10
227.000
 20
423.280
 30
0.000000
  70
    32
  0
SEQEND
  8
0
  5
17E5
  0
CIRCLE
  5
126B
  8
0
 10
191.5
 20
417.0
 30
0.0
 40
20.5
  0
CIRCLE
  5
126C
  8
0
 10
191.5
 20
417.0
 30
0.0
 40
17.074999999999999
  0
LINE
  5
126D
  8
0
 10
210.94222209522351
 20
410.5
 30
0.0
 11
305.66908740311101
 21
410.5
 31
0.0
  0
LINE
  5
126E
  8
0
 10
305.66908740311101
 20
423.5
 30
0.0
 11
210.94222209522351
 21
423.5
 31
0.0
  0
POLYLINE
  5
126F
  8
0
 10
306.22945787101088
 20
424.68204133391851
 30
0.0
 66
     1
 70
     8
  0
VERTEX
  8
0
  5
17E6
 10
306.229
 20
424.682
 30
0.000000
  70
    32
  0
VERTEX
  8
0
  5
17E7
 10
306.186
 20
424.610
 30
0.000000
  70
    32
  0
VERTEX
  8
0
  5
17E8
 10
306.143
 20
424.535
 30
0.000000
  70
    32
  0
VERTEX
  8
0
  5
17E9
 10
306.101
 20
424.459
 30
0.000000
  70
    32
  0
VERTEX
  8
0
  5
17EA
 10
306.059
 20
424.380
 30
0.000000
  70
    32
  0
VERTEX
  8
0
  5
17EB
 10
306.017
 20
424.300
 30
0.000000
  70
    32
  0
VERTEX
  8
0
  5
17EC
 10
305.976
 20
424.217
 30
0.000000
  70
    32
  0
VERTEX
  8
0
  5
17ED
 10
305.935
 20
424.133
 30
0.000000
  70
    32
  0
VERTEX
  8
0
  5
17EE
 10
305.895
 20
424.046
 30
0.000000
  70
    32
  0
VERTEX
  8
0
  5
17EF
 10
305.855
 20
423.958
 30
0.000000
  70
    32
  0
VERTEX
  8
0
  5
17F0
 10
305.816
 20
423.868
 30
0.000000
  70
    32
  0
VERTEX
  8
0
  5
17F1
 10
305.777
 20
423.776
 30
0.000000
  70
    32
  0
VERTEX
  8
0
  5
17F2
 10
305.739
 20
423.682
 30
0.000000
  70
    32
  0
VERTEX
  8
0
  5
17F3
 10
305.702
 20
423.586
 30
0.000000
  70
    32
  0
VERTEX
  8
0
  5
17F4
 10
305.665
 20
423.488
 30
0.000000
  70
    32
  0
VERTEX
  8
0
  5
17F5
 10
305.628
 20
423.388
 30
0.000000
  70
    32
  0
VERTEX
  8
0
  5
17F6
 10
305.592
 20
423.287
 30
0.000000
  70
    32
  0
VERTEX
  8
0
  5
17F7
 10
305.557
 20
423.184
 30
0.000000
  70
    32
  0
VERTEX
  8
0
  5
17F8
 10
305.522
 20
423.080
 30
0.000000
  70
    32
  0
VERTEX
  8
0
  5
17F9
 10
305.488
 20
422.973
 30
0.000000
  70
    32
  0
VERTEX
  8
0
  5
17FA
 10
305.454
 20
422.865
 30
0.000000
  70
    32
  0
VERTEX
  8
0
  5
17FB
 10
305.421
 20
422.756
 30
0.000000
  70
    32
  0
VERTEX
  8
0
  5
17FC
 10
305.389
 20
422.645
 30
0.000000
  70
    32
  0
VERTEX
  8
0
  5
17FD
 10
305.357
 20
422.532
 30
0.000000
  70
    32
  0
VERTEX
  8
0
  5
17FE
 10
305.326
 20
422.418
 30
0.000000
  70
    32
  0
VERTEX
  8
0
  5
17FF
 10
305.296
 20
422.302
 30
0.000000
  70
    32
  0
VERTEX
  8
0
  5
1800
 10
305.266
 20
422.185
 30
0.000000
  70
    32
  0
VERTEX
  8
0
  5
1801
 10
305.237
 20
422.066
 30
0.000000
  70
    32
  0
VERTEX
  8
0
  5
1802
 10
305.209
 20
421.946
 30
0.000000
  70
    32
  0
VERTEX
  8
0
  5
1803
 10
305.181
 20
421.825
 30
0.000000
  70
    32
  0
VERTEX
  8
0
  5
1804
 10
305.154
 20
421.702
 30
0.000000
  70
    32
  0
VERTEX
  8
0
  5
1805
 10
305.128
 20
421.578
 30
0.000000
  70
    32
  0
VERTEX
  8
0
  5
1806
 10
305.102
 20
421.453
 30
0.000000
  70
    32
  0
VERTEX
  8
0
  5
1807
 10
305.077
 20
421.326
 30
0.000000
  70
    32
  0
VERTEX
  8
0
  5
1808
 10
305.053
 20
421.199
 30
0.000000
  70
    32
  0
VERTEX
  8
0
  5
1809
 10
305.030
 20
421.070
 30
0.000000
  70
    32
  0
VERTEX
  8
0
  5
180A
 10
305.007
 20
420.940
 30
0.000000
  70
    32
  0
VERTEX
  8
0
  5
180B
 10
304.985
 20
420.809
 30
0.000000
  70
    32
  0
VERTEX
  8
0
  5
180C
 10
304.964
 20
420.677
 30
0.000000
  70
    32
  0
VERTEX
  8
0
  5
180D
 10
304.943
 20
420.544
 30
0.000000
  70
    32
  0
VERTEX
  8
0
  5
180E
 10
304.924
 20
420.410
 30
0.000000
  70
    32
  0
VERTEX
  8
0
  5
180F
 10
304.905
 20
420.275
 30
0.000000
  70
    32
  0
VERTEX
  8
0
  5
1810
 10
304.886
 20
420.139
 30
0.000000
  70
    32
  0
VERTEX
  8
0
  5
1811
 10
304.869
 20
420.002
 30
0.000000
  70
    32
  0
VERTEX
  8
0
  5
1812
 10
304.852
 20
419.865
 30
0.000000
  70
    32
  0
VERTEX
  8
0
  5
1813
 10
304.837
 20
419.726
 30
0.000000
  70
    32
  0
VERTEX
  8
0
  5
1814
 10
304.822
 20
419.587
 30
0.000000
  70
    32
  0
VERTEX
  8
0
  5
1815
 10
304.807
 20
419.447
 30
0.000000
  70
    32
  0
VERTEX
  8
0
  5
1816
 10
304.794
 20
419.307
 30
0.000000
  70
    32
  0
VERTEX
  8
0
  5
1817
 10
304.781
 20
419.166
 30
0.000000
  70
    32
  0
VERTEX
  8
0
  5
1818
 10
304.769
 20
419.024
 30
0.000000
  70
    32
  0
VERTEX
  8
0
  5
1819
 10
304.758
 20
418.882
 30
0.000000
  70
    32
  0
VERTEX
  8
0
  5
181A
 10
304.748
 20
418.739
 30
0.000000
  70
    32
  0
VERTEX
  8
0
  5
181B
 10
304.738
 20
418.596
 30
0.000000
  70
    32
  0
VERTEX
  8
0
  5
181C
 10
304.730
 20
418.452
 30
0.000000
  70
    32
  0
VERTEX
  8
0
  5
181D
 10
304.722
 20
418.308
 30
0.000000
  70
    32
  0
VERTEX
  8
0
  5
181E
 10
304.715
 20
418.164
 30
0.000000
  70
    32
  0
VERTEX
  8
0
  5
181F
 10
304.709
 20
418.019
 30
0.000000
  70
    32
  0
VERTEX
  8
0
  5
1820
 10
304.703
 20
417.874
 30
0.000000
  70
    32
  0
VERTEX
  8
0
  5
1821
 10
304.699
 20
417.728
 30
0.000000
  70
    32
  0
VERTEX
  8
0
  5
1822
 10
304.695
 20
417.583
 30
0.000000
  70
    32
  0
VERTEX
  8
0
  5
1823
 10
304.692
 20
417.437
 30
0.000000
  70
    32
  0
VERTEX
  8
0
  5
1824
 10
304.690
 20
417.292
 30
0.000000
  70
    32
  0
VERTEX
  8
0
  5
1825
 10
304.689
 20
417.146
 30
0.000000
  70
    32
  0
VERTEX
  8
0
  5
1826
 10
304.689
 20
417.000
 30
0.000000
  70
    32
  0
VERTEX
  8
0
  5
1827
 10
304.689
 20
416.854
 30
0.000000
  70
    32
  0
VERTEX
  8
0
  5
1828
 10
304.690
 20
416.708
 30
0.000000
  70
    32
  0
VERTEX
  8
0
  5
1829
 10
304.692
 20
416.562
 30
0.000000
  70
    32
  0
VERTEX
  8
0
  5
182A
 10
304.695
 20
416.417
 30
0.000000
  70
    32
  0
VERTEX
  8
0
  5
182B
 10
304.699
 20
416.271
 30
0.000000
  70
    32
  0
VERTEX
  8
0
  5
182C
 10
304.703
 20
416.126
 30
0.000000
  70
    32
  0
VERTEX
  8
0
  5
182D
 10
304.709
 20
415.981
 30
0.000000
  70
    32
  0
VERTEX
  8
0
  5
182E
 10
304.715
 20
415.836
 30
0.000000
  70
    32
  0
VERTEX
  8
0
  5
182F
 10
304.722
 20
415.692
 30
0.000000
  70
    32
  0
VERTEX
  8
0
  5
1830
 10
304.730
 20
415.547
 30
0.000000
  70
    32
  0
VERTEX
  8
0
  5
1831
 10
304.738
 20
415.404
 30
0.000000
  70
    32
  0
VERTEX
  8
0
  5
1832
 10
304.748
 20
415.261
 30
0.000000
  70
    32
  0
VERTEX
  8
0
  5
1833
 10
304.758
 20
415.118
 30
0.000000
  70
    32
  0
VERTEX
  8
0
  5
1834
 10
304.769
 20
414.975
 30
0.000000
  70
    32
  0
VERTEX
  8
0
  5
1835
 10
304.781
 20
414.834
 30
0.000000
  70
    32
  0
VERTEX
  8
0
  5
1836
 10
304.794
 20
414.693
 30
0.000000
  70
    32
  0
VERTEX
  8
0
  5
1837
 10
304.807
 20
414.552
 30
0.000000
  70
    32
  0
VERTEX
  8
0
  5
1838
 10
304.822
 20
414.412
 30
0.000000
  70
    32
  0
VERTEX
  8
0
  5
1839
 10
304.837
 20
414.273
 30
0.000000
  70
    32
  0
VERTEX
  8
0
  5
183A
 10
304.852
 20
414.135
 30
0.000000
  70
    32
  0
VERTEX
  8
0
  5
183B
 10
304.869
 20
413.997
 30
0.000000
  70
    32
  0
VERTEX
  8
0
  5
183C
 10
304.887
 20
413.861
 30
0.000000
  70
    32
  0
VERTEX
  8
0
  5
183D
 10
304.905
 20
413.725
 30
0.000000
  70
    32
  0
VERTEX
  8
0
  5
183E
 10
304.924
 20
413.590
 30
0.000000
  70
    32
  0
VERTEX
  8
0
  5
183F
 10
304.943
 20
413.456
 30
0.000000
  70
    32
  0
VERTEX
  8
0
  5
1840
 10
304.964
 20
413.323
 30
0.000000
  70
    32
  0
VERTEX
  8
0
  5
1841
 10
304.985
 20
413.191
 30
0.000000
  70
    32
  0
VERTEX
  8
0
  5
1842
 10
305.007
 20
413.060
 30
0.000000
  70
    32
  0
VERTEX
  8
0
  5
1843
 10
305.030
 20
412.930
 30
0.000000
  70
    32
  0
VERTEX
  8
0
  5
1844
 10
305.053
 20
412.801
 30
0.000000
  70
    32
  0
VERTEX
  8
0
  5
1845
 10
305.077
 20
412.673
 30
0.000000
  70
    32
  0
VERTEX
  8
0
  5
1846
 10
305.102
 20
412.547
 30
0.000000
  70
    32
  0
VERTEX
  8
0
  5
1847
 10
305.128
 20
412.422
 30
0.000000
  70
    32
  0
VERTEX
  8
0
  5
1848
 10
305.154
 20
412.298
 30
0.000000
  70
    32
  0
VERTEX
  8
0
  5
1849
 10
305.181
 20
412.175
 30
0.000000
  70
    32
  0
VERTEX
  8
0
  5
184A
 10
305.209
 20
412.054
 30
0.000000
  70
    32
  0
VERTEX
  8
0
  5
184B
 10
305.237
 20
411.934
 30
0.000000
  70
    32
  0
VERTEX
  8
0
  5
184C
 10
305.266
 20
411.815
 30
0.000000
  70
    32
  0
VERTEX
  8
0
  5
184D
 10
305.296
 20
411.698
 30
0.000000
  70
    32
  0
VERTEX
  8
0
  5
184E
 10
305.326
 20
411.582
 30
0.000000
  70
    32
  0
VERTEX
  8
0
  5
184F
 10
305.357
 20
411.468
 30
0.000000
  70
    32
  0
VERTEX
  8
0
  5
1850
 10
305.389
 20
411.355
 30
0.000000
  70
    32
  0
VERTEX
  8
0
  5
1851
 10
305.421
 20
411.244
 30
0.000000
  70
    32
  0
VERTEX
  8
0
  5
1852
 10
305.454
 20
411.134
 30
0.000000
  70
    32
  0
VERTEX
  8
0
  5
1853
 10
305.488
 20
411.026
 30
0.000000
  70
    32
  0
VERTEX
  8
0
  5
1854
 10
305.522
 20
410.920
 30
0.000000
  70
    32
  0
VERTEX
  8
0
  5
1855
 10
305.557
 20
410.815
 30
0.000000
  70
    32
  0
VERTEX
  8
0
  5
1856
 10
305.592
 20
410.712
 30
0.000000
  70
    32
  0
VERTEX
  8
0
  5
1857
 10
305.628
 20
410.611
 30
0.000000
  70
    32
  0
VERTEX
  8
0
  5
1858
 10
305.665
 20
410.512
 30
0.000000
  70
    32
  0
VERTEX
  8
0
  5
1859
 10
305.702
 20
410.414
 30
0.000000
  70
    32
  0
VERTEX
  8
0
  5
185A
 10
305.739
 20
410.318
 30
0.000000
  70
    32
  0
VERTEX
  8
0
  5
185B
 10
305.778
 20
410.224
 30
0.000000
  70
    32
  0
VERTEX
  8
0
  5
185C
 10
305.816
 20
410.132
 30
0.000000
  70
    32
  0
VERTEX
  8
0
  5
185D
 10
305.855
 20
410.042
 30
0.000000
  70
    32
  0
VERTEX
  8
0
  5
185E
 10
305.895
 20
409.953
 30
0.000000
  70
    32
  0
VERTEX
  8
0
  5
185F
 10
305.935
 20
409.867
 30
0.000000
  70
    32
  0
VERTEX
  8
0
  5
1860
 10
305.976
 20
409.782
 30
0.000000
  70
    32
  0
VERTEX
  8
0
  5
1861
 10
306.017
 20
409.700
 30
0.000000
  70
    32
  0
VERTEX
  8
0
  5
1862
 10
306.059
 20
409.619
 30
0.000000
  70
    32
  0
VERTEX
  8
0
  5
1863
 10
306.101
 20
409.541
 30
0.000000
  70
    32
  0
VERTEX
  8
0
  5
1864
 10
306.143
 20
409.464
 30
0.000000
  70
    32
  0
VERTEX
  8
0
  5
1865
 10
306.186
 20
409.390
 30
0.000000
  70
    32
  0
VERTEX
  8
0
  5
1866
 10
306.230
 20
409.318
 30
0.000000
  70
    32
  0
SEQEND
  8
0
  5
1867
  0
POLYLINE
  5
1270
  8
0
 66
     1
 10
0.0
 20
0.0
 30
0.0
  0
VERTEX
  5
14D5
  8
0
 10
306.22958534314319
 20
409.31775022104648
 30
0.0
  0
VERTEX
  5
14D6
  8
0
 10
306.50327305849879
 20
408.88842078985022
 30
0.0
  0
VERTEX
  5
14D7
  8
0
 10
306.86647513887129
 20
408.36243950163561
 30
0.0
  0
VERTEX
  5
14D8
  8
0
 10
307.25172950497807
 20
407.85059701268131
 30
0.0
  0
VERTEX
  5
14D9
  8
0
 10
307.65835702637719
 20
407.353960156943
 30
0.0
  0
VERTEX
  5
14DA
  8
0
 10
308.08564234232529
 20
406.873540697625
 30
0.0
  0
VERTEX
  5
14DB
  8
0
 10
308.53283644958628
 20
406.41029689977393
 30
0.0
  0
VERTEX
  5
14DC
  8
0
 10
308.9991587409703
 20
405.96513545095007
 30
0.0
  0
VERTEX
  5
14DD
  8
0
 10
309.48379869004719
 20
405.538913313325
 30
0.0
  0
VERTEX
  5
14DE
  8
0
 10
309.98591732581508
 20
405.13243931594212
 30
0.0
  0
VERTEX
  5
14DF
  8
0
 10
310.5046485966933
 20
404.74647542339147
 30
0.0
  0
VERTEX
  5
14E0
  8
0
 10
311.0391006894418
 20
404.38173768381569
 30
0.0
  0
VERTEX
  5
14E1
  8
0
 10
311.64930225764442
 20
404.00274739476771
 30
0.0
  0
VERTEX
  5
14E2
  8
0
 10
312.27507753916149
 20
403.65228022555192
 30
0.0
  0
VERTEX
  5
14E3
  8
0
 10
312.91336038038281
 20
403.33171818378099
 30
0.0
  0
VERTEX
  5
14E4
  8
0
 10
313.5627299962585
 20
403.04131403131782
 30
0.0
  0
VERTEX
  5
14E5
  8
0
 10
314.22181464688862
 20
402.78124688767161
 30
0.0
  0
VERTEX
  5
14E6
  8
0
 10
314.88925004072871
 20
402.55164683618722
 30
0.0
  0
VERTEX
  5
14E7
  8
0
 10
315.56367899014151
 20
402.3525950023847
 30
0.0
  0
VERTEX
  5
14E8
  8
0
 10
316.24375233822542
 20
402.18412313071451
 30
0.0
  0
VERTEX
  5
14E9
  8
0
 10
316.9281301445688
 20
402.04621321794519
 30
0.0
  0
VERTEX
  5
14EA
  8
0
 10
317.61548305730258
 20
401.93879724128777
 30
0.0
  0
VERTEX
  5
14EB
  8
0
 10
318.30449382900127
 20
401.86175699721451
 30
0.0
  0
VERTEX
  5
14EC
  8
0
 10
318.99385894249099
 20
401.8149240585729
 30
0.0
  0
VERTEX
  5
14ED
  8
0
 10
319.68229031898261
 20
401.79807985228888
 30
0.0
  0
VERTEX
  5
14EE
  8
0
 10
320.36851708593298
 20
401.81095585653799
 30
0.0
  0
VERTEX
  5
14EF
  8
0
 10
321.05128597168908
 20
401.85323379592768
 30
0.0
  0
VERTEX
  5
14F0
  8
0
 10
321.72936418148629
 20
401.92454589189668
 30
0.0
  0
VERTEX
  5
14F1
  8
0
 10
322.40154347286352
 20
402.02447568739768
 30
0.0
  0
VERTEX
  5
14F2
  8
0
 10
323.06664012335239
 20
402.15255867208748
 30
0.0
  0
VERTEX
  5
14F3
  8
0
 10
323.72349677240231
 20
402.30828299560523
 30
0.0
  0
VERTEX
  5
14F4
  8
0
 10
324.3709842462095
 20
402.49109026680958
 30
0.0
  0
VERTEX
  5
14F5
  8
0
 10
325.00800335921321
 20
402.70037643156019
 30
0.0
  0
VERTEX
  5
14F6
  8
0
 10
325.63348668642863
 20
402.93549272144628
 30
0.0
  0
VERTEX
  5
14F7
  8
0
 10
326.24640030168172
 20
403.19574666576398
 30
0.0
  0
VERTEX
  5
14F8
  8
0
 10
326.84574547759217
 20
403.48040315897902
 30
0.0
  0
VERTEX
  5
14F9
  8
0
 10
327.43056034394948
 20
403.78868557601328
 30
0.0
  0
VERTEX
  5
14FA
  8
0
 10
327.9999215019397
 20
404.1197769280347
 30
0.0
  0
VERTEX
  5
14FB
  8
0
 10
328.55294559261631
 20
404.47282105225372
 30
0.0
  0
VERTEX
  5
14FC
  8
0
 10
329.08879081916808
 20
404.84692383091817
 30
0.0
  0
VERTEX
  5
14FD
  8
0
 10
329.60665842405899
 20
405.24115443784439
 30
0.0
  0
VERTEX
  5
14FE
  8
0
 10
330.10579412423999
 20
405.65454661650119
 30
0.0
  0
VERTEX
  5
14FF
  8
0
 10
330.5854895106495
 20
406.08610000359249
 30
0.0
  0
VERTEX
  5
1500
  8
0
 10
331.0450834225548
 20
406.53478152915278
 30
0.0
  0
VERTEX
  5
1501
  8
0
 10
331.48396331344742
 20
406.99952695308309
 30
0.0
  0
VERTEX
  5
1502
  8
0
 10
331.90156663365087
 20
407.47924264646372
 30
0.0
  0
VERTEX
  5
1503
  8
0
 10
332.29738226581549
 20
407.97280780610481
 30
0.0
  0
VERTEX
  5
1504
  8
0
 10
332.67095206214731
 20
408.47907742149249
 30
0.0
  0
VERTEX
  5
1505
  8
0
 10
333.02187254310678
 20
408.99688652245618
 30
0.0
  0
VERTEX
  5
1506
  8
0
 10
333.34979681678851
 20
409.52505656137771
 30
0.0
  0
VERTEX
  5
1507
  8
0
 10
333.65443674390173
 20
410.06240526832988
 30
0.0
  0
VERTEX
  5
1508
  8
0
 10
333.93556525834708
 20
410.60776198641031
 30
0.0
  0
VERTEX
  5
1509
  8
0
 10
334.19301846817751
 20
411.15999128923221
 30
0.0
  0
VERTEX
  5
150A
  8
0
 10
334.42669655259789
 20
411.7180282972617
 30
0.0
  0
VERTEX
  5
150B
  8
0
 10
334.63656131833949
 20
412.2809286380118
 30
0.0
  0
VERTEX
  5
150C
  8
0
 10
334.82262639217322
 20
412.84793228456869
 30
0.0
  0
VERTEX
  5
150D
  8
0
 10
334.9849336493059
 20
413.41852938742301
 30
0.0
  0
VERTEX
  5
150E
  8
0
 10
335.1235084950211
 20
413.99249233691779
 30
0.0
  0
VERTEX
  5
150F
  8
0
 10
335.23829310695561
 20
414.56980541389771
 30
0.0
  0
VERTEX
  5
1510
  8
0
 10
335.32908219518401
 20
415.15043501140548
 30
0.0
  0
VERTEX
  5
1511
  8
0
 10
335.39552788290678
 20
415.73410949846237
 30
0.0
  0
VERTEX
  5
1512
  8
0
 10
335.4372510135135
 20
416.320820189681
 30
0.0
  0
VERTEX
  5
1513
  8
0
 10
335.4538457522055
 20
416.9127387623185
 30
0.0
  0
VERTEX
  5
1514
  8
0
 10
335.44437298477249
 20
417.51629949745188
 30
0.0
  0
VERTEX
  5
1515
  8
0
 10
335.40657916176622
 20
418.1402382050357
 30
0.0
  0
VERTEX
  5
1516
  8
0
 10
335.33676191923439
 20
418.79183856741912
 30
0.0
  0
VERTEX
  5
1517
  8
0
 10
335.24574304694181
 20
419.38787958850128
 30
0.0
  0
VERTEX
  5
1518
  8
0
 10
335.12800893671431
 20
419.98699022532742
 30
0.0
  0
VERTEX
  5
1519
  8
0
 10
334.98389642814698
 20
420.58541409631772
 30
0.0
  0
VERTEX
  5
151A
  8
0
 10
334.81377947110082
 20
421.1808574905503
 30
0.0
  0
VERTEX
  5
151B
  8
0
 10
334.61796928982773
 20
421.7718267080117
 30
0.0
  0
VERTEX
  5
151C
  8
0
 10
334.39675351116978
 20
422.35707892163549
 30
0.0
  0
VERTEX
  5
151D
  8
0
 10
334.15044732097709
 20
422.93539017184003
 30
0.0
  0
VERTEX
  5
151E
  8
0
 10
333.87942107699331
 20
423.50550655821093
 30
0.0
  0
VERTEX
  5
151F
  8
0
 10
333.5841084014059
 20
424.06616028133362
 30
0.0
  0
VERTEX
  5
1520
  8
0
 10
333.26500409405452
 20
424.61609701176093
 30
0.0
  0
VERTEX
  5
1521
  8
0
 10
332.92265830553168
 20
425.15409731517138
 30
0.0
  0
VERTEX
  5
1522
  8
0
 10
332.55767025213709
 20
425.67898947563668
 30
0.0
  0
VERTEX
  5
1523
  8
0
 10
332.17068276846891
 20
426.18965555387649
 30
0.0
  0
VERTEX
  5
1524
  8
0
 10
331.76237799173549
 20
426.68503315385033
 30
0.0
  0
VERTEX
  5
1525
  8
0
 10
331.33347405704222
 20
427.16411485291468
 30
0.0
  0
VERTEX
  5
1526
  8
0
 10
330.88472256184048
 20
427.62594657850741
 30
0.0
  0
VERTEX
  5
1527
  8
0
 10
330.41690656214899
 20
428.06962568140528
 30
0.0
  0
VERTEX
  5
1528
  8
0
 10
329.93083890925249
 20
428.49429909955478
 30
0.0
  0
VERTEX
  5
1529
  8
0
 10
329.42736078701512
 20
428.89916179050812
 30
0.0
  0
VERTEX
  5
152A
  8
0
 10
328.90734035352392
 20
429.28345548906168
 30
0.0
  0
VERTEX
  5
152B
  8
0
 10
328.309755065714
 20
429.68640365745239
 30
0.0
  0
VERTEX
  5
152C
  8
0
 10
327.69528787143531
 20
430.0613032959705
 30
0.0
  0
VERTEX
  5
152D
  8
0
 10
327.06716612464788
 20
430.40652822516108
 30
0.0
  0
VERTEX
  5
152E
  8
0
 10
326.4268240686178
 20
430.72177864564378
 30
0.0
  0
VERTEX
  5
152F
  8
0
 10
325.77563883724878
 20
431.00683558126229
 30
0.0
  0
VERTEX
  5
1530
  8
0
 10
325.11498006397539
 20
431.26152898202253
 30
0.0
  0
VERTEX
  5
1531
  8
0
 10
324.44621082464499
 20
431.485737387771
 30
0.0
  0
VERTEX
  5
1532
  8
0
 10
323.77068696448521
 20
431.67938836586649
 30
0.0
  0
VERTEX
  5
1533
  8
0
 10
323.08975610453621
 20
431.84245893521302
 30
0.0
  0
VERTEX
  5
1534
  8
0
 10
322.40475641918772
 20
431.97497591790511
 30
0.0
  0
VERTEX
  5
1535
  8
0
 10
321.71701523591122
 20
432.0770161924201
 30
0.0
  0
VERTEX
  5
1536
  8
0
 10
321.0278474976771
 20
432.14870683427398
 30
0.0
  0
VERTEX
  5
1537
  8
0
 10
320.33855412075923
 20
432.19022513765481
 30
0.0
  0
VERTEX
  5
1538
  8
0
 10
319.65042027452921
 20
432.20179851645929
 30
0.0
  0
VERTEX
  5
1539
  8
0
 10
318.96471360508588
 20
432.18370428631431
 30
0.0
  0
VERTEX
  5
153A
  8
0
 10
318.28268440640181
 20
432.1362695122375
 30
0.0
  0
VERTEX
  5
153B
  8
0
 10
317.6055610135225
 20
432.0598706228958
 30
0.0
  0
VERTEX
  5
153C
  8
0
 10
316.93454747170892
 20
431.95493261145862
 30
0.0
  0
VERTEX
  5
153D
  8
0
 10
316.27082298029961
 20
431.82192840498919
 30
0.0
  0
VERTEX
  5
153E
  8
0
 10
315.61554005296091
 20
431.6613781354319
 30
0.0
  0
VERTEX
  5
153F
  8
0
 10
314.96982269651232
 20
431.4738483259527
 30
0.0
  0
VERTEX
  5
1540
  8
0
 10
314.33476461418951
 20
431.25995100007259
 30
0.0
  0
VERTEX
  5
1541
  8
0
 10
313.71142743899418
 20
431.02034272120011
 30
0.0
  0
VERTEX
  5
1542
  8
0
 10
313.10083900193979
 20
430.75572357029228
 30
0.0
  0
VERTEX
  5
1543
  8
0
 10
312.50399163919582
 20
430.46683606939013
 30
0.0
  0
VERTEX
  5
1544
  8
0
 10
311.92184054134862
 20
430.1544640586618
 30
0.0
  0
VERTEX
  5
1545
  8
0
 10
311.35530214717249
 20
429.81943153416728
 30
0.0
  0
VERTEX
  5
1546
  8
0
 10
310.80525258332301
 20
429.46260145262079
 30
0.0
  0
VERTEX
  5
1547
  8
0
 10
310.27252615017142
 20
429.08487450753199
 30
0.0
  0
VERTEX
  5
1548
  8
0
 10
309.75791385237522
 20
428.68718787760912
 30
0.0
  0
VERTEX
  5
1549
  8
0
 10
309.26216197053299
 20
428.2705139420267
 30
0.0
  0
VERTEX
  5
154A
  8
0
 10
308.78597066704071
 20
427.83585894621621
 30
0.0
  0
VERTEX
  5
154B
  8
0
 10
308.32999261466853
 20
427.38426158310278
 30
0.0
  0
VERTEX
  5
154C
  8
0
 10
307.89483162982441
 20
426.91679142299569
 30
0.0
  0
VERTEX
  5
154D
  8
0
 10
307.48104128358369
 20
426.43454707238948
 30
0.0
  0
VERTEX
  5
154E
  8
0
 10
307.0891234521431
 20
425.93865385447589
 30
0.0
  0
VERTEX
  5
154F
  8
0
 10
306.7195267556271
 20
425.4302606619147
 30
0.0
  0
VERTEX
  5
1550
  8
0
 10
306.3726448243558
 20
424.91053540572261
 30
0.0
  0
VERTEX
  5
1551
  8
0
 10
306.22945787101088
 20
424.68204133391839
 30
0.0
  0
SEQEND
  5
1552
  8
0
  0
LINE
  5
1271
  8
1
 10
166.0
 20
417.0
 30
0.0
 11
340.45309198344648
 21
417.0
 31
0.0
  0
LINE
  5
1272
  8
1
 10
191.5
 20
391.5
 30
0.0
 11
191.5
 21
442.49999999999989
 31
0.0
  0
LINE
  5
127B
  8
0
 10
430.95412432972063
 20
231.0
 30
0.0
 11
400.95412432972063
 21
231.0
 31
0.0
  0
LINE
  5
127C
  8
0
 10
400.95412432972063
 20
238.5
 30
0.0
 11
400.95412432972063
 21
231.0
 31
0.0
  0
LINE
  5
127D
  8
0
 10
430.95412432972063
 20
231.0
 30
0.0
 11
430.95412432972063
 21
238.5
 31
0.0
  0
LINE
  5
127E
  8
0
 10
409.45412432972063
 20
299.5
 30
0.0
 11
398.8791243297207
 21
299.5
 31
0.0
  0
LINE
  5
127F
  8
0
 10
433.02912432972062
 20
299.5
 30
0.0
 11
422.45412432972063
 21
299.5
 31
0.0
  0
LINE
  5
1280
  8
0
 10
398.8791243297207
 20
299.5
 30
0.0
 11
395.45412432972068
 21
296.07499999999999
 31
0.0
  0
LINE
  5
1281
  8
0
 10
436.45412432972068
 20
296.07499999999999
 30
0.0
 11
433.02912432972062
 21
299.5
 31
0.0
  0
LINE
  5
1282
  8
0
 10
435.70412432972063
 20
238.5
 30
0.0
 11
396.20412432972068
 21
238.5
 31
0.0
  0
LINE
  5
1283
  8
0
 10
435.70412432972063
 20
238.5
 30
0.0
 11
436.45412432972068
 21
239.25
 31
0.0
  0
LINE
  5
1284
  8
0
 10
395.45412432972068
 20
239.25
 30
0.0
 11
396.20412432972068
 21
238.5
 31
0.0
  0
LINE
  5
1285
  8
0
 10
436.45412432972068
 20
239.25
 30
0.0
 11
395.45412432972068
 21
239.25
 31
0.0
  0
LINE
  5
1286
  8
0
 10
409.45412432972063
 20
296.07499999999999
 30
0.0
 11
395.45412432972068
 21
296.07499999999999
 31
0.0
  0
LINE
  5
1287
  8
0
 10
436.45412432972068
 20
296.07499999999999
 30
0.0
 11
422.45412432972063
 21
296.07499999999999
 31
0.0
  0
LINE
  5
1288
  8
0
 10
395.45412432972068
 20
296.07499999999999
 30
0.0
 11
395.45412432972068
 21
239.25
 31
0.0
  0
LINE
  5
1289
  8
0
 10
436.45412432972068
 20
239.25
 30
0.0
 11
436.45412432972068
 21
296.07499999999999
 31
0.0
  0
ARC
  5
128A
  8
0
 10
415.95412432972068
 20
287.5
 30
0.0
 40
6.4999999999999991
 50
178.2720589276193
 51
1.727941072380738
  0
ARC
  5
128B
  8
0
 10
415.95412432972
 20
287.89199796489152
 30
0.0
 40
6.4999999999994031
 50
180.0
 51
181.72794107234489
  0
ARC
  5
128C
  8
0
 10
415.9541243297208
 20
287.89199796489152
 30
0.0
 40
6.4999999999998082
 50
358.27205892765181
 51
0.0
  0
LINE
  5
128D
  8
0
 10
422.45412432972063
 20
287.89199796489152
 30
0.0
 11
422.45412432972063
 21
307.46788920985142
 31
0.0
  0
LINE
  5
128E
  8
0
 10
409.45412432972063
 20
307.46735455160689
 30
0.0
 11
409.45412432972063
 21
287.89199796489152
 31
0.0
  0
POLYLINE
  5
128F
  8
0
 66
     1
 10
0.0
 20
0.0
 30
0.0
  0
VERTEX
  5
1553
  8
0
 10
415.95412432972068
 20
336.5
 30
0.0
  0
VERTEX
  5
1554
  8
0
 10
415.3199025693616
 20
336.4867197395032
 30
0.0
  0
VERTEX
  5
1555
  8
0
 10
414.65129886853492
 20
336.4438813899107
 30
0.0
  0
VERTEX
  5
1556
  8
0
 10
413.98485304171879
 20
336.37147764263182
 30
0.0
  0
VERTEX
  5
1557
  8
0
 10
413.32187431501649
 20
336.26960144195471
 30
0.0
  0
VERTEX
  5
1558
  8
0
 10
412.66366381078859
 20
336.13840399845992
 30
0.0
  0
VERTEX
  5
1559
  8
0
 10
412.01152019295949
 20
335.97809582483541
 30
0.0
  0
VERTEX
  5
155A
  8
0
 10
411.36673675781532
 20
335.78894725630909
 30
0.0
  0
VERTEX
  5
155B
  8
0
 10
410.73059838198662
 20
335.57128878004602
 30
0.0
  0
VERTEX
  5
155C
  8
0
 10
410.10437835265878
 20
335.32551115055082
 30
0.0
  0
VERTEX
  5
155D
  8
0
 10
409.48933510535011
 20
335.05206527153189
 30
0.0
  0
VERTEX
  5
155E
  8
0
 10
408.88670889817479
 20
334.75146182920258
 30
0.0
  0
VERTEX
  5
155F
  8
0
 10
408.29771845401092
 20
334.42427066706352
 30
0.0
  0
VERTEX
  5
1560
  8
0
 10
407.72355760334642
 20
334.07111989752718
 30
0.0
  0
VERTEX
  5
1561
  8
0
 10
407.1653919607586
 20
333.69269475106222
 30
0.0
  0
VERTEX
  5
1562
  8
0
 10
406.62435566706
 20
333.28973616858872
 30
0.0
  0
VERTEX
  5
1563
  8
0
 10
406.10154822727372
 20
332.86303914746441
 30
0.0
  0
VERTEX
  5
1564
  8
0
 10
405.598031471914
 20
332.41345085536062
 30
0.0
  0
VERTEX
  5
1565
  8
0
 10
405.11482666577137
 20
331.94186852957432
 30
0.0
  0
VERTEX
  5
1566
  8
0
 10
404.65291178474331
 20
331.44923718177529
 30
0.0
  0
VERTEX
  5
1567
  8
0
 10
404.21321897739989
 20
330.93654712986279
 30
0.0
  0
VERTEX
  5
1568
  8
0
 10
403.79663222410983
 20
330.4048313795326
 30
0.0
  0
VERTEX
  5
1569
  8
0
 10
403.40398520284378
 20
329.85516287842029
 30
0.0
  0
VERTEX
  5
156A
  8
0
 10
403.03605936731418
 20
329.28865166537292
 30
0.0
  0
VERTEX
  5
156B
  8
0
 10
402.69358223999791
 20
328.70644193662122
 30
0.0
  0
VERTEX
  5
156C
  8
0
 10
402.3772259198775
 20
328.10970904949039
 30
0.0
  0
VERTEX
  5
156D
  8
0
 10
402.08760580243552
 20
327.49965648290151
 30
0.0
  0
VERTEX
  5
156E
  8
0
 10
401.82527950754491
 20
326.87751277235839
 30
0.0
  0
VERTEX
  5
156F
  8
0
 10
401.59074600941352
 20
326.2445284355108
 30
0.0
  0
VERTEX
  5
1570
  8
0
 10
401.38444496159832
 20
325.6019729027368
 30
0.0
  0
VERTEX
  5
1571
  8
0
 10
401.20675620928779
 20
324.95113146561198
 30
0.0
  0
VERTEX
  5
1572
  8
0
 10
401.0579994805031
 20
324.29330225463548
 30
0.0
  0
VERTEX
  5
1573
  8
0
 10
400.93843424753697
 20
323.62979325618369
 30
0.0
  0
VERTEX
  5
1574
  8
0
 10
400.84825974979901
 20
322.961919377404
 30
0.0
  0
VERTEX
  5
1575
  8
0
 10
400.78761516921622
 20
322.29099956662799
 30
0.0
  0
VERTEX
  5
1576
  8
0
 10
400.75657994941412
 20
321.6183539958763
 30
0.0
  0
VERTEX
  5
1577
  8
0
 10
400.75517425003949
 20
320.94530131115539
 30
0.0
  0
VERTEX
  5
1578
  8
0
 10
400.7833595277578
 20
320.27315595547373
 30
0.0
  0
VERTEX
  5
1579
  8
0
 10
400.84103886608062
 20
319.60322898150378
 30
0.0
  0
VERTEX
  5
157A
  8
0
 10
400.9280580534591
 20
318.93681879183112
 30
0.0
  0
VERTEX
  5
157B
  8
0
 10
401.04420661386843
 20
318.27521180487793
 30
0.0
  0
VERTEX
  5
157C
  8
0
 10
401.18921881569372
 20
317.61968027989838
 30
0.0
  0
VERTEX
  5
157D
  8
0
 10
401.36277477065352
 20
316.97148005889272
 30
0.0
  0
VERTEX
  5
157E
  8
0
 10
401.56450161163099
 20
316.33184839952622
 30
0.0
  0
VERTEX
  5
157F
  8
0
 10
401.79397474174039
 20
315.70200190046972
 30
0.0
  0
VERTEX
  5
1580
  8
0
 10
402.0507191469261
 20
315.08313452014482
 30
0.0
  0
VERTEX
  5
1581
  8
0
 10
402.33421076435297
 20
314.47641568938491
 30
0.0
  0
VERTEX
  5
1582
  8
0
 10
402.64387789879049
 20
313.88298851802
 30
0.0
  0
VERTEX
  5
1583
  8
0
 10
402.97910267913892
 20
313.30396809480942
 30
0.0
  0
VERTEX
  5
1584
  8
0
 10
403.33922254721091
 20
312.74043987952621
 30
0.0
  0
VERTEX
  5
1585
  8
0
 10
403.72353177089138
 20
312.19345818527881
 30
0.0
  0
VERTEX
  5
1586
  8
0
 10
404.13128297386328
 20
311.66404474839243
 30
0.0
  0
VERTEX
  5
1587
  8
0
 10
404.56168867425458
 20
311.1531873823053
 30
0.0
  0
VERTEX
  5
1588
  8
0
 10
405.01392282482681
 20
310.66183871105369
 30
0.0
  0
VERTEX
  5
1589
  8
0
 10
405.48712234776508
 20
310.19091497692841
 30
0.0
  0
VERTEX
  5
158A
  8
0
 10
405.98038865771491
 20
309.74129491593021
 30
0.0
  0
VERTEX
  5
158B
  8
0
 10
406.49278916752769
 20
309.31381869364708
 30
0.0
  0
VERTEX
  5
158C
  8
0
 10
407.02335877220821
 20
308.90928689323698
 30
0.0
  0
VERTEX
  5
158D
  8
0
 10
407.57110130784662
 20
308.52845954633329
 30
0.0
  0
VERTEX
  5
158E
  8
0
 10
408.1349909838612
 20
308.17205519696961
 30
0.0
  0
VERTEX
  5
158F
  8
0
 10
408.71397378870063
 20
307.8407499880816
 30
0.0
  0
VERTEX
  5
1590
  8
0
 10
409.30696887120718
 20
307.53517675988923
 30
0.0
  0
VERTEX
  5
1591
  8
0
 10
409.91286990214161
 20
307.2559241495303
 30
0.0
  0
VERTEX
  5
1592
  8
0
 10
410.53054642280318
 20
307.00353568180128
 30
0.0
  0
VERTEX
  5
1593
  8
0
 10
411.15884519024701
 20
306.77850884179782
 30
0.0
  0
VERTEX
  5
1594
  8
0
 10
411.79659153113118
 20
306.5812941217294
 30
0.0
  0
VERTEX
  5
1595
  8
0
 10
412.44259071865918
 20
306.41229403619673
 30
0.0
  0
VERTEX
  5
1596
  8
0
 10
413.09562938921653
 20
306.27186210281758
 30
0.0
  0
VERTEX
  5
1597
  8
0
 10
413.7544770170619
 20
306.16030178820199
 30
0.0
  0
VERTEX
  5
1598
  8
0
 10
414.41788746654561
 20
306.07786542287801
 30
0.0
  0
VERTEX
  5
1599
  8
0
 10
415.08460064176307
 20
306.02475309271779
 30
0.0
  0
VERTEX
  5
159A
  8
0
 10
415.75334425306312
 20
306.00111151858152
 30
0.0
  0
VERTEX
  5
159B
  8
0
 10
416.42283571840272
 20
306.0070329400657
 30
0.0
  0
VERTEX
  5
159C
  8
0
 10
417.09178316862068
 20
306.04255394441748
 30
0.0
  0
VERTEX
  5
159D
  8
0
 10
417.7588856110483
 20
306.10765394187138
 30
0.0
  0
VERTEX
  5
159E
  8
0
 10
418.42284271377611
 20
306.20225471162371
 30
0.0
  0
VERTEX
  5
159F
  8
0
 10
419.08235318352962
 20
306.32621960651528
 30
0.0
  0
VERTEX
  5
15A0
  8
0
 10
419.73611748419057
 20
306.47935283193658
 30
0.0
  0
VERTEX
  5
15A1
  8
0
 10
420.38284071332282
 20
306.6613988825539
 30
0.0
  0
VERTEX
  5
15A2
  8
0
 10
421.02123562166747
 20
306.87204216347351
 30
0.0
  0
VERTEX
  5
15A3
  8
0
 10
421.65002575601449
 20
307.11090681994602
 30
0.0
  0
VERTEX
  5
15A4
  8
0
 10
422.26794870113781
 20
307.37755679617658
 30
0.0
  0
VERTEX
  5
15A5
  8
0
 10
422.87375939267429
 20
307.67149613943548
 30
0.0
  0
VERTEX
  5
15A6
  8
0
 10
423.46623347003941
 20
307.99216956071592
 30
0.0
  0
VERTEX
  5
15A7
  8
0
 10
424.04417063682632
 20
308.33896325790261
 30
0.0
  0
VERTEX
  5
15A8
  8
0
 10
424.60639799567639
 20
308.711206002072
 30
0.0
  0
VERTEX
  5
15A9
  8
0
 10
425.1517733252669
 20
309.10817048240813
 30
0.0
  0
VERTEX
  5
15AA
  8
0
 10
425.67918826869828
 20
309.52907490047858
 30
0.0
  0
VERTEX
  5
15AB
  8
0
 10
426.1875714050916
 20
309.97308480048957
 30
0.0
  0
VERTEX
  5
15AC
  8
0
 10
426.67589117933159
 20
310.4393151187017
 30
0.0
  0
VERTEX
  5
15AD
  8
0
 10
427.1431586684887
 20
310.9268324325393
 30
0.0
  0
VERTEX
  5
15AE
  8
0
 10
427.5884301672736
 20
311.43465738806691
 30
0.0
  0
VERTEX
  5
15AF
  8
0
 10
428.01080957874541
 20
311.96176728338833
 30
0.0
  0
VERTEX
  5
15B0
  8
0
 10
428.40945060026701
 20
312.50709878511913
 30
0.0
  0
VERTEX
  5
15B1
  8
0
 10
428.78355869821638
 20
313.06955075524559
 30
0.0
  0
VERTEX
  5
15B2
  8
0
 10
429.13239286817878
 20
313.64798716637779
 30
0.0
  0
VERTEX
  5
15B3
  8
0
 10
429.45526718014702
 20
314.24124008444147
 30
0.0
  0
VERTEX
  5
15B4
  8
0
 10
429.75155211066931
 20
314.8481126992026
 30
0.0
  0
VERTEX
  5
15B5
  8
0
 10
430.02067566586987
 20
315.46738238453162
 30
0.0
  0
VERTEX
  5
15B6
  8
0
 10
430.26212430085138
 20
316.09780377191709
 30
0.0
  0
VERTEX
  5
15B7
  8
0
 10
430.47544364221397
 20
316.7381118223837
 30
0.0
  0
VERTEX
  5
15B8
  8
0
 10
430.66023902131622
 20
317.38702488355722
 30
0.0
  0
VERTEX
  5
15B9
  8
0
 10
430.8161758265129
 20
318.04324772015411
 30
0.0
  0
VERTEX
  5
15BA
  8
0
 10
430.94297968299139
 20
318.70547450758392
 30
0.0
  0
VERTEX
  5
15BB
  8
0
 10
431.04043646900919
 20
319.37239177965512
 30
0.0
  0
VERTEX
  5
15BC
  8
0
 10
431.10839217739272
 20
320.04268132253981
 30
0.0
  0
VERTEX
  5
15BD
  8
0
 10
431.14675263109689
 20
320.71502300818128
 30
0.0
  0
VERTEX
  5
15BE
  8
0
 10
431.15548306150231
 20
321.38809756124698
 30
0.0
  0
VERTEX
  5
15BF
  8
0
 10
431.13460755796012
 20
322.0605892545135
 30
0.0
  0
VERTEX
  5
15C0
  8
0
 10
431.08420864321909
 20
322.73118599705612
 30
0.0
  0
VERTEX
  5
15C1
  8
0
 10
431.00442647709241
 20
323.39858594382122
 30
0.0
  0
VERTEX
  5
15C2
  8
0
 10
430.8954577137298
 20
324.0614995339393
 30
0.0
  0
VERTEX
  5
15C3
  8
0
 10
430.75755452152708
 20
324.71865079359691
 30
0.0
  0
VERTEX
  5
15C4
  8
0
 10
430.59102350490252
 20
325.36877961631632
 30
0.0
  0
VERTEX
  5
15C5
  8
0
 10
430.39622454526142
 20
326.01064395268332
 30
0.0
  0
VERTEX
  5
15C6
  8
0
 10
430.17356956882787
 20
326.64302190796872
 30
0.0
  0
VERTEX
  5
15C7
  8
0
 10
429.92352124903613
 20
327.26471374654483
 30
0.0
  0
VERTEX
  5
15C8
  8
0
 10
429.64659165121179
 20
327.87454380246447
 30
0.0
  0
VERTEX
  5
15C9
  8
0
 10
429.34334082732369
 20
328.47136229607338
 30
0.0
  0
VERTEX
  5
15CA
  8
0
 10
429.01437536865342
 20
329.05404705706792
 30
0.0
  0
VERTEX
  5
15CB
  8
0
 10
428.66034692425143
 20
329.6215051550497
 30
0.0
  0
VERTEX
  5
15CC
  8
0
 10
428.28195069307628
 20
330.17267443929478
 30
0.0
  0
VERTEX
  5
15CD
  8
0
 10
427.87992389764349
 20
330.7065249902297
 30
0.0
  0
VERTEX
  5
15CE
  8
0
 10
427.4550442468871
 20
331.22206048592687
 30
0.0
  0
VERTEX
  5
15CF
  8
0
 10
427.00812839568442
 20
331.71831948783938
 30
0.0
  0
VERTEX
  5
15D0
  8
0
 10
426.54003040811563
 20
332.19437665092249
 30
0.0
  0
VERTEX
  5
15D1
  8
0
 10
426.05164023096933
 20
332.64934386429701
 30
0.0
  0
VERTEX
  5
15D2
  8
0
 10
425.5438821832588
 20
333.08237132957117
 30
0.0
  0
VERTEX
  5
15D3
  8
0
 10
425.0177134665301
 20
333.49264858492148
 30
0.0
  0
VERTEX
  5
15D4
  8
0
 10
424.47412269952702
 20
333.87940548389912
 30
0.0
  0
VERTEX
  5
15D5
  8
0
 10
423.9141284792853
 20
334.24191313871739
 30
0.0
  0
VERTEX
  5
15D6
  8
0
 10
423.33877796899242
 20
334.57948483834178
 30
0.0
  0
VERTEX
  5
15D7
  8
0
 10
422.74914551092911
 20
334.89147695204588
 30
0.0
  0
VERTEX
  5
15D8
  8
0
 10
422.14633126059329
 20
335.17728982911632
 30
0.0
  0
VERTEX
  5
15D9
  8
0
 10
421.53145983566878
 20
335.43636870501319
 30
0.0
  0
VERTEX
  5
15DA
  8
0
 10
420.90567897099362
 20
335.66820462346777
 30
0.0
  0
VERTEX
  5
15DB
  8
0
 10
420.27015816809632
 20
335.87233538266378
 30
0.0
  0
VERTEX
  5
15DC
  8
0
 10
419.62608732543907
 20
336.04834651176168
 30
0.0
  0
VERTEX
  5
15DD
  8
0
 10
418.97467533323947
 20
336.19587228157661
 30
0.0
  0
VERTEX
  5
15DE
  8
0
 10
418.31714861491668
 20
336.31459675022398
 30
0.0
  0
VERTEX
  5
15DF
  8
0
 10
417.65474959589181
 20
336.40425484106191
 30
0.0
  0
VERTEX
  5
15E0
  8
0
 10
416.98873507986548
 20
336.4646334463817
 30
0.0
  0
VERTEX
  5
15E1
  8
0
 10
416.32037451295332
 20
336.49557254616968
 30
0.0
  0
VERTEX
  5
15E2
  8
0
 10
415.95412432972068
 20
336.5
 30
0.0
  0
SEQEND
  5
15E3
  8
0
  0
LINE
  5
1293
  8
1
 10
415.95412432972068
 20
341.50036532258667
 30
0.0
 11
415.95412432972068
 21
166.0
 31
0.0
  0
LINE
  5
1294
  8
1
 10
404.45412432972063
 20
287.5
 30
0.0
 11
427.45412432972063
 21
287.5
 31
0.0
  0
CIRCLE
  5
1295
  8
0
 10
191.5
 20
90.5
 30
0.0
 40
10.0
  0
CIRCLE
  5
1296
  8
0
 10
191.5
 20
90.5
 30
0.0
 40
15.0
  0
CIRCLE
  5
1297
  8
0
 10
191.5
 20
90.5
 30
0.0
 40
19.75
  0
CIRCLE
  5
1298
  8
3
 10
191.5
 20
90.5
 30
0.0
 40
8.6470000000000002
  0
LINE
  5
1299
  8
0
 10
227.0
 20
84.0
 30
0.0
 11
227.0
 21
97.0
 31
0.0
  0
CIRCLE
  5
129A
  8
0
 10
191.5
 20
90.5
 30
0.0
 40
20.5
  0
LINE
  5
129B
  8
0
 10
210.94222209522351
 20
84.0
 30
0.0
 11
307.69899661880072
 21
84.0
 31
0.0
  0
LINE
  5
129C
  8
0
 10
307.69899661880072
 20
97.0
 30
0.0
 11
210.94222209522351
 21
97.0
 31
0.0
  0
POLYLINE
  5
129D
  8
0
 10
306.23626814416724
 20
98.193144436089483
 30
0.0
 66
     1
 70
     8
  0
VERTEX
  8
0
  5
1868
 10
306.236
 20
98.1931
 30
0.000000
  70
    32
  0
VERTEX
  8
0
  5
1869
 10
306.231
 20
98.1854
 30
0.000000
  70
    32
  0
VERTEX
  8
0
  5
186A
 10
306.227
 20
98.1775
 30
0.000000
  70
    32
  0
VERTEX
  8
0
  5
186B
 10
306.222
 20
98.1697
 30
0.000000
  70
    32
  0
VERTEX
  8
0
  5
186C
 10
306.217
 20
98.1619
 30
0.000000
  70
    32
  0
VERTEX
  8
0
  5
186D
 10
306.212
 20
98.1540
 30
0.000000
  70
    32
  0
VERTEX
  8
0
  5
186E
 10
306.208
 20
98.1461
 30
0.000000
  70
    32
  0
VERTEX
  8
0
  5
186F
 10
306.203
 20
98.1381
 30
0.000000
  70
    32
  0
VERTEX
  8
0
  5
1870
 10
306.198
 20
98.1302
 30
0.000000
  70
    32
  0
VERTEX
  8
0
  5
1871
 10
306.193
 20
98.1222
 30
0.000000
  70
    32
  0
VERTEX
  8
0
  5
1872
 10
306.189
 20
98.1142
 30
0.000000
  70
    32
  0
VERTEX
  8
0
  5
1873
 10
306.184
 20
98.1061
 30
0.000000
  70
    32
  0
VERTEX
  8
0
  5
1874
 10
306.179
 20
98.0981
 30
0.000000
  70
    32
  0
VERTEX
  8
0
  5
1875
 10
306.175
 20
98.0900
 30
0.000000
  70
    32
  0
VERTEX
  8
0
  5
1876
 10
306.170
 20
98.0819
 30
0.000000
  70
    32
  0
VERTEX
  8
0
  5
1877
 10
306.165
 20
98.0737
 30
0.000000
  70
    32
  0
VERTEX
  8
0
  5
1878
 10
306.160
 20
98.0656
 30
0.000000
  70
    32
  0
VERTEX
  8
0
  5
1879
 10
306.156
 20
98.0574
 30
0.000000
  70
    32
  0
VERTEX
  8
0
  5
187A
 10
306.151
 20
98.0491
 30
0.000000
  70
    32
  0
VERTEX
  8
0
  5
187B
 10
306.146
 20
98.0409
 30
0.000000
  70
    32
  0
VERTEX
  8
0
  5
187C
 10
306.142
 20
98.0326
 30
0.000000
  70
    32
  0
VERTEX
  8
0
  5
187D
 10
306.137
 20
98.0244
 30
0.000000
  70
    32
  0
VERTEX
  8
0
  5
187E
 10
306.132
 20
98.0160
 30
0.000000
  70
    32
  0
VERTEX
  8
0
  5
187F
 10
306.128
 20
98.0077
 30
0.000000
  70
    32
  0
VERTEX
  8
0
  5
1880
 10
306.123
 20
97.9993
 30
0.000000
  70
    32
  0
VERTEX
  8
0
  5
1881
 10
306.118
 20
97.9910
 30
0.000000
  70
    32
  0
VERTEX
  8
0
  5
1882
 10
306.114
 20
97.9825
 30
0.000000
  70
    32
  0
VERTEX
  8
0
  5
1883
 10
306.109
 20
97.9741
 30
0.000000
  70
    32
  0
VERTEX
  8
0
  5
1884
 10
306.104
 20
97.9657
 30
0.000000
  70
    32
  0
VERTEX
  8
0
  5
1885
 10
306.100
 20
97.9572
 30
0.000000
  70
    32
  0
VERTEX
  8
0
  5
1886
 10
306.095
 20
97.9487
 30
0.000000
  70
    32
  0
VERTEX
  8
0
  5
1887
 10
306.090
 20
97.9401
 30
0.000000
  70
    32
  0
VERTEX
  8
0
  5
1888
 10
306.086
 20
97.9316
 30
0.000000
  70
    32
  0
VERTEX
  8
0
  5
1889
 10
306.081
 20
97.9230
 30
0.000000
  70
    32
  0
VERTEX
  8
0
  5
188A
 10
306.077
 20
97.9144
 30
0.000000
  70
    32
  0
VERTEX
  8
0
  5
188B
 10
306.072
 20
97.9057
 30
0.000000
  70
    32
  0
VERTEX
  8
0
  5
188C
 10
306.067
 20
97.8971
 30
0.000000
  70
    32
  0
VERTEX
  8
0
  5
188D
 10
306.063
 20
97.8884
 30
0.000000
  70
    32
  0
VERTEX
  8
0
  5
188E
 10
306.058
 20
97.8797
 30
0.000000
  70
    32
  0
VERTEX
  8
0
  5
188F
 10
306.054
 20
97.8710
 30
0.000000
  70
    32
  0
VERTEX
  8
0
  5
1890
 10
306.049
 20
97.8622
 30
0.000000
  70
    32
  0
VERTEX
  8
0
  5
1891
 10
306.044
 20
97.8534
 30
0.000000
  70
    32
  0
VERTEX
  8
0
  5
1892
 10
306.040
 20
97.8446
 30
0.000000
  70
    32
  0
VERTEX
  8
0
  5
1893
 10
306.035
 20
97.8358
 30
0.000000
  70
    32
  0
VERTEX
  8
0
  5
1894
 10
306.031
 20
97.8269
 30
0.000000
  70
    32
  0
VERTEX
  8
0
  5
1895
 10
306.026
 20
97.8181
 30
0.000000
  70
    32
  0
VERTEX
  8
0
  5
1896
 10
306.022
 20
97.8092
 30
0.000000
  70
    32
  0
VERTEX
  8
0
  5
1897
 10
306.017
 20
97.8002
 30
0.000000
  70
    32
  0
VERTEX
  8
0
  5
1898
 10
306.013
 20
97.7913
 30
0.000000
  70
    32
  0
VERTEX
  8
0
  5
1899
 10
306.008
 20
97.7823
 30
0.000000
  70
    32
  0
VERTEX
  8
0
  5
189A
 10
306.004
 20
97.7733
 30
0.000000
  70
    32
  0
VERTEX
  8
0
  5
189B
 10
305.999
 20
97.7643
 30
0.000000
  70
    32
  0
VERTEX
  8
0
  5
189C
 10
305.995
 20
97.7552
 30
0.000000
  70
    32
  0
VERTEX
  8
0
  5
189D
 10
305.990
 20
97.7462
 30
0.000000
  70
    32
  0
VERTEX
  8
0
  5
189E
 10
305.985
 20
97.7371
 30
0.000000
  70
    32
  0
VERTEX
  8
0
  5
189F
 10
305.981
 20
97.7280
 30
0.000000
  70
    32
  0
VERTEX
  8
0
  5
18A0
 10
305.977
 20
97.7188
 30
0.000000
  70
    32
  0
VERTEX
  8
0
  5
18A1
 10
305.972
 20
97.7097
 30
0.000000
  70
    32
  0
VERTEX
  8
0
  5
18A2
 10
305.968
 20
97.7005
 30
0.000000
  70
    32
  0
VERTEX
  8
0
  5
18A3
 10
305.963
 20
97.6913
 30
0.000000
  70
    32
  0
VERTEX
  8
0
  5
18A4
 10
305.959
 20
97.6820
 30
0.000000
  70
    32
  0
VERTEX
  8
0
  5
18A5
 10
305.954
 20
97.6728
 30
0.000000
  70
    32
  0
VERTEX
  8
0
  5
18A6
 10
305.950
 20
97.6635
 30
0.000000
  70
    32
  0
VERTEX
  8
0
  5
18A7
 10
305.945
 20
97.6542
 30
0.000000
  70
    32
  0
VERTEX
  8
0
  5
18A8
 10
305.941
 20
97.6448
 30
0.000000
  70
    32
  0
VERTEX
  8
0
  5
18A9
 10
305.936
 20
97.6355
 30
0.000000
  70
    32
  0
VERTEX
  8
0
  5
18AA
 10
305.932
 20
97.6261
 30
0.000000
  70
    32
  0
VERTEX
  8
0
  5
18AB
 10
305.928
 20
97.6167
 30
0.000000
  70
    32
  0
VERTEX
  8
0
  5
18AC
 10
305.923
 20
97.6073
 30
0.000000
  70
    32
  0
VERTEX
  8
0
  5
18AD
 10
305.919
 20
97.5978
 30
0.000000
  70
    32
  0
VERTEX
  8
0
  5
18AE
 10
305.914
 20
97.5884
 30
0.000000
  70
    32
  0
VERTEX
  8
0
  5
18AF
 10
305.910
 20
97.5789
 30
0.000000
  70
    32
  0
VERTEX
  8
0
  5
18B0
 10
305.905
 20
97.5694
 30
0.000000
  70
    32
  0
VERTEX
  8
0
  5
18B1
 10
305.901
 20
97.5598
 30
0.000000
  70
    32
  0
VERTEX
  8
0
  5
18B2
 10
305.897
 20
97.5502
 30
0.000000
  70
    32
  0
VERTEX
  8
0
  5
18B3
 10
305.892
 20
97.5407
 30
0.000000
  70
    32
  0
VERTEX
  8
0
  5
18B4
 10
305.888
 20
97.5310
 30
0.000000
  70
    32
  0
VERTEX
  8
0
  5
18B5
 10
305.884
 20
97.5214
 30
0.000000
  70
    32
  0
VERTEX
  8
0
  5
18B6
 10
305.879
 20
97.5118
 30
0.000000
  70
    32
  0
VERTEX
  8
0
  5
18B7
 10
305.875
 20
97.5021
 30
0.000000
  70
    32
  0
VERTEX
  8
0
  5
18B8
 10
305.870
 20
97.4924
 30
0.000000
  70
    32
  0
VERTEX
  8
0
  5
18B9
 10
305.866
 20
97.4826
 30
0.000000
  70
    32
  0
VERTEX
  8
0
  5
18BA
 10
305.862
 20
97.4729
 30
0.000000
  70
    32
  0
VERTEX
  8
0
  5
18BB
 10
305.857
 20
97.4631
 30
0.000000
  70
    32
  0
VERTEX
  8
0
  5
18BC
 10
305.853
 20
97.4533
 30
0.000000
  70
    32
  0
VERTEX
  8
0
  5
18BD
 10
305.849
 20
97.4435
 30
0.000000
  70
    32
  0
VERTEX
  8
0
  5
18BE
 10
305.845
 20
97.4337
 30
0.000000
  70
    32
  0
VERTEX
  8
0
  5
18BF
 10
305.840
 20
97.4238
 30
0.000000
  70
    32
  0
VERTEX
  8
0
  5
18C0
 10
305.836
 20
97.4139
 30
0.000000
  70
    32
  0
VERTEX
  8
0
  5
18C1
 10
305.832
 20
97.4040
 30
0.000000
  70
    32
  0
VERTEX
  8
0
  5
18C2
 10
305.827
 20
97.3941
 30
0.000000
  70
    32
  0
VERTEX
  8
0
  5
18C3
 10
305.823
 20
97.3841
 30
0.000000
  70
    32
  0
VERTEX
  8
0
  5
18C4
 10
305.819
 20
97.3741
 30
0.000000
  70
    32
  0
VERTEX
  8
0
  5
18C5
 10
305.815
 20
97.3641
 30
0.000000
  70
    32
  0
VERTEX
  8
0
  5
18C6
 10
305.810
 20
97.3541
 30
0.000000
  70
    32
  0
VERTEX
  8
0
  5
18C7
 10
305.806
 20
97.3440
 30
0.000000
  70
    32
  0
VERTEX
  8
0
  5
18C8
 10
305.802
 20
97.3340
 30
0.000000
  70
    32
  0
VERTEX
  8
0
  5
18C9
 10
305.797
 20
97.3239
 30
0.000000
  70
    32
  0
VERTEX
  8
0
  5
18CA
 10
305.793
 20
97.3138
 30
0.000000
  70
    32
  0
VERTEX
  8
0
  5
18CB
 10
305.789
 20
97.3036
 30
0.000000
  70
    32
  0
VERTEX
  8
0
  5
18CC
 10
305.785
 20
97.2935
 30
0.000000
  70
    32
  0
VERTEX
  8
0
  5
18CD
 10
305.781
 20
97.2833
 30
0.000000
  70
    32
  0
VERTEX
  8
0
  5
18CE
 10
305.776
 20
97.2731
 30
0.000000
  70
    32
  0
VERTEX
  8
0
  5
18CF
 10
305.772
 20
97.2629
 30
0.000000
  70
    32
  0
VERTEX
  8
0
  5
18D0
 10
305.768
 20
97.2526
 30
0.000000
  70
    32
  0
VERTEX
  8
0
  5
18D1
 10
305.764
 20
97.2423
 30
0.000000
  70
    32
  0
VERTEX
  8
0
  5
18D2
 10
305.760
 20
97.2320
 30
0.000000
  70
    32
  0
VERTEX
  8
0
  5
18D3
 10
305.755
 20
97.2217
 30
0.000000
  70
    32
  0
VERTEX
  8
0
  5
18D4
 10
305.751
 20
97.2114
 30
0.000000
  70
    32
  0
VERTEX
  8
0
  5
18D5
 10
305.747
 20
97.2010
 30
0.000000
  70
    32
  0
VERTEX
  8
0
  5
18D6
 10
305.743
 20
97.1906
 30
0.000000
  70
    32
  0
VERTEX
  8
0
  5
18D7
 10
305.739
 20
97.1802
 30
0.000000
  70
    32
  0
VERTEX
  8
0
  5
18D8
 10
305.735
 20
97.1698
 30
0.000000
  70
    32
  0
VERTEX
  8
0
  5
18D9
 10
305.730
 20
97.1594
 30
0.000000
  70
    32
  0
VERTEX
  8
0
  5
18DA
 10
305.726
 20
97.1489
 30
0.000000
  70
    32
  0
VERTEX
  8
0
  5
18DB
 10
305.722
 20
97.1384
 30
0.000000
  70
    32
  0
VERTEX
  8
0
  5
18DC
 10
305.718
 20
97.1279
 30
0.000000
  70
    32
  0
VERTEX
  8
0
  5
18DD
 10
305.714
 20
97.1173
 30
0.000000
  70
    32
  0
VERTEX
  8
0
  5
18DE
 10
305.710
 20
97.1068
 30
0.000000
  70
    32
  0
VERTEX
  8
0
  5
18DF
 10
305.706
 20
97.0962
 30
0.000000
  70
    32
  0
VERTEX
  8
0
  5
18E0
 10
305.702
 20
97.0856
 30
0.000000
  70
    32
  0
VERTEX
  8
0
  5
18E1
 10
305.698
 20
97.0750
 30
0.000000
  70
    32
  0
VERTEX
  8
0
  5
18E2
 10
305.693
 20
97.0643
 30
0.000000
  70
    32
  0
VERTEX
  8
0
  5
18E3
 10
305.689
 20
97.0537
 30
0.000000
  70
    32
  0
VERTEX
  8
0
  5
18E4
 10
305.685
 20
97.0430
 30
0.000000
  70
    32
  0
VERTEX
  8
0
  5
18E5
 10
305.681
 20
97.0323
 30
0.000000
  70
    32
  0
VERTEX
  8
0
  5
18E6
 10
305.677
 20
97.0215
 30
0.000000
  70
    32
  0
VERTEX
  8
0
  5
18E7
 10
305.673
 20
97.0108
 30
0.000000
  70
    32
  0
VERTEX
  8
0
  5
18E8
 10
305.669
 20
97.0000
 30
0.000000
  70
    32
  0
SEQEND
  8
0
  5
18E9
  0
POLYLINE
  5
129E
  8
0
 10
305.66908740311095
 20
84.0
 30
0.0
 66
     1
 70
     8
  0
VERTEX
  8
0
  5
18EA
 10
305.669
 20
84.0000
 30
0.000000
  70
    32
  0
VERTEX
  8
0
  5
18EB
 10
305.673
 20
83.9892
 30
0.000000
  70
    32
  0
VERTEX
  8
0
  5
18EC
 10
305.677
 20
83.9785
 30
0.000000
  70
    32
  0
VERTEX
  8
0
  5
18ED
 10
305.681
 20
83.9678
 30
0.000000
  70
    32
  0
VERTEX
  8
0
  5
18EE
 10
305.685
 20
83.9570
 30
0.000000
  70
    32
  0
VERTEX
  8
0
  5
18EF
 10
305.689
 20
83.9464
 30
0.000000
  70
    32
  0
VERTEX
  8
0
  5
18F0
 10
305.693
 20
83.9357
 30
0.000000
  70
    32
  0
VERTEX
  8
0
  5
18F1
 10
305.698
 20
83.9251
 30
0.000000
  70
    32
  0
VERTEX
  8
0
  5
18F2
 10
305.702
 20
83.9144
 30
0.000000
  70
    32
  0
VERTEX
  8
0
  5
18F3
 10
305.706
 20
83.9038
 30
0.000000
  70
    32
  0
VERTEX
  8
0
  5
18F4
 10
305.710
 20
83.8933
 30
0.000000
  70
    32
  0
VERTEX
  8
0
  5
18F5
 10
305.714
 20
83.8827
 30
0.000000
  70
    32
  0
VERTEX
  8
0
  5
18F6
 10
305.718
 20
83.8722
 30
0.000000
  70
    32
  0
VERTEX
  8
0
  5
18F7
 10
305.722
 20
83.8617
 30
0.000000
  70
    32
  0
VERTEX
  8
0
  5
18F8
 10
305.726
 20
83.8512
 30
0.000000
  70
    32
  0
VERTEX
  8
0
  5
18F9
 10
305.730
 20
83.8407
 30
0.000000
  70
    32
  0
VERTEX
  8
0
  5
18FA
 10
305.735
 20
83.8303
 30
0.000000
  70
    32
  0
VERTEX
  8
0
  5
18FB
 10
305.739
 20
83.8198
 30
0.000000
  70
    32
  0
VERTEX
  8
0
  5
18FC
 10
305.743
 20
83.8094
 30
0.000000
  70
    32
  0
VERTEX
  8
0
  5
18FD
 10
305.747
 20
83.7991
 30
0.000000
  70
    32
  0
VERTEX
  8
0
  5
18FE
 10
305.751
 20
83.7887
 30
0.000000
  70
    32
  0
VERTEX
  8
0
  5
18FF
 10
305.755
 20
83.7784
 30
0.000000
  70
    32
  0
VERTEX
  8
0
  5
1900
 10
305.760
 20
83.7681
 30
0.000000
  70
    32
  0
VERTEX
  8
0
  5
1901
 10
305.764
 20
83.7578
 30
0.000000
  70
    32
  0
VERTEX
  8
0
  5
1902
 10
305.768
 20
83.7475
 30
0.000000
  70
    32
  0
VERTEX
  8
0
  5
1903
 10
305.772
 20
83.7372
 30
0.000000
  70
    32
  0
VERTEX
  8
0
  5
1904
 10
305.776
 20
83.7270
 30
0.000000
  70
    32
  0
VERTEX
  8
0
  5
1905
 10
305.781
 20
83.7168
 30
0.000000
  70
    32
  0
VERTEX
  8
0
  5
1906
 10
305.785
 20
83.7066
 30
0.000000
  70
    32
  0
VERTEX
  8
0
  5
1907
 10
305.789
 20
83.6965
 30
0.000000
  70
    32
  0
VERTEX
  8
0
  5
1908
 10
305.793
 20
83.6864
 30
0.000000
  70
    32
  0
VERTEX
  8
0
  5
1909
 10
305.797
 20
83.6762
 30
0.000000
  70
    32
  0
VERTEX
  8
0
  5
190A
 10
305.802
 20
83.6662
 30
0.000000
  70
    32
  0
VERTEX
  8
0
  5
190B
 10
305.806
 20
83.6561
 30
0.000000
  70
    32
  0
VERTEX
  8
0
  5
190C
 10
305.810
 20
83.6460
 30
0.000000
  70
    32
  0
VERTEX
  8
0
  5
190D
 10
305.814
 20
83.6360
 30
0.000000
  70
    32
  0
VERTEX
  8
0
  5
190E
 10
305.819
 20
83.6260
 30
0.000000
  70
    32
  0
VERTEX
  8
0
  5
190F
 10
305.823
 20
83.6161
 30
0.000000
  70
    32
  0
VERTEX
  8
0
  5
1910
 10
305.827
 20
83.6061
 30
0.000000
  70
    32
  0
VERTEX
  8
0
  5
1911
 10
305.832
 20
83.5962
 30
0.000000
  70
    32
  0
VERTEX
  8
0
  5
1912
 10
305.836
 20
83.5863
 30
0.000000
  70
    32
  0
VERTEX
  8
0
  5
1913
 10
305.840
 20
83.5764
 30
0.000000
  70
    32
  0
VERTEX
  8
0
  5
1914
 10
305.844
 20
83.5665
 30
0.000000
  70
    32
  0
VERTEX
  8
0
  5
1915
 10
305.849
 20
83.5567
 30
0.000000
  70
    32
  0
VERTEX
  8
0
  5
1916
 10
305.853
 20
83.5469
 30
0.000000
  70
    32
  0
VERTEX
  8
0
  5
1917
 10
305.857
 20
83.5371
 30
0.000000
  70
    32
  0
VERTEX
  8
0
  5
1918
 10
305.862
 20
83.5273
 30
0.000000
  70
    32
  0
VERTEX
  8
0
  5
1919
 10
305.866
 20
83.5175
 30
0.000000
  70
    32
  0
VERTEX
  8
0
  5
191A
 10
305.870
 20
83.5078
 30
0.000000
  70
    32
  0
VERTEX
  8
0
  5
191B
 10
305.875
 20
83.4981
 30
0.000000
  70
    32
  0
VERTEX
  8
0
  5
191C
 10
305.879
 20
83.4884
 30
0.000000
  70
    32
  0
VERTEX
  8
0
  5
191D
 10
305.883
 20
83.4788
 30
0.000000
  70
    32
  0
VERTEX
  8
0
  5
191E
 10
305.888
 20
83.4692
 30
0.000000
  70
    32
  0
VERTEX
  8
0
  5
191F
 10
305.892
 20
83.4596
 30
0.000000
  70
    32
  0
VERTEX
  8
0
  5
1920
 10
305.897
 20
83.4500
 30
0.000000
  70
    32
  0
VERTEX
  8
0
  5
1921
 10
305.901
 20
83.4404
 30
0.000000
  70
    32
  0
VERTEX
  8
0
  5
1922
 10
305.905
 20
83.4309
 30
0.000000
  70
    32
  0
VERTEX
  8
0
  5
1923
 10
305.910
 20
83.4214
 30
0.000000
  70
    32
  0
VERTEX
  8
0
  5
1924
 10
305.914
 20
83.4119
 30
0.000000
  70
    32
  0
VERTEX
  8
0
  5
1925
 10
305.919
 20
83.4024
 30
0.000000
  70
    32
  0
VERTEX
  8
0
  5
1926
 10
305.923
 20
83.3929
 30
0.000000
  70
    32
  0
VERTEX
  8
0
  5
1927
 10
305.927
 20
83.3835
 30
0.000000
  70
    32
  0
VERTEX
  8
0
  5
1928
 10
305.932
 20
83.3741
 30
0.000000
  70
    32
  0
VERTEX
  8
0
  5
1929
 10
305.936
 20
83.3648
 30
0.000000
  70
    32
  0
VERTEX
  8
0
  5
192A
 10
305.941
 20
83.3554
 30
0.000000
  70
    32
  0
VERTEX
  8
0
  5
192B
 10
305.945
 20
83.3461
 30
0.000000
  70
    32
  0
VERTEX
  8
0
  5
192C
 10
305.950
 20
83.3368
 30
0.000000
  70
    32
  0
VERTEX
  8
0
  5
192D
 10
305.954
 20
83.3275
 30
0.000000
  70
    32
  0
VERTEX
  8
0
  5
192E
 10
305.958
 20
83.3182
 30
0.000000
  70
    32
  0
VERTEX
  8
0
  5
192F
 10
305.963
 20
83.3090
 30
0.000000
  70
    32
  0
VERTEX
  8
0
  5
1930
 10
305.967
 20
83.2998
 30
0.000000
  70
    32
  0
VERTEX
  8
0
  5
1931
 10
305.972
 20
83.2906
 30
0.000000
  70
    32
  0
VERTEX
  8
0
  5
1932
 10
305.976
 20
83.2814
 30
0.000000
  70
    32
  0
VERTEX
  8
0
  5
1933
 10
305.981
 20
83.2723
 30
0.000000
  70
    32
  0
VERTEX
  8
0
  5
1934
 10
305.985
 20
83.2632
 30
0.000000
  70
    32
  0
VERTEX
  8
0
  5
1935
 10
305.990
 20
83.2541
 30
0.000000
  70
    32
  0
VERTEX
  8
0
  5
1936
 10
305.994
 20
83.2450
 30
0.000000
  70
    32
  0
VERTEX
  8
0
  5
1937
 10
305.999
 20
83.2360
 30
0.000000
  70
    32
  0
VERTEX
  8
0
  5
1938
 10
306.003
 20
83.2270
 30
0.000000
  70
    32
  0
VERTEX
  8
0
  5
1939
 10
306.008
 20
83.2180
 30
0.000000
  70
    32
  0
VERTEX
  8
0
  5
193A
 10
306.012
 20
83.2090
 30
0.000000
  70
    32
  0
VERTEX
  8
0
  5
193B
 10
306.017
 20
83.2001
 30
0.000000
  70
    32
  0
VERTEX
  8
0
  5
193C
 10
306.022
 20
83.1911
 30
0.000000
  70
    32
  0
VERTEX
  8
0
  5
193D
 10
306.026
 20
83.1822
 30
0.000000
  70
    32
  0
VERTEX
  8
0
  5
193E
 10
306.031
 20
83.1734
 30
0.000000
  70
    32
  0
VERTEX
  8
0
  5
193F
 10
306.035
 20
83.1645
 30
0.000000
  70
    32
  0
VERTEX
  8
0
  5
1940
 10
306.040
 20
83.1557
 30
0.000000
  70
    32
  0
VERTEX
  8
0
  5
1941
 10
306.044
 20
83.1469
 30
0.000000
  70
    32
  0
VERTEX
  8
0
  5
1942
 10
306.049
 20
83.1381
 30
0.000000
  70
    32
  0
VERTEX
  8
0
  5
1943
 10
306.053
 20
83.1294
 30
0.000000
  70
    32
  0
VERTEX
  8
0
  5
1944
 10
306.058
 20
83.1206
 30
0.000000
  70
    32
  0
VERTEX
  8
0
  5
1945
 10
306.063
 20
83.1119
 30
0.000000
  70
    32
  0
VERTEX
  8
0
  5
1946
 10
306.067
 20
83.1033
 30
0.000000
  70
    32
  0
VERTEX
  8
0
  5
1947
 10
306.072
 20
83.0946
 30
0.000000
  70
    32
  0
VERTEX
  8
0
  5
1948
 10
306.076
 20
83.0860
 30
0.000000
  70
    32
  0
VERTEX
  8
0
  5
1949
 10
306.081
 20
83.0774
 30
0.000000
  70
    32
  0
VERTEX
  8
0
  5
194A
 10
306.086
 20
83.0688
 30
0.000000
  70
    32
  0
VERTEX
  8
0
  5
194B
 10
306.090
 20
83.0602
 30
0.000000
  70
    32
  0
VERTEX
  8
0
  5
194C
 10
306.095
 20
83.0517
 30
0.000000
  70
    32
  0
VERTEX
  8
0
  5
194D
 10
306.099
 20
83.0432
 30
0.000000
  70
    32
  0
VERTEX
  8
0
  5
194E
 10
306.104
 20
83.0347
 30
0.000000
  70
    32
  0
VERTEX
  8
0
  5
194F
 10
306.109
 20
83.0262
 30
0.000000
  70
    32
  0
VERTEX
  8
0
  5
1950
 10
306.113
 20
83.0178
 30
0.000000
  70
    32
  0
VERTEX
  8
0
  5
1951
 10
306.118
 20
83.0094
 30
0.000000
  70
    32
  0
VERTEX
  8
0
  5
1952
 10
306.123
 20
83.0010
 30
0.000000
  70
    32
  0
VERTEX
  8
0
  5
1953
 10
306.127
 20
82.9927
 30
0.000000
  70
    32
  0
VERTEX
  8
0
  5
1954
 10
306.132
 20
82.9843
 30
0.000000
  70
    32
  0
VERTEX
  8
0
  5
1955
 10
306.137
 20
82.9760
 30
0.000000
  70
    32
  0
VERTEX
  8
0
  5
1956
 10
306.141
 20
82.9677
 30
0.000000
  70
    32
  0
VERTEX
  8
0
  5
1957
 10
306.146
 20
82.9595
 30
0.000000
  70
    32
  0
VERTEX
  8
0
  5
1958
 10
306.151
 20
82.9512
 30
0.000000
  70
    32
  0
VERTEX
  8
0
  5
1959
 10
306.155
 20
82.9430
 30
0.000000
  70
    32
  0
VERTEX
  8
0
  5
195A
 10
306.160
 20
82.9348
 30
0.000000
  70
    32
  0
VERTEX
  8
0
  5
195B
 10
306.165
 20
82.9267
 30
0.000000
  70
    32
  0
VERTEX
  8
0
  5
195C
 10
306.170
 20
82.9185
 30
0.000000
  70
    32
  0
VERTEX
  8
0
  5
195D
 10
306.174
 20
82.9104
 30
0.000000
  70
    32
  0
VERTEX
  8
0
  5
195E
 10
306.179
 20
82.9023
 30
0.000000
  70
    32
  0
VERTEX
  8
0
  5
195F
 10
306.184
 20
82.8943
 30
0.000000
  70
    32
  0
VERTEX
  8
0
  5
1960
 10
306.188
 20
82.8862
 30
0.000000
  70
    32
  0
VERTEX
  8
0
  5
1961
 10
306.193
 20
82.8782
 30
0.000000
  70
    32
  0
VERTEX
  8
0
  5
1962
 10
306.198
 20
82.8702
 30
0.000000
  70
    32
  0
VERTEX
  8
0
  5
1963
 10
306.203
 20
82.8623
 30
0.000000
  70
    32
  0
VERTEX
  8
0
  5
1964
 10
306.207
 20
82.8543
 30
0.000000
  70
    32
  0
VERTEX
  8
0
  5
1965
 10
306.212
 20
82.8464
 30
0.000000
  70
    32
  0
VERTEX
  8
0
  5
1966
 10
306.217
 20
82.8386
 30
0.000000
  70
    32
  0
VERTEX
  8
0
  5
1967
 10
306.222
 20
82.8307
 30
0.000000
  70
    32
  0
VERTEX
  8
0
  5
1968
 10
306.226
 20
82.8229
 30
0.000000
  70
    32
  0
VERTEX
  8
0
  5
1969
 10
306.231
 20
82.8151
 30
0.000000
  70
    32
  0
VERTEX
  8
0
  5
196A
 10
306.236
 20
82.8073
 30
0.000000
  70
    32
  0
SEQEND
  8
0
  5
196B
  0
POLYLINE
  5
129F
  8
0
 66
     1
 10
0.0
 20
0.0
 30
0.0
  0
VERTEX
  5
15E4
  8
0
 10
306.22896314395979
 20
82.818726254702824
 30
0.0
  0
VERTEX
  5
15E5
  8
0
 10
306.50327305849879
 20
82.388420789850215
 30
0.0
  0
VERTEX
  5
15E6
  8
0
 10
306.86647513887129
 20
81.862439501635663
 30
0.0
  0
VERTEX
  5
15E7
  8
0
 10
307.25172950497807
 20
81.350597012681305
 30
0.0
  0
VERTEX
  5
15E8
  8
0
 10
307.65835702637719
 20
80.853960156943003
 30
0.0
  0
VERTEX
  5
15E9
  8
0
 10
308.08564234232529
 20
80.373540697625003
 30
0.0
  0
VERTEX
  5
15EA
  8
0
 10
308.53283644958628
 20
79.910296899773925
 30
0.0
  0
VERTEX
  5
15EB
  8
0
 10
308.9991587409703
 20
79.465135450950129
 30
0.0
  0
VERTEX
  5
15EC
  8
0
 10
309.48379869004719
 20
79.038913313324997
 30
0.0
  0
VERTEX
  5
15ED
  8
0
 10
309.98591732581508
 20
78.632439315942179
 30
0.0
  0
VERTEX
  5
15EE
  8
0
 10
310.5046485966933
 20
78.24647542339153
 30
0.0
  0
VERTEX
  5
15EF
  8
0
 10
311.0391006894418
 20
77.8817376838158
 30
0.0
  0
VERTEX
  5
15F0
  8
0
 10
311.64930225764442
 20
77.502747394767766
 30
0.0
  0
VERTEX
  5
15F1
  8
0
 10
312.27507753916149
 20
77.152280225551976
 30
0.0
  0
VERTEX
  5
15F2
  8
0
 10
312.91336038038281
 20
76.831718183781049
 30
0.0
  0
VERTEX
  5
15F3
  8
0
 10
313.5627299962585
 20
76.541314031317825
 30
0.0
  0
VERTEX
  5
15F4
  8
0
 10
314.22181464688862
 20
76.281246887671614
 30
0.0
  0
VERTEX
  5
15F5
  8
0
 10
314.88925004072871
 20
76.051646836187274
 30
0.0
  0
VERTEX
  5
15F6
  8
0
 10
315.56367899014151
 20
75.85259500238476
 30
0.0
  0
VERTEX
  5
15F7
  8
0
 10
316.24375233822542
 20
75.684123130714511
 30
0.0
  0
VERTEX
  5
15F8
  8
0
 10
316.9281301445688
 20
75.546213217945251
 30
0.0
  0
VERTEX
  5
15F9
  8
0
 10
317.61548305730258
 20
75.43879724128783
 30
0.0
  0
VERTEX
  5
15FA
  8
0
 10
318.30449382900127
 20
75.36175699721457
 30
0.0
  0
VERTEX
  5
15FB
  8
0
 10
318.99385894249099
 20
75.314924058572956
 30
0.0
  0
VERTEX
  5
15FC
  8
0
 10
319.68229031898261
 20
75.298079852288879
 30
0.0
  0
VERTEX
  5
15FD
  8
0
 10
320.36851708593298
 20
75.310955856538044
 30
0.0
  0
VERTEX
  5
15FE
  8
0
 10
321.05128597168908
 20
75.353233795927736
 30
0.0
  0
VERTEX
  5
15FF
  8
0
 10
321.72936418148629
 20
75.424545891896742
 30
0.0
  0
VERTEX
  5
1600
  8
0
 10
322.40154347286352
 20
75.524475687397739
 30
0.0
  0
VERTEX
  5
1601
  8
0
 10
323.06664012335239
 20
75.652558672087466
 30
0.0
  0
VERTEX
  5
1602
  8
0
 10
323.72349677240231
 20
75.808282995605282
 30
0.0
  0
VERTEX
  5
1603
  8
0
 10
324.3709842462095
 20
75.991090266809692
 30
0.0
  0
VERTEX
  5
1604
  8
0
 10
325.00800335921321
 20
76.200376431560244
 30
0.0
  0
VERTEX
  5
1605
  8
0
 10
325.63348668642863
 20
76.435492721446394
 30
0.0
  0
VERTEX
  5
1606
  8
0
 10
326.24640030168172
 20
76.695746665764091
 30
0.0
  0
VERTEX
  5
1607
  8
0
 10
326.84574547759217
 20
76.980403158979016
 30
0.0
  0
VERTEX
  5
1608
  8
0
 10
327.43056034394948
 20
77.288685576013336
 30
0.0
  0
VERTEX
  5
1609
  8
0
 10
327.9999215019397
 20
77.619776928034753
 30
0.0
  0
VERTEX
  5
160A
  8
0
 10
328.55294559261631
 20
77.972821052253721
 30
0.0
  0
VERTEX
  5
160B
  8
0
 10
329.08879081916808
 20
78.346923830918172
 30
0.0
  0
VERTEX
  5
160C
  8
0
 10
329.60665842405899
 20
78.741154437844443
 30
0.0
  0
VERTEX
  5
160D
  8
0
 10
330.10579412423999
 20
79.154546616501193
 30
0.0
  0
VERTEX
  5
160E
  8
0
 10
330.5854895106495
 20
79.586100003592605
 30
0.0
  0
VERTEX
  5
160F
  8
0
 10
331.0450834225548
 20
80.034781529152824
 30
0.0
  0
VERTEX
  5
1610
  8
0
 10
331.48396331344742
 20
80.499526953083205
 30
0.0
  0
VERTEX
  5
1611
  8
0
 10
331.90156663365087
 20
80.979242646463703
 30
0.0
  0
VERTEX
  5
1612
  8
0
 10
332.29738226581549
 20
81.472807806104811
 30
0.0
  0
VERTEX
  5
1613
  8
0
 10
332.67095206214731
 20
81.979077421492534
 30
0.0
  0
VERTEX
  5
1614
  8
0
 10
333.02187254310678
 20
82.496886522456279
 30
0.0
  0
VERTEX
  5
1615
  8
0
 10
333.34979681678851
 20
83.02505656137771
 30
0.0
  0
VERTEX
  5
1616
  8
0
 10
333.65443674390173
 20
83.56240526832994
 30
0.0
  0
VERTEX
  5
1617
  8
0
 10
333.93556525834708
 20
84.107761986410296
 30
0.0
  0
VERTEX
  5
1618
  8
0
 10
334.19301846817751
 20
84.659991289232266
 30
0.0
  0
VERTEX
  5
1619
  8
0
 10
334.42669655259789
 20
85.218028297261739
 30
0.0
  0
VERTEX
  5
161A
  8
0
 10
334.63656131833949
 20
85.780928638011915
 30
0.0
  0
VERTEX
  5
161B
  8
0
 10
334.82262639217322
 20
86.347932284568742
 30
0.0
  0
VERTEX
  5
161C
  8
0
 10
334.9849336493059
 20
86.918529387423064
 30
0.0
  0
VERTEX
  5
161D
  8
0
 10
335.1235084950211
 20
87.492492336917834
 30
0.0
  0
VERTEX
  5
161E
  8
0
 10
335.23829310695561
 20
88.069805413897711
 30
0.0
  0
VERTEX
  5
161F
  8
0
 10
335.32908219518401
 20
88.650435011405534
 30
0.0
  0
VERTEX
  5
1620
  8
0
 10
335.39552788290678
 20
89.234109498462431
 30
0.0
  0
VERTEX
  5
1621
  8
0
 10
335.4372510135135
 20
89.820820189681044
 30
0.0
  0
VERTEX
  5
1622
  8
0
 10
335.4538457522055
 20
90.412738762318554
 30
0.0
  0
VERTEX
  5
1623
  8
0
 10
335.44437298477249
 20
91.016299497451882
 30
0.0
  0
VERTEX
  5
1624
  8
0
 10
335.40657916176622
 20
91.640238205035757
 30
0.0
  0
VERTEX
  5
1625
  8
0
 10
335.33676191923439
 20
92.291838567419063
 30
0.0
  0
VERTEX
  5
1626
  8
0
 10
335.24574304694181
 20
92.887879588501391
 30
0.0
  0
VERTEX
  5
1627
  8
0
 10
335.12800893671431
 20
93.486990225327403
 30
0.0
  0
VERTEX
  5
1628
  8
0
 10
334.98389642814698
 20
94.085414096317777
 30
0.0
  0
VERTEX
  5
1629
  8
0
 10
334.81377947110082
 20
94.680857490550352
 30
0.0
  0
VERTEX
  5
162A
  8
0
 10
334.61796928982773
 20
95.271826708011758
 30
0.0
  0
VERTEX
  5
162B
  8
0
 10
334.39675351116978
 20
95.857078921635534
 30
0.0
  0
VERTEX
  5
162C
  8
0
 10
334.15044732097709
 20
96.435390171840041
 30
0.0
  0
VERTEX
  5
162D
  8
0
 10
333.87942107699331
 20
97.005506558210982
 30
0.0
  0
VERTEX
  5
162E
  8
0
 10
333.5841084014059
 20
97.566160281333623
 30
0.0
  0
VERTEX
  5
162F
  8
0
 10
333.26500409405452
 20
98.116097011760885
 30
0.0
  0
VERTEX
  5
1630
  8
0
 10
332.92265830553168
 20
98.654097315171384
 30
0.0
  0
VERTEX
  5
1631
  8
0
 10
332.55767025213709
 20
99.17898947563674
 30
0.0
  0
VERTEX
  5
1632
  8
0
 10
332.17068276846891
 20
99.689655553876491
 30
0.0
  0
VERTEX
  5
1633
  8
0
 10
331.76237799173549
 20
100.1850331538503
 30
0.0
  0
VERTEX
  5
1634
  8
0
 10
331.33347405704222
 20
100.66411485291469
 30
0.0
  0
VERTEX
  5
1635
  8
0
 10
330.88472256184048
 20
101.1259465785074
 30
0.0
  0
VERTEX
  5
1636
  8
0
 10
330.41690656214899
 20
101.5696256814053
 30
0.0
  0
VERTEX
  5
1637
  8
0
 10
329.93083890925249
 20
101.99429909955479
 30
0.0
  0
VERTEX
  5
1638
  8
0
 10
329.42736078701512
 20
102.3991617905082
 30
0.0
  0
VERTEX
  5
1639
  8
0
 10
328.90734035352392
 20
102.78345548906179
 30
0.0
  0
VERTEX
  5
163A
  8
0
 10
328.309755065714
 20
103.1864036574525
 30
0.0
  0
VERTEX
  5
163B
  8
0
 10
327.69528787143531
 20
103.5613032959705
 30
0.0
  0
VERTEX
  5
163C
  8
0
 10
327.06716612464788
 20
103.9065282251612
 30
0.0
  0
VERTEX
  5
163D
  8
0
 10
326.4268240686178
 20
104.22177864564379
 30
0.0
  0
VERTEX
  5
163E
  8
0
 10
325.77563883724878
 20
104.50683558126229
 30
0.0
  0
VERTEX
  5
163F
  8
0
 10
325.11498006397539
 20
104.7615289820226
 30
0.0
  0
VERTEX
  5
1640
  8
0
 10
324.44621082464499
 20
104.985737387771
 30
0.0
  0
VERTEX
  5
1641
  8
0
 10
323.77068696448521
 20
105.1793883658665
 30
0.0
  0
VERTEX
  5
1642
  8
0
 10
323.08975610453621
 20
105.342458935213
 30
0.0
  0
VERTEX
  5
1643
  8
0
 10
322.40475641918772
 20
105.4749759179051
 30
0.0
  0
VERTEX
  5
1644
  8
0
 10
321.71701523591122
 20
105.5770161924201
 30
0.0
  0
VERTEX
  5
1645
  8
0
 10
321.0278474976771
 20
105.64870683427409
 30
0.0
  0
VERTEX
  5
1646
  8
0
 10
320.33855412075923
 20
105.69022513765481
 30
0.0
  0
VERTEX
  5
1647
  8
0
 10
319.65042027452921
 20
105.70179851645931
 30
0.0
  0
VERTEX
  5
1648
  8
0
 10
318.96471360508588
 20
105.6837042863143
 30
0.0
  0
VERTEX
  5
1649
  8
0
 10
318.28268440640181
 20
105.6362695122375
 30
0.0
  0
VERTEX
  5
164A
  8
0
 10
317.6055610135225
 20
105.5598706228958
 30
0.0
  0
VERTEX
  5
164B
  8
0
 10
316.93454747170892
 20
105.4549326114586
 30
0.0
  0
VERTEX
  5
164C
  8
0
 10
316.27082298029961
 20
105.32192840498929
 30
0.0
  0
VERTEX
  5
164D
  8
0
 10
315.61554005296091
 20
105.1613781354319
 30
0.0
  0
VERTEX
  5
164E
  8
0
 10
314.96982269651232
 20
104.9738483259527
 30
0.0
  0
VERTEX
  5
164F
  8
0
 10
314.33476461418951
 20
104.7599510000726
 30
0.0
  0
VERTEX
  5
1650
  8
0
 10
313.71142743899418
 20
104.52034272120009
 30
0.0
  0
VERTEX
  5
1651
  8
0
 10
313.10083900193979
 20
104.2557235702922
 30
0.0
  0
VERTEX
  5
1652
  8
0
 10
312.50399163919582
 20
103.9668360693902
 30
0.0
  0
VERTEX
  5
1653
  8
0
 10
311.92184054134862
 20
103.6544640586618
 30
0.0
  0
VERTEX
  5
1654
  8
0
 10
311.35530214717249
 20
103.31943153416719
 30
0.0
  0
VERTEX
  5
1655
  8
0
 10
310.80525258332301
 20
102.9626014526209
 30
0.0
  0
VERTEX
  5
1656
  8
0
 10
310.27252615017142
 20
102.58487450753201
 30
0.0
  0
VERTEX
  5
1657
  8
0
 10
309.75791385237522
 20
102.1871878776092
 30
0.0
  0
VERTEX
  5
1658
  8
0
 10
309.26216197053299
 20
101.7705139420267
 30
0.0
  0
VERTEX
  5
1659
  8
0
 10
308.78597066704071
 20
101.33585894621621
 30
0.0
  0
VERTEX
  5
165A
  8
0
 10
308.32999261466853
 20
100.8842615831029
 30
0.0
  0
VERTEX
  5
165B
  8
0
 10
307.89483162982441
 20
100.4167914229957
 30
0.0
  0
VERTEX
  5
165C
  8
0
 10
307.48104128358369
 20
99.934547072389606
 30
0.0
  0
VERTEX
  5
165D
  8
0
 10
307.0891234521431
 20
99.438653854475888
 30
0.0
  0
VERTEX
  5
165E
  8
0
 10
306.7195267556271
 20
98.930260661914758
 30
0.0
  0
VERTEX
  5
165F
  8
0
 10
306.3726448243558
 20
98.410535405722612
 30
0.0
  0
VERTEX
  5
1660
  8
0
 10
306.22826262710612
 20
98.18013399431652
 30
0.0
  0
SEQEND
  5
1661
  8
0
  0
POLYLINE
  5
12A0
  8
0
 10
306.23601497355327
 20
82.807267110449885
 30
0.0
 66
     1
 70
     8
  0
VERTEX
  8
0
  5
196C
 10
306.236
 20
82.8073
 30
0.000000
  70
    32
  0
VERTEX
  8
0
  5
196D
 10
306.322
 20
82.6724
 30
0.000000
  70
    32
  0
VERTEX
  8
0
  5
196E
 10
306.410
 20
82.5459
 30
0.000000
  70
    32
  0
VERTEX
  8
0
  5
196F
 10
306.499
 20
82.4277
 30
0.000000
  70
    32
  0
VERTEX
  8
0
  5
1970
 10
306.589
 20
82.3180
 30
0.000000
  70
    32
  0
VERTEX
  8
0
  5
1971
 10
306.681
 20
82.2170
 30
0.000000
  70
    32
  0
VERTEX
  8
0
  5
1972
 10
306.773
 20
82.1247
 30
0.000000
  70
    32
  0
VERTEX
  8
0
  5
1973
 10
306.867
 20
82.0412
 30
0.000000
  70
    32
  0
VERTEX
  8
0
  5
1974
 10
306.961
 20
81.9666
 30
0.000000
  70
    32
  0
VERTEX
  8
0
  5
1975
 10
307.056
 20
81.9011
 30
0.000000
  70
    32
  0
VERTEX
  8
0
  5
1976
 10
307.152
 20
81.8446
 30
0.000000
  70
    32
  0
VERTEX
  8
0
  5
1977
 10
307.248
 20
81.7972
 30
0.000000
  70
    32
  0
VERTEX
  8
0
  5
1978
 10
307.345
 20
81.7590
 30
0.000000
  70
    32
  0
VERTEX
  8
0
  5
1979
 10
307.442
 20
81.7300
 30
0.000000
  70
    32
  0
VERTEX
  8
0
  5
197A
 10
307.540
 20
81.7103
 30
0.000000
  70
    32
  0
VERTEX
  8
0
  5
197B
 10
307.638
 20
81.6998
 30
0.000000
  70
    32
  0
VERTEX
  8
0
  5
197C
 10
307.735
 20
81.6987
 30
0.000000
  70
    32
  0
VERTEX
  8
0
  5
197D
 10
307.833
 20
81.7068
 30
0.000000
  70
    32
  0
VERTEX
  8
0
  5
197E
 10
307.931
 20
81.7241
 30
0.000000
  70
    32
  0
VERTEX
  8
0
  5
197F
 10
308.028
 20
81.7507
 30
0.000000
  70
    32
  0
VERTEX
  8
0
  5
1980
 10
308.125
 20
81.7866
 30
0.000000
  70
    32
  0
VERTEX
  8
0
  5
1981
 10
308.221
 20
81.8316
 30
0.000000
  70
    32
  0
VERTEX
  8
0
  5
1982
 10
308.317
 20
81.8858
 30
0.000000
  70
    32
  0
VERTEX
  8
0
  5
1983
 10
308.413
 20
81.9490
 30
0.000000
  70
    32
  0
VERTEX
  8
0
  5
1984
 10
308.507
 20
82.0213
 30
0.000000
  70
    32
  0
VERTEX
  8
0
  5
1985
 10
308.601
 20
82.1025
 30
0.000000
  70
    32
  0
VERTEX
  8
0
  5
1986
 10
308.694
 20
82.1926
 30
0.000000
  70
    32
  0
VERTEX
  8
0
  5
1987
 10
308.786
 20
82.2914
 30
0.000000
  70
    32
  0
VERTEX
  8
0
  5
1988
 10
308.876
 20
82.3989
 30
0.000000
  70
    32
  0
VERTEX
  8
0
  5
1989
 10
308.966
 20
82.5149
 30
0.000000
  70
    32
  0
VERTEX
  8
0
  5
198A
 10
309.054
 20
82.6393
 30
0.000000
  70
    32
  0
VERTEX
  8
0
  5
198B
 10
309.140
 20
82.7720
 30
0.000000
  70
    32
  0
VERTEX
  8
0
  5
198C
 10
309.225
 20
82.9129
 30
0.000000
  70
    32
  0
VERTEX
  8
0
  5
198D
 10
309.309
 20
83.0618
 30
0.000000
  70
    32
  0
VERTEX
  8
0
  5
198E
 10
309.390
 20
83.2185
 30
0.000000
  70
    32
  0
VERTEX
  8
0
  5
198F
 10
309.470
 20
83.3829
 30
0.000000
  70
    32
  0
VERTEX
  8
0
  5
1990
 10
309.548
 20
83.5548
 30
0.000000
  70
    32
  0
VERTEX
  8
0
  5
1991
 10
309.625
 20
83.7340
 30
0.000000
  70
    32
  0
VERTEX
  8
0
  5
1992
 10
309.699
 20
83.9203
 30
0.000000
  70
    32
  0
VERTEX
  8
0
  5
1993
 10
309.771
 20
84.1136
 30
0.000000
  70
    32
  0
VERTEX
  8
0
  5
1994
 10
309.840
 20
84.3136
 30
0.000000
  70
    32
  0
VERTEX
  8
0
  5
1995
 10
309.908
 20
84.5202
 30
0.000000
  70
    32
  0
VERTEX
  8
0
  5
1996
 10
309.973
 20
84.7330
 30
0.000000
  70
    32
  0
VERTEX
  8
0
  5
1997
 10
310.036
 20
84.9519
 30
0.000000
  70
    32
  0
VERTEX
  8
0
  5
1998
 10
310.096
 20
85.1767
 30
0.000000
  70
    32
  0
VERTEX
  8
0
  5
1999
 10
310.154
 20
85.4071
 30
0.000000
  70
    32
  0
VERTEX
  8
0
  5
199A
 10
310.210
 20
85.6429
 30
0.000000
  70
    32
  0
VERTEX
  8
0
  5
199B
 10
310.262
 20
85.8838
 30
0.000000
  70
    32
  0
VERTEX
  8
0
  5
199C
 10
310.312
 20
86.1295
 30
0.000000
  70
    32
  0
VERTEX
  8
0
  5
199D
 10
310.359
 20
86.3799
 30
0.000000
  70
    32
  0
VERTEX
  8
0
  5
199E
 10
310.404
 20
86.6346
 30
0.000000
  70
    32
  0
VERTEX
  8
0
  5
199F
 10
310.445
 20
86.8933
 30
0.000000
  70
    32
  0
VERTEX
  8
0
  5
19A0
 10
310.484
 20
87.1559
 30
0.000000
  70
    32
  0
VERTEX
  8
0
  5
19A1
 10
310.519
 20
87.4220
 30
0.000000
  70
    32
  0
VERTEX
  8
0
  5
19A2
 10
310.552
 20
87.6914
 30
0.000000
  70
    32
  0
VERTEX
  8
0
  5
19A3
 10
310.582
 20
87.9637
 30
0.000000
  70
    32
  0
VERTEX
  8
0
  5
19A4
 10
310.608
 20
88.2387
 30
0.000000
  70
    32
  0
VERTEX
  8
0
  5
19A5
 10
310.632
 20
88.5160
 30
0.000000
  70
    32
  0
VERTEX
  8
0
  5
19A6
 10
310.652
 20
88.7955
 30
0.000000
  70
    32
  0
VERTEX
  8
0
  5
19A7
 10
310.670
 20
89.0768
 30
0.000000
  70
    32
  0
VERTEX
  8
0
  5
19A8
 10
310.684
 20
89.3595
 30
0.000000
  70
    32
  0
VERTEX
  8
0
  5
19A9
 10
310.695
 20
89.6435
 30
0.000000
  70
    32
  0
VERTEX
  8
0
  5
19AA
 10
310.703
 20
89.9283
 30
0.000000
  70
    32
  0
VERTEX
  8
0
  5
19AB
 10
310.708
 20
90.2138
 30
0.000000
  70
    32
  0
VERTEX
  8
0
  5
19AC
 10
310.709
 20
90.4996
 30
0.000000
  70
    32
  0
VERTEX
  8
0
  5
19AD
 10
310.708
 20
90.7853
 30
0.000000
  70
    32
  0
VERTEX
  8
0
  5
19AE
 10
310.703
 20
91.0708
 30
0.000000
  70
    32
  0
VERTEX
  8
0
  5
19AF
 10
310.695
 20
91.3557
 30
0.000000
  70
    32
  0
VERTEX
  8
0
  5
19B0
 10
310.684
 20
91.6396
 30
0.000000
  70
    32
  0
VERTEX
  8
0
  5
19B1
 10
310.670
 20
91.9224
 30
0.000000
  70
    32
  0
VERTEX
  8
0
  5
19B2
 10
310.653
 20
92.2037
 30
0.000000
  70
    32
  0
VERTEX
  8
0
  5
19B3
 10
310.632
 20
92.4831
 30
0.000000
  70
    32
  0
VERTEX
  8
0
  5
19B4
 10
310.608
 20
92.7605
 30
0.000000
  70
    32
  0
VERTEX
  8
0
  5
19B5
 10
310.582
 20
93.0355
 30
0.000000
  70
    32
  0
VERTEX
  8
0
  5
19B6
 10
310.552
 20
93.3078
 30
0.000000
  70
    32
  0
VERTEX
  8
0
  5
19B7
 10
310.519
 20
93.5772
 30
0.000000
  70
    32
  0
VERTEX
  8
0
  5
19B8
 10
310.484
 20
93.8433
 30
0.000000
  70
    32
  0
VERTEX
  8
0
  5
19B9
 10
310.445
 20
94.1059
 30
0.000000
  70
    32
  0
VERTEX
  8
0
  5
19BA
 10
310.404
 20
94.3647
 30
0.000000
  70
    32
  0
VERTEX
  8
0
  5
19BB
 10
310.359
 20
94.6194
 30
0.000000
  70
    32
  0
VERTEX
  8
0
  5
19BC
 10
310.312
 20
94.8698
 30
0.000000
  70
    32
  0
VERTEX
  8
0
  5
19BD
 10
310.262
 20
95.1155
 30
0.000000
  70
    32
  0
VERTEX
  8
0
  5
19BE
 10
310.210
 20
95.3564
 30
0.000000
  70
    32
  0
VERTEX
  8
0
  5
19BF
 10
310.155
 20
95.5922
 30
0.000000
  70
    32
  0
VERTEX
  8
0
  5
19C0
 10
310.097
 20
95.8226
 30
0.000000
  70
    32
  0
VERTEX
  8
0
  5
19C1
 10
310.036
 20
96.0474
 30
0.000000
  70
    32
  0
VERTEX
  8
0
  5
19C2
 10
309.973
 20
96.2663
 30
0.000000
  70
    32
  0
VERTEX
  8
0
  5
19C3
 10
309.908
 20
96.4792
 30
0.000000
  70
    32
  0
VERTEX
  8
0
  5
19C4
 10
309.841
 20
96.6858
 30
0.000000
  70
    32
  0
VERTEX
  8
0
  5
19C5
 10
309.771
 20
96.8858
 30
0.000000
  70
    32
  0
VERTEX
  8
0
  5
19C6
 10
309.699
 20
97.0791
 30
0.000000
  70
    32
  0
VERTEX
  8
0
  5
19C7
 10
309.625
 20
97.2655
 30
0.000000
  70
    32
  0
VERTEX
  8
0
  5
19C8
 10
309.549
 20
97.4447
 30
0.000000
  70
    32
  0
VERTEX
  8
0
  5
19C9
 10
309.471
 20
97.6166
 30
0.000000
  70
    32
  0
VERTEX
  8
0
  5
19CA
 10
309.391
 20
97.7811
 30
0.000000
  70
    32
  0
VERTEX
  8
0
  5
19CB
 10
309.309
 20
97.9378
 30
0.000000
  70
    32
  0
VERTEX
  8
0
  5
19CC
 10
309.225
 20
98.0867
 30
0.000000
  70
    32
  0
VERTEX
  8
0
  5
19CD
 10
309.140
 20
98.2276
 30
0.000000
  70
    32
  0
VERTEX
  8
0
  5
19CE
 10
309.054
 20
98.3603
 30
0.000000
  70
    32
  0
VERTEX
  8
0
  5
19CF
 10
308.966
 20
98.4848
 30
0.000000
  70
    32
  0
VERTEX
  8
0
  5
19D0
 10
308.876
 20
98.6008
 30
0.000000
  70
    32
  0
VERTEX
  8
0
  5
19D1
 10
308.786
 20
98.7083
 30
0.000000
  70
    32
  0
VERTEX
  8
0
  5
19D2
 10
308.694
 20
98.8072
 30
0.000000
  70
    32
  0
VERTEX
  8
0
  5
19D3
 10
308.601
 20
98.8972
 30
0.000000
  70
    32
  0
VERTEX
  8
0
  5
19D4
 10
308.508
 20
98.9785
 30
0.000000
  70
    32
  0
VERTEX
  8
0
  5
19D5
 10
308.413
 20
99.0508
 30
0.000000
  70
    32
  0
VERTEX
  8
0
  5
19D6
 10
308.318
 20
99.1141
 30
0.000000
  70
    32
  0
VERTEX
  8
0
  5
19D7
 10
308.222
 20
99.1682
 30
0.000000
  70
    32
  0
VERTEX
  8
0
  5
19D8
 10
308.125
 20
99.2133
 30
0.000000
  70
    32
  0
VERTEX
  8
0
  5
19D9
 10
308.028
 20
99.2492
 30
0.000000
  70
    32
  0
VERTEX
  8
0
  5
19DA
 10
307.931
 20
99.2758
 30
0.000000
  70
    32
  0
VERTEX
  8
0
  5
19DB
 10
307.833
 20
99.2932
 30
0.000000
  70
    32
  0
VERTEX
  8
0
  5
19DC
 10
307.736
 20
99.3013
 30
0.000000
  70
    32
  0
VERTEX
  8
0
  5
19DD
 10
307.638
 20
99.3002
 30
0.000000
  70
    32
  0
VERTEX
  8
0
  5
19DE
 10
307.540
 20
99.2897
 30
0.000000
  70
    32
  0
VERTEX
  8
0
  5
19DF
 10
307.443
 20
99.2700
 30
0.000000
  70
    32
  0
VERTEX
  8
0
  5
19E0
 10
307.345
 20
99.2411
 30
0.000000
  70
    32
  0
VERTEX
  8
0
  5
19E1
 10
307.249
 20
99.2029
 30
0.000000
  70
    32
  0
VERTEX
  8
0
  5
19E2
 10
307.152
 20
99.1556
 30
0.000000
  70
    32
  0
VERTEX
  8
0
  5
19E3
 10
307.056
 20
99.0991
 30
0.000000
  70
    32
  0
VERTEX
  8
0
  5
19E4
 10
306.961
 20
99.0336
 30
0.000000
  70
    32
  0
VERTEX
  8
0
  5
19E5
 10
306.867
 20
98.9590
 30
0.000000
  70
    32
  0
VERTEX
  8
0
  5
19E6
 10
306.773
 20
98.8756
 30
0.000000
  70
    32
  0
VERTEX
  8
0
  5
19E7
 10
306.681
 20
98.7833
 30
0.000000
  70
    32
  0
VERTEX
  8
0
  5
19E8
 10
306.589
 20
98.6823
 30
0.000000
  70
    32
  0
VERTEX
  8
0
  5
19E9
 10
306.499
 20
98.5726
 30
0.000000
  70
    32
  0
VERTEX
  8
0
  5
19EA
 10
306.410
 20
98.4545
 30
0.000000
  70
    32
  0
VERTEX
  8
0
  5
19EB
 10
306.322
 20
98.3279
 30
0.000000
  70
    32
  0
VERTEX
  8
0
  5
19EC
 10
306.236
 20
98.1931
 30
0.000000
  70
    32
  0
SEQEND
  8
0
  5
19ED
  0
LINE
  5
12A1
  8
1
 10
166.0
 20
90.5
 30
0.0
 11
340.45309198344648
 21
90.5
 31
0.0
  0
LINE
  5
12A2
  8
1
 10
191.5
 20
65.0
 30
0.0
 11
191.5
 21
116.0
 31
0.0
  0
POLYLINE
  5
12A3
  8
0
 10
307.69899661880072
 20
84.0
 30
0.0
 66
     1
 70
     8
  0
VERTEX
  8
0
  5
19EE
 10
307.699
 20
84.0000
 30
0.000000
  70
    32
  0
VERTEX
  8
0
  5
19EF
 10
307.754
 20
84.0020
 30
0.000000
  70
    32
  0
VERTEX
  8
0
  5
19F0
 10
307.808
 20
84.0078
 30
0.000000
  70
    32
  0
VERTEX
  8
0
  5
19F1
 10
307.863
 20
84.0176
 30
0.000000
  70
    32
  0
VERTEX
  8
0
  5
19F2
 10
307.917
 20
84.0313
 30
0.000000
  70
    32
  0
VERTEX
  8
0
  5
19F3
 10
307.971
 20
84.0489
 30
0.000000
  70
    32
  0
VERTEX
  8
0
  5
19F4
 10
308.025
 20
84.0704
 30
0.000000
  70
    32
  0
VERTEX
  8
0
  5
19F5
 10
308.079
 20
84.0957
 30
0.000000
  70
    32
  0
VERTEX
  8
0
  5
19F6
 10
308.133
 20
84.1249
 30
0.000000
  70
    32
  0
VERTEX
  8
0
  5
19F7
 10
308.186
 20
84.1579
 30
0.000000
  70
    32
  0
VERTEX
  8
0
  5
19F8
 10
308.239
 20
84.1948
 30
0.000000
  70
    32
  0
VERTEX
  8
0
  5
19F9
 10
308.292
 20
84.2355
 30
0.000000
  70
    32
  0
VERTEX
  8
0
  5
19FA
 10
308.344
 20
84.2799
 30
0.000000
  70
    32
  0
VERTEX
  8
0
  5
19FB
 10
308.396
 20
84.3281
 30
0.000000
  70
    32
  0
VERTEX
  8
0
  5
19FC
 10
308.448
 20
84.3800
 30
0.000000
  70
    32
  0
VERTEX
  8
0
  5
19FD
 10
308.499
 20
84.4355
 30
0.000000
  70
    32
  0
VERTEX
  8
0
  5
19FE
 10
308.550
 20
84.4948
 30
0.000000
  70
    32
  0
VERTEX
  8
0
  5
19FF
 10
308.600
 20
84.5576
 30
0.000000
  70
    32
  0
VERTEX
  8
0
  5
1A00
 10
308.650
 20
84.6241
 30
0.000000
  70
    32
  0
VERTEX
  8
0
  5
1A01
 10
308.699
 20
84.6940
 30
0.000000
  70
    32
  0
VERTEX
  8
0
  5
1A02
 10
308.747
 20
84.7675
 30
0.000000
  70
    32
  0
VERTEX
  8
0
  5
1A03
 10
308.795
 20
84.8444
 30
0.000000
  70
    32
  0
VERTEX
  8
0
  5
1A04
 10
308.842
 20
84.9248
 30
0.000000
  70
    32
  0
VERTEX
  8
0
  5
1A05
 10
308.888
 20
85.0085
 30
0.000000
  70
    32
  0
VERTEX
  8
0
  5
1A06
 10
308.934
 20
85.0954
 30
0.000000
  70
    32
  0
VERTEX
  8
0
  5
1A07
 10
308.979
 20
85.1857
 30
0.000000
  70
    32
  0
VERTEX
  8
0
  5
1A08
 10
309.023
 20
85.2792
 30
0.000000
  70
    32
  0
VERTEX
  8
0
  5
1A09
 10
309.067
 20
85.3757
 30
0.000000
  70
    32
  0
VERTEX
  8
0
  5
1A0A
 10
309.109
 20
85.4754
 30
0.000000
  70
    32
  0
VERTEX
  8
0
  5
1A0B
 10
309.151
 20
85.5781
 30
0.000000
  70
    32
  0
VERTEX
  8
0
  5
1A0C
 10
309.192
 20
85.6838
 30
0.000000
  70
    32
  0
VERTEX
  8
0
  5
1A0D
 10
309.232
 20
85.7924
 30
0.000000
  70
    32
  0
VERTEX
  8
0
  5
1A0E
 10
309.271
 20
85.9038
 30
0.000000
  70
    32
  0
VERTEX
  8
0
  5
1A0F
 10
309.309
 20
86.0180
 30
0.000000
  70
    32
  0
VERTEX
  8
0
  5
1A10
 10
309.346
 20
86.1349
 30
0.000000
  70
    32
  0
VERTEX
  8
0
  5
1A11
 10
309.382
 20
86.2544
 30
0.000000
  70
    32
  0
VERTEX
  8
0
  5
1A12
 10
309.418
 20
86.3764
 30
0.000000
  70
    32
  0
VERTEX
  8
0
  5
1A13
 10
309.452
 20
86.5010
 30
0.000000
  70
    32
  0
VERTEX
  8
0
  5
1A14
 10
309.485
 20
86.6280
 30
0.000000
  70
    32
  0
VERTEX
  8
0
  5
1A15
 10
309.517
 20
86.7572
 30
0.000000
  70
    32
  0
VERTEX
  8
0
  5
1A16
 10
309.547
 20
86.8888
 30
0.000000
  70
    32
  0
VERTEX
  8
0
  5
1A17
 10
309.577
 20
87.0225
 30
0.000000
  70
    32
  0
VERTEX
  8
0
  5
1A18
 10
309.606
 20
87.1583
 30
0.000000
  70
    32
  0
VERTEX
  8
0
  5
1A19
 10
309.633
 20
87.2962
 30
0.000000
  70
    32
  0
VERTEX
  8
0
  5
1A1A
 10
309.660
 20
87.4359
 30
0.000000
  70
    32
  0
VERTEX
  8
0
  5
1A1B
 10
309.685
 20
87.5775
 30
0.000000
  70
    32
  0
VERTEX
  8
0
  5
1A1C
 10
309.709
 20
87.7209
 30
0.000000
  70
    32
  0
VERTEX
  8
0
  5
1A1D
 10
309.731
 20
87.8659
 30
0.000000
  70
    32
  0
VERTEX
  8
0
  5
1A1E
 10
309.753
 20
88.0126
 30
0.000000
  70
    32
  0
VERTEX
  8
0
  5
1A1F
 10
309.773
 20
88.1607
 30
0.000000
  70
    32
  0
VERTEX
  8
0
  5
1A20
 10
309.792
 20
88.3102
 30
0.000000
  70
    32
  0
VERTEX
  8
0
  5
1A21
 10
309.810
 20
88.4611
 30
0.000000
  70
    32
  0
VERTEX
  8
0
  5
1A22
 10
309.826
 20
88.6131
 30
0.000000
  70
    32
  0
VERTEX
  8
0
  5
1A23
 10
309.842
 20
88.7664
 30
0.000000
  70
    32
  0
VERTEX
  8
0
  5
1A24
 10
309.856
 20
88.9206
 30
0.000000
  70
    32
  0
VERTEX
  8
0
  5
1A25
 10
309.868
 20
89.0758
 30
0.000000
  70
    32
  0
VERTEX
  8
0
  5
1A26
 10
309.879
 20
89.2319
 30
0.000000
  70
    32
  0
VERTEX
  8
0
  5
1A27
 10
309.889
 20
89.3887
 30
0.000000
  70
    32
  0
VERTEX
  8
0
  5
1A28
 10
309.898
 20
89.5463
 30
0.000000
  70
    32
  0
VERTEX
  8
0
  5
1A29
 10
309.905
 20
89.7043
 30
0.000000
  70
    32
  0
VERTEX
  8
0
  5
1A2A
 10
309.911
 20
89.8629
 30
0.000000
  70
    32
  0
VERTEX
  8
0
  5
1A2B
 10
309.916
 20
90.0218
 30
0.000000
  70
    32
  0
VERTEX
  8
0
  5
1A2C
 10
309.919
 20
90.1811
 30
0.000000
  70
    32
  0
VERTEX
  8
0
  5
1A2D
 10
309.921
 20
90.3405
 30
0.000000
  70
    32
  0
VERTEX
  8
0
  5
1A2E
 10
309.922
 20
90.5000
 30
0.000000
  70
    32
  0
VERTEX
  8
0
  5
1A2F
 10
309.921
 20
90.6595
 30
0.000000
  70
    32
  0
VERTEX
  8
0
  5
1A30
 10
309.919
 20
90.8189
 30
0.000000
  70
    32
  0
VERTEX
  8
0
  5
1A31
 10
309.916
 20
90.9782
 30
0.000000
  70
    32
  0
VERTEX
  8
0
  5
1A32
 10
309.911
 20
91.1371
 30
0.000000
  70
    32
  0
VERTEX
  8
0
  5
1A33
 10
309.905
 20
91.2957
 30
0.000000
  70
    32
  0
VERTEX
  8
0
  5
1A34
 10
309.898
 20
91.4537
 30
0.000000
  70
    32
  0
VERTEX
  8
0
  5
1A35
 10
309.889
 20
91.6113
 30
0.000000
  70
    32
  0
VERTEX
  8
0
  5
1A36
 10
309.879
 20
91.7681
 30
0.000000
  70
    32
  0
VERTEX
  8
0
  5
1A37
 10
309.868
 20
91.9242
 30
0.000000
  70
    32
  0
VERTEX
  8
0
  5
1A38
 10
309.856
 20
92.0794
 30
0.000000
  70
    32
  0
VERTEX
  8
0
  5
1A39
 10
309.842
 20
92.2336
 30
0.000000
  70
    32
  0
VERTEX
  8
0
  5
1A3A
 10
309.826
 20
92.3869
 30
0.000000
  70
    32
  0
VERTEX
  8
0
  5
1A3B
 10
309.810
 20
92.5389
 30
0.000000
  70
    32
  0
VERTEX
  8
0
  5
1A3C
 10
309.792
 20
92.6898
 30
0.000000
  70
    32
  0
VERTEX
  8
0
  5
1A3D
 10
309.773
 20
92.8393
 30
0.000000
  70
    32
  0
VERTEX
  8
0
  5
1A3E
 10
309.753
 20
92.9874
 30
0.000000
  70
    32
  0
VERTEX
  8
0
  5
1A3F
 10
309.731
 20
93.1341
 30
0.000000
  70
    32
  0
VERTEX
  8
0
  5
1A40
 10
309.709
 20
93.2791
 30
0.000000
  70
    32
  0
VERTEX
  8
0
  5
1A41
 10
309.685
 20
93.4225
 30
0.000000
  70
    32
  0
VERTEX
  8
0
  5
1A42
 10
309.660
 20
93.5641
 30
0.000000
  70
    32
  0
VERTEX
  8
0
  5
1A43
 10
309.633
 20
93.7038
 30
0.000000
  70
    32
  0
VERTEX
  8
0
  5
1A44
 10
309.606
 20
93.8417
 30
0.000000
  70
    32
  0
VERTEX
  8
0
  5
1A45
 10
309.577
 20
93.9775
 30
0.000000
  70
    32
  0
VERTEX
  8
0
  5
1A46
 10
309.547
 20
94.1112
 30
0.000000
  70
    32
  0
VERTEX
  8
0
  5
1A47
 10
309.517
 20
94.2428
 30
0.000000
  70
    32
  0
VERTEX
  8
0
  5
1A48
 10
309.485
 20
94.3720
 30
0.000000
  70
    32
  0
VERTEX
  8
0
  5
1A49
 10
309.452
 20
94.4990
 30
0.000000
  70
    32
  0
VERTEX
  8
0
  5
1A4A
 10
309.418
 20
94.6236
 30
0.000000
  70
    32
  0
VERTEX
  8
0
  5
1A4B
 10
309.382
 20
94.7456
 30
0.000000
  70
    32
  0
VERTEX
  8
0
  5
1A4C
 10
309.346
 20
94.8651
 30
0.000000
  70
    32
  0
VERTEX
  8
0
  5
1A4D
 10
309.309
 20
94.9820
 30
0.000000
  70
    32
  0
VERTEX
  8
0
  5
1A4E
 10
309.271
 20
95.0962
 30
0.000000
  70
    32
  0
VERTEX
  8
0
  5
1A4F
 10
309.232
 20
95.2076
 30
0.000000
  70
    32
  0
VERTEX
  8
0
  5
1A50
 10
309.192
 20
95.3162
 30
0.000000
  70
    32
  0
VERTEX
  8
0
  5
1A51
 10
309.151
 20
95.4219
 30
0.000000
  70
    32
  0
VERTEX
  8
0
  5
1A52
 10
309.109
 20
95.5246
 30
0.000000
  70
    32
  0
VERTEX
  8
0
  5
1A53
 10
309.067
 20
95.6243
 30
0.000000
  70
    32
  0
VERTEX
  8
0
  5
1A54
 10
309.023
 20
95.7208
 30
0.000000
  70
    32
  0
VERTEX
  8
0
  5
1A55
 10
308.979
 20
95.8143
 30
0.000000
  70
    32
  0
VERTEX
  8
0
  5
1A56
 10
308.934
 20
95.9046
 30
0.000000
  70
    32
  0
VERTEX
  8
0
  5
1A57
 10
308.888
 20
95.9915
 30
0.000000
  70
    32
  0
VERTEX
  8
0
  5
1A58
 10
308.842
 20
96.0752
 30
0.000000
  70
    32
  0
VERTEX
  8
0
  5
1A59
 10
308.795
 20
96.1556
 30
0.000000
  70
    32
  0
VERTEX
  8
0
  5
1A5A
 10
308.747
 20
96.2325
 30
0.000000
  70
    32
  0
VERTEX
  8
0
  5
1A5B
 10
308.699
 20
96.3060
 30
0.000000
  70
    32
  0
VERTEX
  8
0
  5
1A5C
 10
308.650
 20
96.3759
 30
0.000000
  70
    32
  0
VERTEX
  8
0
  5
1A5D
 10
308.600
 20
96.4424
 30
0.000000
  70
    32
  0
VERTEX
  8
0
  5
1A5E
 10
308.550
 20
96.5052
 30
0.000000
  70
    32
  0
VERTEX
  8
0
  5
1A5F
 10
308.499
 20
96.5645
 30
0.000000
  70
    32
  0
VERTEX
  8
0
  5
1A60
 10
308.448
 20
96.6200
 30
0.000000
  70
    32
  0
VERTEX
  8
0
  5
1A61
 10
308.396
 20
96.6719
 30
0.000000
  70
    32
  0
VERTEX
  8
0
  5
1A62
 10
308.344
 20
96.7201
 30
0.000000
  70
    32
  0
VERTEX
  8
0
  5
1A63
 10
308.292
 20
96.7645
 30
0.000000
  70
    32
  0
VERTEX
  8
0
  5
1A64
 10
308.239
 20
96.8052
 30
0.000000
  70
    32
  0
VERTEX
  8
0
  5
1A65
 10
308.186
 20
96.8421
 30
0.000000
  70
    32
  0
VERTEX
  8
0
  5
1A66
 10
308.133
 20
96.8751
 30
0.000000
  70
    32
  0
VERTEX
  8
0
  5
1A67
 10
308.079
 20
96.9043
 30
0.000000
  70
    32
  0
VERTEX
  8
0
  5
1A68
 10
308.025
 20
96.9296
 30
0.000000
  70
    32
  0
VERTEX
  8
0
  5
1A69
 10
307.971
 20
96.9511
 30
0.000000
  70
    32
  0
VERTEX
  8
0
  5
1A6A
 10
307.917
 20
96.9687
 30
0.000000
  70
    32
  0
VERTEX
  8
0
  5
1A6B
 10
307.863
 20
96.9824
 30
0.000000
  70
    32
  0
VERTEX
  8
0
  5
1A6C
 10
307.808
 20
96.9922
 30
0.000000
  70
    32
  0
VERTEX
  8
0
  5
1A6D
 10
307.754
 20
96.9980
 30
0.000000
  70
    32
  0
VERTEX
  8
0
  5
1A6E
 10
307.699
 20
97.0000
 30
0.000000
  70
    32
  0
SEQEND
  8
0
  5
1A6F
  0
LINE
  5
12AC
  8
0
 10
105.5
 20
231.0
 30
0.0
 11
75.5
 21
231.0
 31
0.0
  0
LINE
  5
12AD
  8
0
 10
75.5
 20
238.5
 30
0.0
 11
75.5
 21
231.0
 31
0.0
  0
LINE
  5
12AE
  8
0
 10
105.5
 20
231.0
 30
0.0
 11
105.5
 21
238.5
 31
0.0
  0
LINE
  5
12AF
  8
0
 10
107.5749999999999
 20
299.5
 30
0.0
 11
73.424999999999955
 21
299.49999999999989
 31
0.0
  0
LINE
  5
12B0
  8
0
 10
73.425000000000011
 20
299.5
 30
0.0
 11
70.0
 21
296.07499999999999
 31
0.0
  0
LINE
  5
12B1
  8
0
 10
111.0
 20
296.07499999999999
 30
0.0
 11
107.5749999999999
 21
299.5
 31
0.0
  0
LINE
  5
12B2
  8
0
 10
110.25
 20
238.5
 30
0.0
 11
70.75
 21
238.5
 31
0.0
  0
LINE
  5
12B3
  8
0
 10
110.25
 20
238.5
 30
0.0
 11
111.0
 21
239.25
 31
0.0
  0
LINE
  5
12B4
  8
0
 10
70.0
 20
239.25
 30
0.0
 11
70.75
 21
238.5
 31
0.0
  0
LINE
  5
12B5
  8
0
 10
111.0
 20
239.25
 30
0.0
 11
70.0
 21
239.25
 31
0.0
  0
LINE
  5
12B6
  8
0
 10
111.0
 20
296.07499999999999
 30
0.0
 11
69.999999999999915
 21
296.07499999999999
 31
0.0
  0
LINE
  5
12B7
  8
0
 10
70.0
 20
296.07499999999999
 30
0.0
 11
70.0
 21
239.25
 31
0.0
  0
LINE
  5
12B8
  8
0
 10
111.0
 20
239.25
 30
0.0
 11
111.0
 21
296.07499999999999
 31
0.0
  0
POLYLINE
  5
12B9
  8
0
 10
90.500000000000014
 20
322.98003473950075
 30
0.0
 66
     1
 70
     8
  0
VERTEX
  8
0
  5
1A70
 10
90.5000
 20
322.980
 30
0.000000
  70
    32
  0
VERTEX
  8
0
  5
1A71
 10
90.4202
 20
322.980
 30
0.000000
  70
    32
  0
VERTEX
  8
0
  5
1A72
 10
90.3405
 20
322.978
 30
0.000000
  70
    32
  0
VERTEX
  8
0
  5
1A73
 10
90.2608
 20
322.976
 30
0.000000
  70
    32
  0
VERTEX
  8
0
  5
1A74
 10
90.1811
 20
322.973
 30
0.000000
  70
    32
  0
VERTEX
  8
0
  5
1A75
 10
90.1014
 20
322.969
 30
0.000000
  70
    32
  0
VERTEX
  8
0
  5
1A76
 10
90.0218
 20
322.963
 30
0.000000
  70
    32
  0
VERTEX
  8
0
  5
1A77
 10
89.9423
 20
322.958
 30
0.000000
  70
    32
  0
VERTEX
  8
0
  5
1A78
 10
89.8629
 20
322.951
 30
0.000000
  70
    32
  0
VERTEX
  8
0
  5
1A79
 10
89.7836
 20
322.943
 30
0.000000
  70
    32
  0
VERTEX
  8
0
  5
1A7A
 10
89.7043
 20
322.934
 30
0.000000
  70
    32
  0
VERTEX
  8
0
  5
1A7B
 10
89.6252
 20
322.924
 30
0.000000
  70
    32
  0
VERTEX
  8
0
  5
1A7C
 10
89.5463
 20
322.914
 30
0.000000
  70
    32
  0
VERTEX
  8
0
  5
1A7D
 10
89.4674
 20
322.902
 30
0.000000
  70
    32
  0
VERTEX
  8
0
  5
1A7E
 10
89.3887
 20
322.890
 30
0.000000
  70
    32
  0
VERTEX
  8
0
  5
1A7F
 10
89.3102
 20
322.877
 30
0.000000
  70
    32
  0
VERTEX
  8
0
  5
1A80
 10
89.2319
 20
322.863
 30
0.000000
  70
    32
  0
VERTEX
  8
0
  5
1A81
 10
89.1538
 20
322.848
 30
0.000000
  70
    32
  0
VERTEX
  8
0
  5
1A82
 10
89.0758
 20
322.832
 30
0.000000
  70
    32
  0
VERTEX
  8
0
  5
1A83
 10
88.9981
 20
322.815
 30
0.000000
  70
    32
  0
VERTEX
  8
0
  5
1A84
 10
88.9206
 20
322.797
 30
0.000000
  70
    32
  0
VERTEX
  8
0
  5
1A85
 10
88.8434
 20
322.778
 30
0.000000
  70
    32
  0
VERTEX
  8
0
  5
1A86
 10
88.7664
 20
322.759
 30
0.000000
  70
    32
  0
VERTEX
  8
0
  5
1A87
 10
88.6896
 20
322.738
 30
0.000000
  70
    32
  0
VERTEX
  8
0
  5
1A88
 10
88.6131
 20
322.717
 30
0.000000
  70
    32
  0
VERTEX
  8
0
  5
1A89
 10
88.5370
 20
322.695
 30
0.000000
  70
    32
  0
VERTEX
  8
0
  5
1A8A
 10
88.4611
 20
322.672
 30
0.000000
  70
    32
  0
VERTEX
  8
0
  5
1A8B
 10
88.3855
 20
322.648
 30
0.000000
  70
    32
  0
VERTEX
  8
0
  5
1A8C
 10
88.3102
 20
322.623
 30
0.000000
  70
    32
  0
VERTEX
  8
0
  5
1A8D
 10
88.2353
 20
322.597
 30
0.000000
  70
    32
  0
VERTEX
  8
0
  5
1A8E
 10
88.1607
 20
322.571
 30
0.000000
  70
    32
  0
VERTEX
  8
0
  5
1A8F
 10
88.0864
 20
322.543
 30
0.000000
  70
    32
  0
VERTEX
  8
0
  5
1A90
 10
88.0126
 20
322.515
 30
0.000000
  70
    32
  0
VERTEX
  8
0
  5
1A91
 10
87.9391
 20
322.486
 30
0.000000
  70
    32
  0
VERTEX
  8
0
  5
1A92
 10
87.8659
 20
322.456
 30
0.000000
  70
    32
  0
VERTEX
  8
0
  5
1A93
 10
87.7932
 20
322.425
 30
0.000000
  70
    32
  0
VERTEX
  8
0
  5
1A94
 10
87.7209
 20
322.394
 30
0.000000
  70
    32
  0
VERTEX
  8
0
  5
1A95
 10
87.6490
 20
322.361
 30
0.000000
  70
    32
  0
VERTEX
  8
0
  5
1A96
 10
87.5775
 20
322.328
 30
0.000000
  70
    32
  0
VERTEX
  8
0
  5
1A97
 10
87.5065
 20
322.294
 30
0.000000
  70
    32
  0
VERTEX
  8
0
  5
1A98
 10
87.4359
 20
322.259
 30
0.000000
  70
    32
  0
VERTEX
  8
0
  5
1A99
 10
87.3658
 20
322.223
 30
0.000000
  70
    32
  0
VERTEX
  8
0
  5
1A9A
 10
87.2962
 20
322.187
 30
0.000000
  70
    32
  0
VERTEX
  8
0
  5
1A9B
 10
87.2270
 20
322.149
 30
0.000000
  70
    32
  0
VERTEX
  8
0
  5
1A9C
 10
87.1583
 20
322.111
 30
0.000000
  70
    32
  0
VERTEX
  8
0
  5
1A9D
 10
87.0902
 20
322.072
 30
0.000000
  70
    32
  0
VERTEX
  8
0
  5
1A9E
 10
87.0225
 20
322.032
 30
0.000000
  70
    32
  0
VERTEX
  8
0
  5
1A9F
 10
86.9554
 20
321.992
 30
0.000000
  70
    32
  0
VERTEX
  8
0
  5
1AA0
 10
86.8888
 20
321.951
 30
0.000000
  70
    32
  0
VERTEX
  8
0
  5
1AA1
 10
86.8227
 20
321.909
 30
0.000000
  70
    32
  0
VERTEX
  8
0
  5
1AA2
 10
86.7572
 20
321.866
 30
0.000000
  70
    32
  0
VERTEX
  8
0
  5
1AA3
 10
86.6923
 20
321.822
 30
0.000000
  70
    32
  0
VERTEX
  8
0
  5
1AA4
 10
86.6280
 20
321.778
 30
0.000000
  70
    32
  0
VERTEX
  8
0
  5
1AA5
 10
86.5642
 20
321.733
 30
0.000000
  70
    32
  0
VERTEX
  8
0
  5
1AA6
 10
86.5010
 20
321.687
 30
0.000000
  70
    32
  0
VERTEX
  8
0
  5
1AA7
 10
86.4384
 20
321.641
 30
0.000000
  70
    32
  0
VERTEX
  8
0
  5
1AA8
 10
86.3764
 20
321.594
 30
0.000000
  70
    32
  0
VERTEX
  8
0
  5
1AA9
 10
86.3151
 20
321.546
 30
0.000000
  70
    32
  0
VERTEX
  8
0
  5
1AAA
 10
86.2544
 20
321.497
 30
0.000000
  70
    32
  0
VERTEX
  8
0
  5
1AAB
 10
86.1943
 20
321.448
 30
0.000000
  70
    32
  0
VERTEX
  8
0
  5
1AAC
 10
86.1349
 20
321.398
 30
0.000000
  70
    32
  0
VERTEX
  8
0
  5
1AAD
 10
86.0761
 20
321.347
 30
0.000000
  70
    32
  0
VERTEX
  8
0
  5
1AAE
 10
86.0180
 20
321.296
 30
0.000000
  70
    32
  0
VERTEX
  8
0
  5
1AAF
 10
85.9606
 20
321.244
 30
0.000000
  70
    32
  0
VERTEX
  8
0
  5
1AB0
 10
85.9038
 20
321.191
 30
0.000000
  70
    32
  0
VERTEX
  8
0
  5
1AB1
 10
85.8477
 20
321.138
 30
0.000000
  70
    32
  0
VERTEX
  8
0
  5
1AB2
 10
85.7924
 20
321.084
 30
0.000000
  70
    32
  0
VERTEX
  8
0
  5
1AB3
 10
85.7377
 20
321.029
 30
0.000000
  70
    32
  0
VERTEX
  8
0
  5
1AB4
 10
85.6838
 20
320.974
 30
0.000000
  70
    32
  0
VERTEX
  8
0
  5
1AB5
 10
85.6306
 20
320.918
 30
0.000000
  70
    32
  0
VERTEX
  8
0
  5
1AB6
 10
85.5781
 20
320.862
 30
0.000000
  70
    32
  0
VERTEX
  8
0
  5
1AB7
 10
85.5264
 20
320.805
 30
0.000000
  70
    32
  0
VERTEX
  8
0
  5
1AB8
 10
85.4754
 20
320.747
 30
0.000000
  70
    32
  0
VERTEX
  8
0
  5
1AB9
 10
85.4252
 20
320.689
 30
0.000000
  70
    32
  0
VERTEX
  8
0
  5
1ABA
 10
85.3757
 20
320.630
 30
0.000000
  70
    32
  0
VERTEX
  8
0
  5
1ABB
 10
85.3271
 20
320.570
 30
0.000000
  70
    32
  0
VERTEX
  8
0
  5
1ABC
 10
85.2792
 20
320.511
 30
0.000000
  70
    32
  0
VERTEX
  8
0
  5
1ABD
 10
85.2320
 20
320.450
 30
0.000000
  70
    32
  0
VERTEX
  8
0
  5
1ABE
 10
85.1857
 20
320.389
 30
0.000000
  70
    32
  0
VERTEX
  8
0
  5
1ABF
 10
85.1402
 20
320.328
 30
0.000000
  70
    32
  0
VERTEX
  8
0
  5
1AC0
 10
85.0954
 20
320.265
 30
0.000000
  70
    32
  0
VERTEX
  8
0
  5
1AC1
 10
85.0515
 20
320.203
 30
0.000000
  70
    32
  0
VERTEX
  8
0
  5
1AC2
 10
85.0085
 20
320.140
 30
0.000000
  70
    32
  0
VERTEX
  8
0
  5
1AC3
 10
84.9662
 20
320.076
 30
0.000000
  70
    32
  0
VERTEX
  8
0
  5
1AC4
 10
84.9248
 20
320.012
 30
0.000000
  70
    32
  0
VERTEX
  8
0
  5
1AC5
 10
84.8842
 20
319.948
 30
0.000000
  70
    32
  0
VERTEX
  8
0
  5
1AC6
 10
84.8444
 20
319.883
 30
0.000000
  70
    32
  0
VERTEX
  8
0
  5
1AC7
 10
84.8055
 20
319.817
 30
0.000000
  70
    32
  0
VERTEX
  8
0
  5
1AC8
 10
84.7675
 20
319.751
 30
0.000000
  70
    32
  0
VERTEX
  8
0
  5
1AC9
 10
84.7303
 20
319.685
 30
0.000000
  70
    32
  0
VERTEX
  8
0
  5
1ACA
 10
84.6940
 20
319.618
 30
0.000000
  70
    32
  0
VERTEX
  8
0
  5
1ACB
 10
84.6586
 20
319.551
 30
0.000000
  70
    32
  0
VERTEX
  8
0
  5
1ACC
 10
84.6241
 20
319.484
 30
0.000000
  70
    32
  0
VERTEX
  8
0
  5
1ACD
 10
84.5904
 20
319.416
 30
0.000000
  70
    32
  0
VERTEX
  8
0
  5
1ACE
 10
84.5576
 20
319.347
 30
0.000000
  70
    32
  0
VERTEX
  8
0
  5
1ACF
 10
84.5258
 20
319.279
 30
0.000000
  70
    32
  0
VERTEX
  8
0
  5
1AD0
 10
84.4948
 20
319.209
 30
0.000000
  70
    32
  0
VERTEX
  8
0
  5
1AD1
 10
84.4647
 20
319.140
 30
0.000000
  70
    32
  0
VERTEX
  8
0
  5
1AD2
 10
84.4355
 20
319.070
 30
0.000000
  70
    32
  0
VERTEX
  8
0
  5
1AD3
 10
84.4073
 20
319.000
 30
0.000000
  70
    32
  0
VERTEX
  8
0
  5
1AD4
 10
84.3800
 20
318.930
 30
0.000000
  70
    32
  0
VERTEX
  8
0
  5
1AD5
 10
84.3536
 20
318.859
 30
0.000000
  70
    32
  0
VERTEX
  8
0
  5
1AD6
 10
84.3281
 20
318.788
 30
0.000000
  70
    32
  0
VERTEX
  8
0
  5
1AD7
 10
84.3035
 20
318.717
 30
0.000000
  70
    32
  0
VERTEX
  8
0
  5
1AD8
 10
84.2799
 20
318.645
 30
0.000000
  70
    32
  0
VERTEX
  8
0
  5
1AD9
 10
84.2572
 20
318.573
 30
0.000000
  70
    32
  0
VERTEX
  8
0
  5
1ADA
 10
84.2355
 20
318.501
 30
0.000000
  70
    32
  0
VERTEX
  8
0
  5
1ADB
 10
84.2147
 20
318.429
 30
0.000000
  70
    32
  0
VERTEX
  8
0
  5
1ADC
 10
84.1948
 20
318.356
 30
0.000000
  70
    32
  0
VERTEX
  8
0
  5
1ADD
 10
84.1759
 20
318.283
 30
0.000000
  70
    32
  0
VERTEX
  8
0
  5
1ADE
 10
84.1579
 20
318.210
 30
0.000000
  70
    32
  0
VERTEX
  8
0
  5
1ADF
 10
84.1409
 20
318.137
 30
0.000000
  70
    32
  0
VERTEX
  8
0
  5
1AE0
 10
84.1249
 20
318.064
 30
0.000000
  70
    32
  0
VERTEX
  8
0
  5
1AE1
 10
84.1098
 20
317.990
 30
0.000000
  70
    32
  0
VERTEX
  8
0
  5
1AE2
 10
84.0957
 20
317.916
 30
0.000000
  70
    32
  0
VERTEX
  8
0
  5
1AE3
 10
84.0825
 20
317.842
 30
0.000000
  70
    32
  0
VERTEX
  8
0
  5
1AE4
 10
84.0704
 20
317.768
 30
0.000000
  70
    32
  0
VERTEX
  8
0
  5
1AE5
 10
84.0591
 20
317.694
 30
0.000000
  70
    32
  0
VERTEX
  8
0
  5
1AE6
 10
84.0489
 20
317.620
 30
0.000000
  70
    32
  0
VERTEX
  8
0
  5
1AE7
 10
84.0396
 20
317.545
 30
0.000000
  70
    32
  0
VERTEX
  8
0
  5
1AE8
 10
84.0313
 20
317.471
 30
0.000000
  70
    32
  0
VERTEX
  8
0
  5
1AE9
 10
84.0240
 20
317.396
 30
0.000000
  70
    32
  0
VERTEX
  8
0
  5
1AEA
 10
84.0176
 20
317.321
 30
0.000000
  70
    32
  0
VERTEX
  8
0
  5
1AEB
 10
84.0122
 20
317.247
 30
0.000000
  70
    32
  0
VERTEX
  8
0
  5
1AEC
 10
84.0078
 20
317.172
 30
0.000000
  70
    32
  0
VERTEX
  8
0
  5
1AED
 10
84.0044
 20
317.097
 30
0.000000
  70
    32
  0
VERTEX
  8
0
  5
1AEE
 10
84.0020
 20
317.022
 30
0.000000
  70
    32
  0
VERTEX
  8
0
  5
1AEF
 10
84.0005
 20
316.947
 30
0.000000
  70
    32
  0
VERTEX
  8
0
  5
1AF0
 10
84.0000
 20
316.872
 30
0.000000
  70
    32
  0
SEQEND
  8
0
  5
1AF1
  0
LINE
  5
12BA
  8
0
 10
97.0
 20
299.49999999999989
 30
0.0
 11
97.0
 21
316.87203270439238
 31
0.0
  0
LINE
  5
12BB
  8
0
 10
84.0
 20
316.87203270439238
 30
0.0
 11
84.0
 21
299.49999999999977
 31
0.0
  0
POLYLINE
  5
12BC
  8
0
 10
97.000000000000043
 20
316.87203270439238
 30
0.0
 66
     1
 70
     8
  0
VERTEX
  8
0
  5
1AF2
 10
97.0000
 20
316.872
 30
0.000000
  70
    32
  0
VERTEX
  8
0
  5
1AF3
 10
96.9995
 20
316.947
 30
0.000000
  70
    32
  0
VERTEX
  8
0
  5
1AF4
 10
96.9980
 20
317.022
 30
0.000000
  70
    32
  0
VERTEX
  8
0
  5
1AF5
 10
96.9956
 20
317.097
 30
0.000000
  70
    32
  0
VERTEX
  8
0
  5
1AF6
 10
96.9922
 20
317.172
 30
0.000000
  70
    32
  0
VERTEX
  8
0
  5
1AF7
 10
96.9878
 20
317.247
 30
0.000000
  70
    32
  0
VERTEX
  8
0
  5
1AF8
 10
96.9824
 20
317.321
 30
0.000000
  70
    32
  0
VERTEX
  8
0
  5
1AF9
 10
96.9760
 20
317.396
 30
0.000000
  70
    32
  0
VERTEX
  8
0
  5
1AFA
 10
96.9687
 20
317.471
 30
0.000000
  70
    32
  0
VERTEX
  8
0
  5
1AFB
 10
96.9604
 20
317.545
 30
0.000000
  70
    32
  0
VERTEX
  8
0
  5
1AFC
 10
96.9511
 20
317.620
 30
0.000000
  70
    32
  0
VERTEX
  8
0
  5
1AFD
 10
96.9409
 20
317.694
 30
0.000000
  70
    32
  0
VERTEX
  8
0
  5
1AFE
 10
96.9296
 20
317.768
 30
0.000000
  70
    32
  0
VERTEX
  8
0
  5
1AFF
 10
96.9175
 20
317.842
 30
0.000000
  70
    32
  0
VERTEX
  8
0
  5
1B00
 10
96.9043
 20
317.916
 30
0.000000
  70
    32
  0
VERTEX
  8
0
  5
1B01
 10
96.8902
 20
317.990
 30
0.000000
  70
    32
  0
VERTEX
  8
0
  5
1B02
 10
96.8751
 20
318.064
 30
0.000000
  70
    32
  0
VERTEX
  8
0
  5
1B03
 10
96.8591
 20
318.137
 30
0.000000
  70
    32
  0
VERTEX
  8
0
  5
1B04
 10
96.8421
 20
318.210
 30
0.000000
  70
    32
  0
VERTEX
  8
0
  5
1B05
 10
96.8241
 20
318.283
 30
0.000000
  70
    32
  0
VERTEX
  8
0
  5
1B06
 10
96.8052
 20
318.356
 30
0.000000
  70
    32
  0
VERTEX
  8
0
  5
1B07
 10
96.7853
 20
318.429
 30
0.000000
  70
    32
  0
VERTEX
  8
0
  5
1B08
 10
96.7645
 20
318.501
 30
0.000000
  70
    32
  0
VERTEX
  8
0
  5
1B09
 10
96.7428
 20
318.573
 30
0.000000
  70
    32
  0
VERTEX
  8
0
  5
1B0A
 10
96.7201
 20
318.645
 30
0.000000
  70
    32
  0
VERTEX
  8
0
  5
1B0B
 10
96.6965
 20
318.717
 30
0.000000
  70
    32
  0
VERTEX
  8
0
  5
1B0C
 10
96.6719
 20
318.788
 30
0.000000
  70
    32
  0
VERTEX
  8
0
  5
1B0D
 10
96.6464
 20
318.859
 30
0.000000
  70
    32
  0
VERTEX
  8
0
  5
1B0E
 10
96.6200
 20
318.930
 30
0.000000
  70
    32
  0
VERTEX
  8
0
  5
1B0F
 10
96.5927
 20
319.000
 30
0.000000
  70
    32
  0
VERTEX
  8
0
  5
1B10
 10
96.5645
 20
319.070
 30
0.000000
  70
    32
  0
VERTEX
  8
0
  5
1B11
 10
96.5353
 20
319.140
 30
0.000000
  70
    32
  0
VERTEX
  8
0
  5
1B12
 10
96.5052
 20
319.209
 30
0.000000
  70
    32
  0
VERTEX
  8
0
  5
1B13
 10
96.4742
 20
319.279
 30
0.000000
  70
    32
  0
VERTEX
  8
0
  5
1B14
 10
96.4424
 20
319.347
 30
0.000000
  70
    32
  0
VERTEX
  8
0
  5
1B15
 10
96.4096
 20
319.416
 30
0.000000
  70
    32
  0
VERTEX
  8
0
  5
1B16
 10
96.3759
 20
319.484
 30
0.000000
  70
    32
  0
VERTEX
  8
0
  5
1B17
 10
96.3414
 20
319.551
 30
0.000000
  70
    32
  0
VERTEX
  8
0
  5
1B18
 10
96.3060
 20
319.618
 30
0.000000
  70
    32
  0
VERTEX
  8
0
  5
1B19
 10
96.2697
 20
319.685
 30
0.000000
  70
    32
  0
VERTEX
  8
0
  5
1B1A
 10
96.2325
 20
319.751
 30
0.000000
  70
    32
  0
VERTEX
  8
0
  5
1B1B
 10
96.1945
 20
319.817
 30
0.000000
  70
    32
  0
VERTEX
  8
0
  5
1B1C
 10
96.1556
 20
319.883
 30
0.000000
  70
    32
  0
VERTEX
  8
0
  5
1B1D
 10
96.1158
 20
319.948
 30
0.000000
  70
    32
  0
VERTEX
  8
0
  5
1B1E
 10
96.0752
 20
320.012
 30
0.000000
  70
    32
  0
VERTEX
  8
0
  5
1B1F
 10
96.0338
 20
320.076
 30
0.000000
  70
    32
  0
VERTEX
  8
0
  5
1B20
 10
95.9915
 20
320.140
 30
0.000000
  70
    32
  0
VERTEX
  8
0
  5
1B21
 10
95.9485
 20
320.203
 30
0.000000
  70
    32
  0
VERTEX
  8
0
  5
1B22
 10
95.9046
 20
320.265
 30
0.000000
  70
    32
  0
VERTEX
  8
0
  5
1B23
 10
95.8598
 20
320.328
 30
0.000000
  70
    32
  0
VERTEX
  8
0
  5
1B24
 10
95.8143
 20
320.389
 30
0.000000
  70
    32
  0
VERTEX
  8
0
  5
1B25
 10
95.7680
 20
320.450
 30
0.000000
  70
    32
  0
VERTEX
  8
0
  5
1B26
 10
95.7208
 20
320.511
 30
0.000000
  70
    32
  0
VERTEX
  8
0
  5
1B27
 10
95.6729
 20
320.570
 30
0.000000
  70
    32
  0
VERTEX
  8
0
  5
1B28
 10
95.6243
 20
320.630
 30
0.000000
  70
    32
  0
VERTEX
  8
0
  5
1B29
 10
95.5748
 20
320.689
 30
0.000000
  70
    32
  0
VERTEX
  8
0
  5
1B2A
 10
95.5246
 20
320.747
 30
0.000000
  70
    32
  0
VERTEX
  8
0
  5
1B2B
 10
95.4736
 20
320.805
 30
0.000000
  70
    32
  0
VERTEX
  8
0
  5
1B2C
 10
95.4219
 20
320.862
 30
0.000000
  70
    32
  0
VERTEX
  8
0
  5
1B2D
 10
95.3694
 20
320.918
 30
0.000000
  70
    32
  0
VERTEX
  8
0
  5
1B2E
 10
95.3162
 20
320.974
 30
0.000000
  70
    32
  0
VERTEX
  8
0
  5
1B2F
 10
95.2623
 20
321.029
 30
0.000000
  70
    32
  0
VERTEX
  8
0
  5
1B30
 10
95.2076
 20
321.084
 30
0.000000
  70
    32
  0
VERTEX
  8
0
  5
1B31
 10
95.1523
 20
321.138
 30
0.000000
  70
    32
  0
VERTEX
  8
0
  5
1B32
 10
95.0962
 20
321.191
 30
0.000000
  70
    32
  0
VERTEX
  8
0
  5
1B33
 10
95.0394
 20
321.244
 30
0.000000
  70
    32
  0
VERTEX
  8
0
  5
1B34
 10
94.9820
 20
321.296
 30
0.000000
  70
    32
  0
VERTEX
  8
0
  5
1B35
 10
94.9239
 20
321.347
 30
0.000000
  70
    32
  0
VERTEX
  8
0
  5
1B36
 10
94.8651
 20
321.398
 30
0.000000
  70
    32
  0
VERTEX
  8
0
  5
1B37
 10
94.8057
 20
321.448
 30
0.000000
  70
    32
  0
VERTEX
  8
0
  5
1B38
 10
94.7456
 20
321.497
 30
0.000000
  70
    32
  0
VERTEX
  8
0
  5
1B39
 10
94.6849
 20
321.546
 30
0.000000
  70
    32
  0
VERTEX
  8
0
  5
1B3A
 10
94.6236
 20
321.594
 30
0.000000
  70
    32
  0
VERTEX
  8
0
  5
1B3B
 10
94.5616
 20
321.641
 30
0.000000
  70
    32
  0
VERTEX
  8
0
  5
1B3C
 10
94.4990
 20
321.687
 30
0.000000
  70
    32
  0
VERTEX
  8
0
  5
1B3D
 10
94.4358
 20
321.733
 30
0.000000
  70
    32
  0
VERTEX
  8
0
  5
1B3E
 10
94.3720
 20
321.778
 30
0.000000
  70
    32
  0
VERTEX
  8
0
  5
1B3F
 10
94.3077
 20
321.822
 30
0.000000
  70
    32
  0
VERTEX
  8
0
  5
1B40
 10
94.2428
 20
321.866
 30
0.000000
  70
    32
  0
VERTEX
  8
0
  5
1B41
 10
94.1773
 20
321.909
 30
0.000000
  70
    32
  0
VERTEX
  8
0
  5
1B42
 10
94.1112
 20
321.951
 30
0.000000
  70
    32
  0
VERTEX
  8
0
  5
1B43
 10
94.0446
 20
321.992
 30
0.000000
  70
    32
  0
VERTEX
  8
0
  5
1B44
 10
93.9775
 20
322.032
 30
0.000000
  70
    32
  0
VERTEX
  8
0
  5
1B45
 10
93.9098
 20
322.072
 30
0.000000
  70
    32
  0
VERTEX
  8
0
  5
1B46
 10
93.8417
 20
322.111
 30
0.000000
  70
    32
  0
VERTEX
  8
0
  5
1B47
 10
93.7730
 20
322.149
 30
0.000000
  70
    32
  0
VERTEX
  8
0
  5
1B48
 10
93.7038
 20
322.187
 30
0.000000
  70
    32
  0
VERTEX
  8
0
  5
1B49
 10
93.6342
 20
322.223
 30
0.000000
  70
    32
  0
VERTEX
  8
0
  5
1B4A
 10
93.5641
 20
322.259
 30
0.000000
  70
    32
  0
VERTEX
  8
0
  5
1B4B
 10
93.4935
 20
322.294
 30
0.000000
  70
    32
  0
VERTEX
  8
0
  5
1B4C
 10
93.4225
 20
322.328
 30
0.000000
  70
    32
  0
VERTEX
  8
0
  5
1B4D
 10
93.3510
 20
322.361
 30
0.000000
  70
    32
  0
VERTEX
  8
0
  5
1B4E
 10
93.2791
 20
322.394
 30
0.000000
  70
    32
  0
VERTEX
  8
0
  5
1B4F
 10
93.2068
 20
322.425
 30
0.000000
  70
    32
  0
VERTEX
  8
0
  5
1B50
 10
93.1341
 20
322.456
 30
0.000000
  70
    32
  0
VERTEX
  8
0
  5
1B51
 10
93.0609
 20
322.486
 30
0.000000
  70
    32
  0
VERTEX
  8
0
  5
1B52
 10
92.9874
 20
322.515
 30
0.000000
  70
    32
  0
VERTEX
  8
0
  5
1B53
 10
92.9136
 20
322.543
 30
0.000000
  70
    32
  0
VERTEX
  8
0
  5
1B54
 10
92.8393
 20
322.571
 30
0.000000
  70
    32
  0
VERTEX
  8
0
  5
1B55
 10
92.7647
 20
322.597
 30
0.000000
  70
    32
  0
VERTEX
  8
0
  5
1B56
 10
92.6898
 20
322.623
 30
0.000000
  70
    32
  0
VERTEX
  8
0
  5
1B57
 10
92.6145
 20
322.648
 30
0.000000
  70
    32
  0
VERTEX
  8
0
  5
1B58
 10
92.5389
 20
322.672
 30
0.000000
  70
    32
  0
VERTEX
  8
0
  5
1B59
 10
92.4630
 20
322.695
 30
0.000000
  70
    32
  0
VERTEX
  8
0
  5
1B5A
 10
92.3869
 20
322.717
 30
0.000000
  70
    32
  0
VERTEX
  8
0
  5
1B5B
 10
92.3104
 20
322.738
 30
0.000000
  70
    32
  0
VERTEX
  8
0
  5
1B5C
 10
92.2336
 20
322.759
 30
0.000000
  70
    32
  0
VERTEX
  8
0
  5
1B5D
 10
92.1566
 20
322.778
 30
0.000000
  70
    32
  0
VERTEX
  8
0
  5
1B5E
 10
92.0794
 20
322.797
 30
0.000000
  70
    32
  0
VERTEX
  8
0
  5
1B5F
 10
92.0019
 20
322.815
 30
0.000000
  70
    32
  0
VERTEX
  8
0
  5
1B60
 10
91.9242
 20
322.832
 30
0.000000
  70
    32
  0
VERTEX
  8
0
  5
1B61
 10
91.8462
 20
322.848
 30
0.000000
  70
    32
  0
VERTEX
  8
0
  5
1B62
 10
91.7681
 20
322.863
 30
0.000000
  70
    32
  0
VERTEX
  8
0
  5
1B63
 10
91.6898
 20
322.877
 30
0.000000
  70
    32
  0
VERTEX
  8
0
  5
1B64
 10
91.6113
 20
322.890
 30
0.000000
  70
    32
  0
VERTEX
  8
0
  5
1B65
 10
91.5326
 20
322.902
 30
0.000000
  70
    32
  0
VERTEX
  8
0
  5
1B66
 10
91.4537
 20
322.914
 30
0.000000
  70
    32
  0
VERTEX
  8
0
  5
1B67
 10
91.3748
 20
322.924
 30
0.000000
  70
    32
  0
VERTEX
  8
0
  5
1B68
 10
91.2957
 20
322.934
 30
0.000000
  70
    32
  0
VERTEX
  8
0
  5
1B69
 10
91.2164
 20
322.943
 30
0.000000
  70
    32
  0
VERTEX
  8
0
  5
1B6A
 10
91.1371
 20
322.951
 30
0.000000
  70
    32
  0
VERTEX
  8
0
  5
1B6B
 10
91.0577
 20
322.958
 30
0.000000
  70
    32
  0
VERTEX
  8
0
  5
1B6C
 10
90.9782
 20
322.963
 30
0.000000
  70
    32
  0
VERTEX
  8
0
  5
1B6D
 10
90.8986
 20
322.969
 30
0.000000
  70
    32
  0
VERTEX
  8
0
  5
1B6E
 10
90.8189
 20
322.973
 30
0.000000
  70
    32
  0
VERTEX
  8
0
  5
1B6F
 10
90.7392
 20
322.976
 30
0.000000
  70
    32
  0
VERTEX
  8
0
  5
1B70
 10
90.6595
 20
322.978
 30
0.000000
  70
    32
  0
VERTEX
  8
0
  5
1B71
 10
90.5798
 20
322.980
 30
0.000000
  70
    32
  0
VERTEX
  8
0
  5
1B72
 10
90.5000
 20
322.980
 30
0.000000
  70
    32
  0
SEQEND
  8
0
  5
1B73
  0
POLYLINE
  5
12BD
  8
0
 10
96.999999999999972
 20
311.29490297074176
 30
0.0
 66
     1
 70
     8
  0
VERTEX
  8
0
  5
1B74
 10
97.0000
 20
311.295
 30
0.000000
  70
    32
  0
VERTEX
  8
0
  5
1B75
 10
97.2100
 20
311.519
 30
0.000000
  70
    32
  0
VERTEX
  8
0
  5
1B76
 10
97.4113
 20
311.750
 30
0.000000
  70
    32
  0
VERTEX
  8
0
  5
1B77
 10
97.6035
 20
311.988
 30
0.000000
  70
    32
  0
VERTEX
  8
0
  5
1B78
 10
97.7865
 20
312.232
 30
0.000000
  70
    32
  0
VERTEX
  8
0
  5
1B79
 10
97.9600
 20
312.482
 30
0.000000
  70
    32
  0
VERTEX
  8
0
  5
1B7A
 10
98.1238
 20
312.738
 30
0.000000
  70
    32
  0
VERTEX
  8
0
  5
1B7B
 10
98.2776
 20
312.999
 30
0.000000
  70
    32
  0
VERTEX
  8
0
  5
1B7C
 10
98.4213
 20
313.266
 30
0.000000
  70
    32
  0
VERTEX
  8
0
  5
1B7D
 10
98.5547
 20
313.537
 30
0.000000
  70
    32
  0
VERTEX
  8
0
  5
1B7E
 10
98.6776
 20
313.812
 30
0.000000
  70
    32
  0
VERTEX
  8
0
  5
1B7F
 10
98.7898
 20
314.092
 30
0.000000
  70
    32
  0
VERTEX
  8
0
  5
1B80
 10
98.8912
 20
314.375
 30
0.000000
  70
    32
  0
VERTEX
  8
0
  5
1B81
 10
98.9816
 20
314.661
 30
0.000000
  70
    32
  0
VERTEX
  8
0
  5
1B82
 10
99.0611
 20
314.950
 30
0.000000
  70
    32
  0
VERTEX
  8
0
  5
1B83
 10
99.1293
 20
315.242
 30
0.000000
  70
    32
  0
VERTEX
  8
0
  5
1B84
 10
99.1863
 20
315.536
 30
0.000000
  70
    32
  0
VERTEX
  8
0
  5
1B85
 10
99.2320
 20
315.831
 30
0.000000
  70
    32
  0
VERTEX
  8
0
  5
1B86
 10
99.2663
 20
316.128
 30
0.000000
  70
    32
  0
VERTEX
  8
0
  5
1B87
 10
99.2892
 20
316.426
 30
0.000000
  70
    32
  0
VERTEX
  8
0
  5
1B88
 10
99.3006
 20
316.724
 30
0.000000
  70
    32
  0
VERTEX
  8
0
  5
1B89
 10
99.3005
 20
317.023
 30
0.000000
  70
    32
  0
VERTEX
  8
0
  5
1B8A
 10
99.2890
 20
317.321
 30
0.000000
  70
    32
  0
VERTEX
  8
0
  5
1B8B
 10
99.2660
 20
317.619
 30
0.000000
  70
    32
  0
VERTEX
  8
0
  5
1B8C
 10
99.2316
 20
317.916
 30
0.000000
  70
    32
  0
VERTEX
  8
0
  5
1B8D
 10
99.1858
 20
318.211
 30
0.000000
  70
    32
  0
VERTEX
  8
0
  5
1B8E
 10
99.1287
 20
318.505
 30
0.000000
  70
    32
  0
VERTEX
  8
0
  5
1B8F
 10
99.0603
 20
318.797
 30
0.000000
  70
    32
  0
VERTEX
  8
0
  5
1B90
 10
98.9808
 20
319.086
 30
0.000000
  70
    32
  0
VERTEX
  8
0
  5
1B91
 10
98.8902
 20
319.372
 30
0.000000
  70
    32
  0
VERTEX
  8
0
  5
1B92
 10
98.7887
 20
319.655
 30
0.000000
  70
    32
  0
VERTEX
  8
0
  5
1B93
 10
98.6764
 20
319.935
 30
0.000000
  70
    32
  0
VERTEX
  8
0
  5
1B94
 10
98.5534
 20
320.210
 30
0.000000
  70
    32
  0
VERTEX
  8
0
  5
1B95
 10
98.4199
 20
320.481
 30
0.000000
  70
    32
  0
VERTEX
  8
0
  5
1B96
 10
98.2762
 20
320.747
 30
0.000000
  70
    32
  0
VERTEX
  8
0
  5
1B97
 10
98.1222
 20
321.008
 30
0.000000
  70
    32
  0
VERTEX
  8
0
  5
1B98
 10
97.9583
 20
321.264
 30
0.000000
  70
    32
  0
VERTEX
  8
0
  5
1B99
 10
97.7848
 20
321.514
 30
0.000000
  70
    32
  0
VERTEX
  8
0
  5
1B9A
 10
97.6017
 20
321.759
 30
0.000000
  70
    32
  0
VERTEX
  8
0
  5
1B9B
 10
97.4093
 20
321.996
 30
0.000000
  70
    32
  0
VERTEX
  8
0
  5
1B9C
 10
97.2080
 20
322.227
 30
0.000000
  70
    32
  0
VERTEX
  8
0
  5
1B9D
 10
96.9979
 20
322.451
 30
0.000000
  70
    32
  0
VERTEX
  8
0
  5
1B9E
 10
96.7793
 20
322.668
 30
0.000000
  70
    32
  0
VERTEX
  8
0
  5
1B9F
 10
96.5526
 20
322.877
 30
0.000000
  70
    32
  0
VERTEX
  8
0
  5
1BA0
 10
96.3179
 20
323.079
 30
0.000000
  70
    32
  0
VERTEX
  8
0
  5
1BA1
 10
96.0757
 20
323.272
 30
0.000000
  70
    32
  0
VERTEX
  8
0
  5
1BA2
 10
95.8262
 20
323.457
 30
0.000000
  70
    32
  0
VERTEX
  8
0
  5
1BA3
 10
95.5698
 20
323.633
 30
0.000000
  70
    32
  0
VERTEX
  8
0
  5
1BA4
 10
95.3067
 20
323.801
 30
0.000000
  70
    32
  0
VERTEX
  8
0
  5
1BA5
 10
95.0374
 20
323.959
 30
0.000000
  70
    32
  0
VERTEX
  8
0
  5
1BA6
 10
94.7622
 20
324.109
 30
0.000000
  70
    32
  0
VERTEX
  8
0
  5
1BA7
 10
94.4814
 20
324.249
 30
0.000000
  70
    32
  0
VERTEX
  8
0
  5
1BA8
 10
94.1955
 20
324.379
 30
0.000000
  70
    32
  0
VERTEX
  8
0
  5
1BA9
 10
93.9047
 20
324.499
 30
0.000000
  70
    32
  0
VERTEX
  8
0
  5
1BAA
 10
93.6095
 20
324.610
 30
0.000000
  70
    32
  0
VERTEX
  8
0
  5
1BAB
 10
93.3102
 20
324.710
 30
0.000000
  70
    32
  0
VERTEX
  8
0
  5
1BAC
 10
93.0072
 20
324.801
 30
0.000000
  70
    32
  0
VERTEX
  8
0
  5
1BAD
 10
92.7010
 20
324.880
 30
0.000000
  70
    32
  0
VERTEX
  8
0
  5
1BAE
 10
92.3920
 20
324.950
 30
0.000000
  70
    32
  0
VERTEX
  8
0
  5
1BAF
 10
92.0804
 20
325.009
 30
0.000000
  70
    32
  0
VERTEX
  8
0
  5
1BB0
 10
91.7668
 20
325.057
 30
0.000000
  70
    32
  0
VERTEX
  8
0
  5
1BB1
 10
91.4516
 20
325.095
 30
0.000000
  70
    32
  0
VERTEX
  8
0
  5
1BB2
 10
91.1351
 20
325.122
 30
0.000000
  70
    32
  0
VERTEX
  8
0
  5
1BB3
 10
90.8177
 20
325.138
 30
0.000000
  70
    32
  0
VERTEX
  8
0
  5
1BB4
 10
90.5000
 20
325.143
 30
0.000000
  70
    32
  0
VERTEX
  8
0
  5
1BB5
 10
90.1823
 20
325.138
 30
0.000000
  70
    32
  0
VERTEX
  8
0
  5
1BB6
 10
89.8649
 20
325.122
 30
0.000000
  70
    32
  0
VERTEX
  8
0
  5
1BB7
 10
89.5484
 20
325.095
 30
0.000000
  70
    32
  0
VERTEX
  8
0
  5
1BB8
 10
89.2332
 20
325.057
 30
0.000000
  70
    32
  0
VERTEX
  8
0
  5
1BB9
 10
88.9196
 20
325.009
 30
0.000000
  70
    32
  0
VERTEX
  8
0
  5
1BBA
 10
88.6080
 20
324.950
 30
0.000000
  70
    32
  0
VERTEX
  8
0
  5
1BBB
 10
88.2990
 20
324.880
 30
0.000000
  70
    32
  0
VERTEX
  8
0
  5
1BBC
 10
87.9928
 20
324.801
 30
0.000000
  70
    32
  0
VERTEX
  8
0
  5
1BBD
 10
87.6898
 20
324.710
 30
0.000000
  70
    32
  0
VERTEX
  8
0
  5
1BBE
 10
87.3905
 20
324.610
 30
0.000000
  70
    32
  0
VERTEX
  8
0
  5
1BBF
 10
87.0953
 20
324.499
 30
0.000000
  70
    32
  0
VERTEX
  8
0
  5
1BC0
 10
86.8045
 20
324.379
 30
0.000000
  70
    32
  0
VERTEX
  8
0
  5
1BC1
 10
86.5186
 20
324.249
 30
0.000000
  70
    32
  0
VERTEX
  8
0
  5
1BC2
 10
86.2378
 20
324.109
 30
0.000000
  70
    32
  0
VERTEX
  8
0
  5
1BC3
 10
85.9626
 20
323.959
 30
0.000000
  70
    32
  0
VERTEX
  8
0
  5
1BC4
 10
85.6933
 20
323.801
 30
0.000000
  70
    32
  0
VERTEX
  8
0
  5
1BC5
 10
85.4302
 20
323.633
 30
0.000000
  70
    32
  0
VERTEX
  8
0
  5
1BC6
 10
85.1738
 20
323.457
 30
0.000000
  70
    32
  0
VERTEX
  8
0
  5
1BC7
 10
84.9243
 20
323.272
 30
0.000000
  70
    32
  0
VERTEX
  8
0
  5
1BC8
 10
84.6821
 20
323.079
 30
0.000000
  70
    32
  0
VERTEX
  8
0
  5
1BC9
 10
84.4474
 20
322.877
 30
0.000000
  70
    32
  0
VERTEX
  8
0
  5
1BCA
 10
84.2207
 20
322.668
 30
0.000000
  70
    32
  0
VERTEX
  8
0
  5
1BCB
 10
84.0021
 20
322.451
 30
0.000000
  70
    32
  0
VERTEX
  8
0
  5
1BCC
 10
83.7920
 20
322.227
 30
0.000000
  70
    32
  0
VERTEX
  8
0
  5
1BCD
 10
83.5907
 20
321.996
 30
0.000000
  70
    32
  0
VERTEX
  8
0
  5
1BCE
 10
83.3983
 20
321.759
 30
0.000000
  70
    32
  0
VERTEX
  8
0
  5
1BCF
 10
83.2152
 20
321.514
 30
0.000000
  70
    32
  0
VERTEX
  8
0
  5
1BD0
 10
83.0417
 20
321.264
 30
0.000000
  70
    32
  0
VERTEX
  8
0
  5
1BD1
 10
82.8778
 20
321.008
 30
0.000000
  70
    32
  0
VERTEX
  8
0
  5
1BD2
 10
82.7238
 20
320.747
 30
0.000000
  70
    32
  0
VERTEX
  8
0
  5
1BD3
 10
82.5801
 20
320.481
 30
0.000000
  70
    32
  0
VERTEX
  8
0
  5
1BD4
 10
82.4466
 20
320.210
 30
0.000000
  70
    32
  0
VERTEX
  8
0
  5
1BD5
 10
82.3236
 20
319.935
 30
0.000000
  70
    32
  0
VERTEX
  8
0
  5
1BD6
 10
82.2113
 20
319.655
 30
0.000000
  70
    32
  0
VERTEX
  8
0
  5
1BD7
 10
82.1098
 20
319.372
 30
0.000000
  70
    32
  0
VERTEX
  8
0
  5
1BD8
 10
82.0192
 20
319.086
 30
0.000000
  70
    32
  0
VERTEX
  8
0
  5
1BD9
 10
81.9397
 20
318.797
 30
0.000000
  70
    32
  0
VERTEX
  8
0
  5
1BDA
 10
81.8713
 20
318.505
 30
0.000000
  70
    32
  0
VERTEX
  8
0
  5
1BDB
 10
81.8142
 20
318.211
 30
0.000000
  70
    32
  0
VERTEX
  8
0
  5
1BDC
 10
81.7684
 20
317.916
 30
0.000000
  70
    32
  0
VERTEX
  8
0
  5
1BDD
 10
81.7340
 20
317.619
 30
0.000000
  70
    32
  0
VERTEX
  8
0
  5
1BDE
 10
81.7110
 20
317.321
 30
0.000000
  70
    32
  0
VERTEX
  8
0
  5
1BDF
 10
81.6995
 20
317.023
 30
0.000000
  70
    32
  0
VERTEX
  8
0
  5
1BE0
 10
81.6994
 20
316.724
 30
0.000000
  70
    32
  0
VERTEX
  8
0
  5
1BE1
 10
81.7108
 20
316.426
 30
0.000000
  70
    32
  0
VERTEX
  8
0
  5
1BE2
 10
81.7337
 20
316.128
 30
0.000000
  70
    32
  0
VERTEX
  8
0
  5
1BE3
 10
81.7680
 20
315.831
 30
0.000000
  70
    32
  0
VERTEX
  8
0
  5
1BE4
 10
81.8137
 20
315.536
 30
0.000000
  70
    32
  0
VERTEX
  8
0
  5
1BE5
 10
81.8707
 20
315.242
 30
0.000000
  70
    32
  0
VERTEX
  8
0
  5
1BE6
 10
81.9389
 20
314.950
 30
0.000000
  70
    32
  0
VERTEX
  8
0
  5
1BE7
 10
82.0184
 20
314.661
 30
0.000000
  70
    32
  0
VERTEX
  8
0
  5
1BE8
 10
82.1088
 20
314.375
 30
0.000000
  70
    32
  0
VERTEX
  8
0
  5
1BE9
 10
82.2102
 20
314.092
 30
0.000000
  70
    32
  0
VERTEX
  8
0
  5
1BEA
 10
82.3224
 20
313.812
 30
0.000000
  70
    32
  0
VERTEX
  8
0
  5
1BEB
 10
82.4453
 20
313.537
 30
0.000000
  70
    32
  0
VERTEX
  8
0
  5
1BEC
 10
82.5787
 20
313.266
 30
0.000000
  70
    32
  0
VERTEX
  8
0
  5
1BED
 10
82.7224
 20
312.999
 30
0.000000
  70
    32
  0
VERTEX
  8
0
  5
1BEE
 10
82.8762
 20
312.738
 30
0.000000
  70
    32
  0
VERTEX
  8
0
  5
1BEF
 10
83.0400
 20
312.482
 30
0.000000
  70
    32
  0
VERTEX
  8
0
  5
1BF0
 10
83.2135
 20
312.232
 30
0.000000
  70
    32
  0
VERTEX
  8
0
  5
1BF1
 10
83.3965
 20
311.988
 30
0.000000
  70
    32
  0
VERTEX
  8
0
  5
1BF2
 10
83.5887
 20
311.750
 30
0.000000
  70
    32
  0
VERTEX
  8
0
  5
1BF3
 10
83.7900
 20
311.519
 30
0.000000
  70
    32
  0
VERTEX
  8
0
  5
1BF4
 10
84.0000
 20
311.295
 30
0.000000
  70
    32
  0
SEQEND
  8
0
  5
1BF5
  0
POLYLINE
  5
12BE
  8
0
 66
     1
 10
0.0
 20
0.0
 30
0.0
  0
VERTEX
  5
1662
  8
0
 10
90.5
 20
336.5
 30
0.0
  0
VERTEX
  5
1663
  8
0
 10
89.865778239640974
 20
336.4867197395032
 30
0.0
  0
VERTEX
  5
1664
  8
0
 10
89.197174538814181
 20
336.4438813899107
 30
0.0
  0
VERTEX
  5
1665
  8
0
 10
88.530728711998165
 20
336.37147764263182
 30
0.0
  0
VERTEX
  5
1666
  8
0
 10
87.867749985295845
 20
336.26960144195471
 30
0.0
  0
VERTEX
  5
1667
  8
0
 10
87.209539481067964
 20
336.13840399845992
 30
0.0
  0
VERTEX
  5
1668
  8
0
 10
86.557395863238796
 20
335.97809582483541
 30
0.0
  0
VERTEX
  5
1669
  8
0
 10
85.912612428094647
 20
335.78894725630909
 30
0.0
  0
VERTEX
  5
166A
  8
0
 10
85.276474052265996
 20
335.57128878004602
 30
0.0
  0
VERTEX
  5
166B
  8
0
 10
84.650254022938157
 20
335.32551115055082
 30
0.0
  0
VERTEX
  5
166C
  8
0
 10
84.035210775629466
 20
335.05206527153189
 30
0.0
  0
VERTEX
  5
166D
  8
0
 10
83.432584568454175
 20
334.75146182920258
 30
0.0
  0
VERTEX
  5
166E
  8
0
 10
82.843594124290163
 20
334.42427066706352
 30
0.0
  0
VERTEX
  5
166F
  8
0
 10
82.269433273625737
 20
334.07111989752718
 30
0.0
  0
VERTEX
  5
1670
  8
0
 10
81.711267631038027
 20
333.69269475106222
 30
0.0
  0
VERTEX
  5
1671
  8
0
 10
81.170231337339317
 20
333.28973616858872
 30
0.0
  0
VERTEX
  5
1672
  8
0
 10
80.647423897553097
 20
332.86303914746441
 30
0.0
  0
VERTEX
  5
1673
  8
0
 10
80.143907142193356
 20
332.41345085536062
 30
0.0
  0
VERTEX
  5
1674
  8
0
 10
79.66070233605069
 20
331.94186852957432
 30
0.0
  0
VERTEX
  5
1675
  8
0
 10
79.198787455022682
 20
331.44923718177529
 30
0.0
  0
VERTEX
  5
1676
  8
0
 10
78.759094647679319
 20
330.93654712986279
 30
0.0
  0
VERTEX
  5
1677
  8
0
 10
78.3425078943892
 20
330.4048313795326
 30
0.0
  0
VERTEX
  5
1678
  8
0
 10
77.949860873123214
 20
329.85516287842029
 30
0.0
  0
VERTEX
  5
1679
  8
0
 10
77.58193503759361
 20
329.28865166537292
 30
0.0
  0
VERTEX
  5
167A
  8
0
 10
77.239457910277224
 20
328.70644193662122
 30
0.0
  0
VERTEX
  5
167B
  8
0
 10
76.923101590156818
 20
328.10970904949039
 30
0.0
  0
VERTEX
  5
167C
  8
0
 10
76.633481472714834
 20
327.49965648290151
 30
0.0
  0
VERTEX
  5
167D
  8
0
 10
76.371155177824221
 20
326.87751277235839
 30
0.0
  0
VERTEX
  5
167E
  8
0
 10
76.136621679692837
 20
326.2445284355108
 30
0.0
  0
VERTEX
  5
167F
  8
0
 10
75.930320631877635
 20
325.6019729027368
 30
0.0
  0
VERTEX
  5
1680
  8
0
 10
75.752631879567105
 20
324.95113146561198
 30
0.0
  0
VERTEX
  5
1681
  8
0
 10
75.603875150782414
 20
324.29330225463548
 30
0.0
  0
VERTEX
  5
1682
  8
0
 10
75.484309917816347
 20
323.62979325618369
 30
0.0
  0
VERTEX
  5
1683
  8
0
 10
75.394135420078314
 20
322.961919377404
 30
0.0
  0
VERTEX
  5
1684
  8
0
 10
75.333490839495539
 20
322.29099956662799
 30
0.0
  0
VERTEX
  5
1685
  8
0
 10
75.30245561969349
 20
321.6183539958763
 30
0.0
  0
VERTEX
  5
1686
  8
0
 10
75.30104992031886
 20
320.94530131115539
 30
0.0
  0
VERTEX
  5
1687
  8
0
 10
75.329235198037111
 20
320.27315595547373
 30
0.0
  0
VERTEX
  5
1688
  8
0
 10
75.386914536359939
 20
319.60322898150378
 30
0.0
  0
VERTEX
  5
1689
  8
0
 10
75.473933723738455
 20
318.93681879183112
 30
0.0
  0
VERTEX
  5
168A
  8
0
 10
75.590082284147684
 20
318.27521180487793
 30
0.0
  0
VERTEX
  5
168B
  8
0
 10
75.735094485973093
 20
317.61968027989838
 30
0.0
  0
VERTEX
  5
168C
  8
0
 10
75.908650440932831
 20
316.97148005889272
 30
0.0
  0
VERTEX
  5
168D
  8
0
 10
76.110377281910303
 20
316.33184839952622
 30
0.0
  0
VERTEX
  5
168E
  8
0
 10
76.339850412019757
 20
315.70200190046972
 30
0.0
  0
VERTEX
  5
168F
  8
0
 10
76.596594817205414
 20
315.08313452014482
 30
0.0
  0
VERTEX
  5
1690
  8
0
 10
76.88008643463229
 20
314.47641568938491
 30
0.0
  0
VERTEX
  5
1691
  8
0
 10
77.189753569069794
 20
313.88298851802
 30
0.0
  0
VERTEX
  5
1692
  8
0
 10
77.524978349418234
 20
313.30396809480942
 30
0.0
  0
VERTEX
  5
1693
  8
0
 10
77.885098217490224
 20
312.74043987952621
 30
0.0
  0
VERTEX
  5
1694
  8
0
 10
78.269407441170699
 20
312.19345818527881
 30
0.0
  0
VERTEX
  5
1695
  8
0
 10
78.677158644142651
 20
311.66404474839243
 30
0.0
  0
VERTEX
  5
1696
  8
0
 10
79.107564344533955
 20
311.1531873823053
 30
0.0
  0
VERTEX
  5
1697
  8
0
 10
79.559798495106236
 20
310.66183871105369
 30
0.0
  0
VERTEX
  5
1698
  8
0
 10
80.032998018044495
 20
310.19091497692841
 30
0.0
  0
VERTEX
  5
1699
  8
0
 10
80.526264327994326
 20
309.74129491593021
 30
0.0
  0
VERTEX
  5
169A
  8
0
 10
81.038664837807062
 20
309.31381869364708
 30
0.0
  0
VERTEX
  5
169B
  8
0
 10
81.569234442487513
 20
308.90928689323698
 30
0.0
  0
VERTEX
  5
169C
  8
0
 10
82.116976978125933
 20
308.52845954633329
 30
0.0
  0
VERTEX
  5
169D
  8
0
 10
82.68086665414063
 20
308.17205519696961
 30
0.0
  0
VERTEX
  5
169E
  8
0
 10
83.259849458979943
 20
307.8407499880816
 30
0.0
  0
VERTEX
  5
169F
  8
0
 10
83.852844541486547
 20
307.53517675988923
 30
0.0
  0
VERTEX
  5
16A0
  8
0
 10
84.0
 20
307.46735455160689
 30
0.0
  0
SEQEND
  5
16A1
  8
0
  0
POLYLINE
  5
12BF
  8
0
 66
     1
 10
0.0
 20
0.0
 30
0.0
  0
VERTEX
  5
16A2
  8
0
 10
97.000000000000014
 20
307.46788920985142
 30
0.0
  0
VERTEX
  5
16A3
  8
0
 10
97.419635062953716
 20
307.67149613943548
 30
0.0
  0
VERTEX
  5
16A4
  8
0
 10
98.012109140318785
 20
307.99216956071592
 30
0.0
  0
VERTEX
  5
16A5
  8
0
 10
98.590046307105581
 20
308.33896325790261
 30
0.0
  0
VERTEX
  5
16A6
  8
0
 10
99.152273665955704
 20
308.711206002072
 30
0.0
  0
VERTEX
  5
16A7
  8
0
 10
99.697648995546274
 20
309.10817048240813
 30
0.0
  0
VERTEX
  5
16A8
  8
0
 10
100.2250639389776
 20
309.52907490047858
 30
0.0
  0
VERTEX
  5
16A9
  8
0
 10
100.7334470753709
 20
309.97308480048957
 30
0.0
  0
VERTEX
  5
16AA
  8
0
 10
101.2217668496109
 20
310.4393151187017
 30
0.0
  0
VERTEX
  5
16AB
  8
0
 10
101.689034338768
 20
310.9268324325393
 30
0.0
  0
VERTEX
  5
16AC
  8
0
 10
102.1343058375529
 20
311.43465738806691
 30
0.0
  0
VERTEX
  5
16AD
  8
0
 10
102.5566852490248
 20
311.96176728338833
 30
0.0
  0
VERTEX
  5
16AE
  8
0
 10
102.95532627054629
 20
312.50709878511913
 30
0.0
  0
VERTEX
  5
16AF
  8
0
 10
103.3294343684957
 20
313.06955075524559
 30
0.0
  0
VERTEX
  5
16B0
  8
0
 10
103.6782685384581
 20
313.64798716637779
 30
0.0
  0
VERTEX
  5
16B1
  8
0
 10
104.0011428504264
 20
314.24124008444147
 30
0.0
  0
VERTEX
  5
16B2
  8
0
 10
104.2974277809486
 20
314.8481126992026
 30
0.0
  0
VERTEX
  5
16B3
  8
0
 10
104.5665513361492
 20
315.46738238453162
 30
0.0
  0
VERTEX
  5
16B4
  8
0
 10
104.8079999711307
 20
316.09780377191709
 30
0.0
  0
VERTEX
  5
16B5
  8
0
 10
105.0213193124933
 20
316.7381118223837
 30
0.0
  0
VERTEX
  5
16B6
  8
0
 10
105.2061146915955
 20
317.38702488355722
 30
0.0
  0
VERTEX
  5
16B7
  8
0
 10
105.3620514967922
 20
318.04324772015411
 30
0.0
  0
VERTEX
  5
16B8
  8
0
 10
105.48885535327069
 20
318.70547450758392
 30
0.0
  0
VERTEX
  5
16B9
  8
0
 10
105.58631213928849
 20
319.37239177965512
 30
0.0
  0
VERTEX
  5
16BA
  8
0
 10
105.654267847672
 20
320.04268132253981
 30
0.0
  0
VERTEX
  5
16BB
  8
0
 10
105.6926283013762
 20
320.71502300818128
 30
0.0
  0
VERTEX
  5
16BC
  8
0
 10
105.7013587317816
 20
321.38809756124698
 30
0.0
  0
VERTEX
  5
16BD
  8
0
 10
105.6804832282395
 20
322.0605892545135
 30
0.0
  0
VERTEX
  5
16BE
  8
0
 10
105.6300843134984
 20
322.73118599705612
 30
0.0
  0
VERTEX
  5
16BF
  8
0
 10
105.5503021473717
 20
323.39858594382122
 30
0.0
  0
VERTEX
  5
16C0
  8
0
 10
105.4413333840092
 20
324.0614995339393
 30
0.0
  0
VERTEX
  5
16C1
  8
0
 10
105.3034301918064
 20
324.71865079359691
 30
0.0
  0
VERTEX
  5
16C2
  8
0
 10
105.1368991751818
 20
325.36877961631632
 30
0.0
  0
VERTEX
  5
16C3
  8
0
 10
104.94210021554061
 20
326.01064395268332
 30
0.0
  0
VERTEX
  5
16C4
  8
0
 10
104.7194452391072
 20
326.64302190796872
 30
0.0
  0
VERTEX
  5
16C5
  8
0
 10
104.4693969193155
 20
327.26471374654483
 30
0.0
  0
VERTEX
  5
16C6
  8
0
 10
104.19246732149109
 20
327.87454380246447
 30
0.0
  0
VERTEX
  5
16C7
  8
0
 10
103.8892164976031
 20
328.47136229607338
 30
0.0
  0
VERTEX
  5
16C8
  8
0
 10
103.56025103893271
 20
329.05404705706792
 30
0.0
  0
VERTEX
  5
16C9
  8
0
 10
103.2062225945308
 20
329.6215051550497
 30
0.0
  0
VERTEX
  5
16CA
  8
0
 10
102.8278263633556
 20
330.17267443929478
 30
0.0
  0
VERTEX
  5
16CB
  8
0
 10
102.42579956792279
 20
330.7065249902297
 30
0.0
  0
VERTEX
  5
16CC
  8
0
 10
102.0009199171664
 20
331.22206048592687
 30
0.0
  0
VERTEX
  5
16CD
  8
0
 10
101.5540040659638
 20
331.71831948783938
 30
0.0
  0
VERTEX
  5
16CE
  8
0
 10
101.0859060783949
 20
332.19437665092249
 30
0.0
  0
VERTEX
  5
16CF
  8
0
 10
100.5975159012486
 20
332.64934386429701
 30
0.0
  0
VERTEX
  5
16D0
  8
0
 10
100.0897578535381
 20
333.08237132957117
 30
0.0
  0
VERTEX
  5
16D1
  8
0
 10
99.563589136809469
 20
333.49264858492148
 30
0.0
  0
VERTEX
  5
16D2
  8
0
 10
99.019998369806345
 20
333.87940548389912
 30
0.0
  0
VERTEX
  5
16D3
  8
0
 10
98.460004149564625
 20
334.24191313871739
 30
0.0
  0
VERTEX
  5
16D4
  8
0
 10
97.884653639271733
 20
334.57948483834178
 30
0.0
  0
VERTEX
  5
16D5
  8
0
 10
97.295021181208426
 20
334.89147695204588
 30
0.0
  0
VERTEX
  5
16D6
  8
0
 10
96.692206930872658
 20
335.17728982911632
 30
0.0
  0
VERTEX
  5
16D7
  8
0
 10
96.077335505948227
 20
335.43636870501319
 30
0.0
  0
VERTEX
  5
16D8
  8
0
 10
95.451554641272935
 20
335.66820462346777
 30
0.0
  0
VERTEX
  5
16D9
  8
0
 10
94.816033838375645
 20
335.87233538266378
 30
0.0
  0
VERTEX
  5
16DA
  8
0
 10
94.171962995718388
 20
336.04834651176168
 30
0.0
  0
VERTEX
  5
16DB
  8
0
 10
93.520551003518847
 20
336.19587228157661
 30
0.0
  0
VERTEX
  5
16DC
  8
0
 10
92.863024285196033
 20
336.31459675022398
 30
0.0
  0
VERTEX
  5
16DD
  8
0
 10
92.20062526617113
 20
336.40425484106191
 30
0.0
  0
VERTEX
  5
16DE
  8
0
 10
91.534610750144793
 20
336.4646334463817
 30
0.0
  0
VERTEX
  5
16DF
  8
0
 10
90.866250183232637
 20
336.49557254616968
 30
0.0
  0
VERTEX
  5
16E0
  8
0
 10
90.5
 20
336.5
 30
0.0
  0
SEQEND
  5
16E1
  8
0
  0
LINE
  5
12C3
  8
1
 10
90.5
 20
341.50109603222103
 30
0.0
 11
90.500000000000014
 21
166.0
 31
0.0
  0
LINE
  5
12C4
  8
1
 10
320.0
 20
396.80316109919971
 30
0.0
 11
320.0
 21
437.19662621481348
 31
0.0
  0
LINE
  5
12C5
  8
1
 10
320.0
 20
70.303161099199542
 30
0.0
 11
320.0
 21
110.6966262148137
 31
0.0
  0
LINE
  5
12C8
  8
1
 10
313.09120186054759
 20
340.33099867047292
 30
0.0
 11
326.90879813945247
 21
302.36746490304068
 31
0.0
  0
LINE
  5
12CB
  8
1
 10
110.7012752024753
 20
321.349231786757
 30
0.0
 11
70.301882641410714
 21
321.349231786757
 31
0.0
  0
LINE
  5
12CE
  8
1
 10
436.15539953219587
 20
321.34923178675677
 30
0.0
 11
395.7560069711314
 21
321.34923178675677
 31
0.0
  0
LINE
  5
12CF
  8
0
 10
83.0
 20
171.0
 30
0.0
 11
98.0
 21
171.0
 31
0.0
  0
LINE
  5
12D0
  8
0
 10
80.5
 20
173.49999999999989
 30
0.0
 11
100.5
 21
173.49999999999989
 31
0.0
  0
LINE
  5
12D1
  8
0
 10
80.5
 20
228.05653525737591
 30
0.0
 11
100.5
 21
228.05653525737591
 31
0.0
  0
LINE
  5
12D2
  8
0
 10
83.0
 20
171.0
 30
0.0
 11
80.5
 21
173.49999999999989
 31
0.0
  0
LINE
  5
12D3
  8
0
 10
80.5
 20
173.49999999999989
 30
0.0
 11
80.5
 21
230.40000000000001
 31
0.0
  0
ARC
  5
12D4
  8
0
 10
79.899999999999977
 20
230.40000000000001
 30
0.0
 40
0.6
 50
0.0
 51
90.0
  0
LINE
  5
12D5
  8
3
 10
80.499999999999204
 20
230.40000000002729
 30
0.0
 11
81.853000000000065
 21
228.05653525738529
 31
0.0
  0
LINE
  5
12D6
  8
3
 10
81.853000000000065
 20
228.05653525738529
 30
0.0
 11
81.853000000002794
 21
172.14699999999721
 31
0.0
  0
LINE
  5
12D7
  8
3
 10
99.147000000000048
 20
228.05653525738529
 30
0.0
 11
99.146999999997334
 21
172.14699999999721
 31
0.0
  0
LINE
  5
12D8
  8
3
 10
100.5000000000008
 20
230.40000000002729
 30
0.0
 11
99.147000000000048
 21
228.05653525738529
 31
0.0
  0
ARC
  5
12D9
  8
0
 10
101.09999999999999
 20
230.40000000000001
 30
0.0
 40
0.6
 50
90.0
 51
180.0
  0
LINE
  5
12DA
  8
0
 10
100.5
 20
173.49999999999989
 30
0.0
 11
100.5
 21
230.40000000000001
 31
0.0
  0
LINE
  5
12DB
  8
0
 10
98.0
 20
171.0
 30
0.0
 11
100.5
 21
173.49999999999989
 31
0.0
  0
LINE
  5
12DC
  8
0
 10
184.0
 20
171.0
 30
0.0
 11
199.0
 21
171.0
 31
0.0
  0
LINE
  5
12DD
  8
0
 10
181.5
 20
173.49999999999989
 30
0.0
 11
201.5
 21
173.49999999999989
 31
0.0
  0
LINE
  5
12DE
  8
0
 10
181.5
 20
228.05653525737591
 30
0.0
 11
201.5
 21
228.05653525737591
 31
0.0
  0
LINE
  5
12DF
  8
0
 10
184.0
 20
171.0
 30
0.0
 11
181.5
 21
173.49999999999989
 31
0.0
  0
LINE
  5
12E0
  8
0
 10
181.5
 20
173.49999999999989
 30
0.0
 11
181.5
 21
230.40000000000001
 31
0.0
  0
ARC
  5
12E1
  8
0
 10
180.89999999999989
 20
230.40000000000001
 30
0.0
 40
0.6
 50
0.0
 51
90.0
  0
LINE
  5
12E2
  8
3
 10
181.4999999999992
 20
230.40000000002729
 30
0.0
 11
182.85300000000001
 21
228.05653525738529
 31
0.0
  0
LINE
  5
12E3
  8
3
 10
182.85300000000001
 20
228.05653525738529
 30
0.0
 11
182.85300000000279
 21
172.14699999999721
 31
0.0
  0
LINE
  5
12E4
  8
3
 10
200.14699999999999
 20
228.05653525738529
 30
0.0
 11
200.14699999999729
 21
172.14699999999721
 31
0.0
  0
LINE
  5
12E5
  8
3
 10
201.5000000000008
 20
230.40000000002729
 30
0.0
 11
200.14699999999999
 21
228.05653525738529
 31
0.0
  0
ARC
  5
12E6
  8
0
 10
202.09999999999999
 20
230.40000000000001
 30
0.0
 40
0.6
 50
90.0
 51
180.0
  0
LINE
  5
12E7
  8
0
 10
201.5
 20
173.49999999999989
 30
0.0
 11
201.5
 21
230.40000000000001
 31
0.0
  0
LINE
  5
12E8
  8
0
 10
199.0
 20
171.0
 30
0.0
 11
201.5
 21
173.49999999999989
 31
0.0
  0
LINE
  5
12E9
  8
0
 10
408.45412432972068
 20
171.0
 30
0.0
 11
423.45412432972063
 21
171.0
 31
0.0
  0
LINE
  5
12EA
  8
0
 10
405.95412432972063
 20
173.49999999999989
 30
0.0
 11
425.95412432972063
 21
173.49999999999989
 31
0.0
  0
LINE
  5
12EB
  8
0
 10
405.95412432972063
 20
228.05653525737591
 30
0.0
 11
425.95412432972063
 21
228.05653525737591
 31
0.0
  0
LINE
  5
12EC
  8
0
 10
408.45412432972068
 20
171.0
 30
0.0
 11
405.95412432972063
 21
173.49999999999989
 31
0.0
  0
LINE
  5
12ED
  8
0
 10
405.95412432972063
 20
173.49999999999989
 30
0.0
 11
405.95412432972063
 21
230.40000000000001
 31
0.0
  0
ARC
  5
12EE
  8
0
 10
405.35412432972061
 20
230.40000000000001
 30
0.0
 40
0.6
 50
0.0
 51
90.0
  0
LINE
  5
12EF
  8
3
 10
405.95412432971978
 20
230.40000000002729
 30
0.0
 11
407.30712432972069
 21
228.05653525738529
 31
0.0
  0
LINE
  5
12F0
  8
3
 10
407.30712432972069
 20
228.05653525738529
 30
0.0
 11
407.30712432972342
 21
172.14699999999721
 31
0.0
  0
LINE
  5
12F1
  8
3
 10
424.60112432972068
 20
228.05653525738529
 30
0.0
 11
424.60112432971789
 21
172.14699999999721
 31
0.0
  0
LINE
  5
12F2
  8
3
 10
425.95412432972142
 20
230.40000000002729
 30
0.0
 11
424.60112432972068
 21
228.05653525738529
 31
0.0
  0
ARC
  5
12F3
  8
0
 10
426.55412432972071
 20
230.40000000000001
 30
0.0
 40
0.6
 50
90.0
 51
180.0
  0
LINE
  5
12F4
  8
0
 10
425.95412432972063
 20
173.49999999999989
 30
0.0
 11
425.95412432972063
 21
230.40000000000001
 31
0.0
  0
LINE
  5
12F5
  8
0
 10
423.45412432972063
 20
171.0
 30
0.0
 11
425.95412432972063
 21
173.49999999999989
 31
0.0
  0
ENDSEC
  0
EOF
