  0
SECTION
  2
HEADER
  9
$ACADVER
  1
AC1009
  9
$INSBASE
 10
0.0
 20
0.0
 30
0.0
  9
$EXTMIN
 10
0.0
 20
-2.960436562073669
 30
0.0
  9
$EXTMAX
 10
386.58241689153601
 20
376.05800145657332
 30
0.0
  9
$LIMMIN
 10
0.0
 20
0.0
  9
$LIMMAX
 10
297.0
 20
210.0
  9
$ORTHOMODE
 70
     1
  9
$REGENMODE
 70
     1
  9
$FILLMODE
 70
     1
  9
$QTEXTMODE
 70
     0
  9
$MIRRTEXT
 70
     0
  9
$DRAGMODE
 70
     2
  9
$LTSCALE
 40
5.0
  9
$OSMODE
 70
    37
  9
$ATTMODE
 70
     1
  9
$TEXTSIZE
 40
3.0
  9
$TRACEWID
 40
0.05
  9
$TEXTSTYLE
  7
STANDARD
  9
$CLAYER
  8
0
  9
$CELTYPE
  6
BYLAYER
  9
$CECOLOR
 62
   256
  9
$DIMSCALE
 40
1.0
  9
$DIMASZ
 40
3.0
  9
$DIMEXO
 40
2.0
  9
$DIMDLI
 40
10.0
  9
$DIMRND
 40
0.0
  9
$DIMDLE
 40
0.0
  9
$DIMEXE
 40
2.0
  9
$DIMTP
 40
0.0
  9
$DIMTM
 40
0.0
  9
$DIMTXT
 40
3.0
  9
$DIMCEN
 40
0.0
  9
$DIMTSZ
 40
0.0
  9
$DIMTOL
 70
     0
  9
$DIMLIM
 70
     0
  9
$DIMTIH
 70
     0
  9
$DIMTOH
 70
     0
  9
$DIMSE1
 70
     0
  9
$DIMSE2
 70
     0
  9
$DIMTAD
 70
     1
  9
$DIMZIN
 70
     8
  9
$DIMBLK
  1

  9
$DIMASO
 70
     1
  9
$DIMSHO
 70
     0
  9
$DIMPOST
  1

  9
$DIMAPOST
  1

  9
$DIMALT
 70
     0
  9
$DIMALTD
 70
     2
  9
$DIMALTF
 40
25.399999999999999
  9
$DIMLFAC
 40
1.0
  9
$DIMTOFL
 70
     1
  9
$DIMTVP
 40
1.6000000000000001
  9
$DIMTIX
 70
     1
  9
$DIMSOXD
 70
     0
  9
$DIMSAH
 70
     0
  9
$DIMBLK1
  1

  9
$DIMBLK2
  1

  9
$DIMSTYLE
  2
STANDARD
  9
$DIMCLRD
 70
   256
  9
$DIMCLRE
 70
   256
  9
$DIMCLRT
 70
   256
  9
$DIMTFAC
 40
1.0
  9
$DIMGAP
 40
1.0
  9
$LUNITS
 70
     2
  9
$LUPREC
 70
     1
  9
$SKETCHINC
 40
0.1
  9
$FILLETRAD
 40
0.0
  9
$AUNITS
 70
     0
  9
$AUPREC
 70
     0
  9
$MENU
  1
ME
  9
$ELEVATION
 40
0.0
  9
$PELEVATION
 40
0.0
  9
$THICKNESS
 40
0.0
  9
$LIMCHECK
 70
     0
  9
$BLIPMODE
 70
     0
  9
$CHAMFERA
 40
1.0
  9
$CHAMFERB
 40
1.0
  9
$SKPOLY
 70
     0
  9
$TDCREATE
 40
2452423.367022106
  9
$TDUPDATE
 40
2459236.6037051389
  9
$TDINDWG
 40
0.5651191782
  9
$TDUSRTIMER
 40
0.5651159375
  9
$USRTIMER
 70
     1
  9
$ANGBASE
 50
0.0
  9
$ANGDIR
 70
     0
  9
$PDMODE
 70
     0
  9
$PDSIZE
 40
0.0
  9
$PLINEWID
 40
0.0
  9
$COORDS
 70
     1
  9
$SPLFRAME
 70
     0
  9
$SPLINETYPE
 70
     6
  9
$SPLINESEGS
 70
     8
  9
$ATTDIA
 70
     0
  9
$ATTREQ
 70
     1
  9
$HANDLING
 70
     1
  9
$HANDSEED
  5
22A3
  9
$SURFTAB1
 70
     6
  9
$SURFTAB2
 70
     6
  9
$SURFTYPE
 70
     6
  9
$SURFU
 70
     6
  9
$SURFV
 70
     6
  9
$UCSNAME
  2

  9
$UCSORG
 10
0.0
 20
0.0
 30
0.0
  9
$UCSXDIR
 10
1.0
 20
0.0
 30
0.0
  9
$UCSYDIR
 10
0.0
 20
1.0
 30
0.0
  9
$PUCSNAME
  2

  9
$PUCSORG
 10
0.0
 20
0.0
 30
0.0
  9
$PUCSXDIR
 10
1.0
 20
0.0
 30
0.0
  9
$PUCSYDIR
 10
0.0
 20
1.0
 30
0.0
  9
$USERI1
 70
     4
  9
$USERI2
 70
     1
  9
$USERI3
 70
     1
  9
$USERI4
 70
     1
  9
$USERI5
 70
     0
  9
$USERR1
 40
1.0
  9
$USERR2
 40
3.0
  9
$USERR3
 40
3.0
  9
$USERR4
 40
3.0
  9
$USERR5
 40
10.0
  9
$WORLDVIEW
 70
     1
  9
$SHADEDGE
 70
     3
  9
$SHADEDIF
 70
    70
  9
$TILEMODE
 70
     1
  9
$MAXACTVP
 70
    16
  9
$PLIMCHECK
 70
     0
  9
$PEXTMIN
 10
1.0000000000000000E+020
 20
1.0000000000000000E+020
 30
1.0000000000000000E+020
  9
$PEXTMAX
 10
-1.0000000000000000E+020
 20
-1.0000000000000000E+020
 30
-1.0000000000000000E+020
  9
$PLIMMIN
 10
0.0
 20
0.0
  9
$PLIMMAX
 10
12.0
 20
9.0
  9
$UNITMODE
 70
     0
  9
$VISRETAIN
 70
     0
  9
$PLINEGEN
 70
     0
  9
$PSLTSCALE
 70
     0
  0
ENDSEC
  0
SECTION
  2
TABLES
  0
TABLE
  2
VPORT
 70
     1
  0
VPORT
  2
*ACTIVE
 70
     0
 10
0.0
 20
0.0
 11
1.0
 21
1.0
 12
529.45049153006676
 22
200.0
 13
0.0
 23
0.0
 14
5.0
 24
5.0
 15
10.0
 25
10.0
 16
0.0
 26
0.0
 36
1.0
 17
0.0
 27
0.0
 37
0.0
 40
400.26540224275641
 41
2.6470588235294108
 42
50.0
 43
0.0
 44
0.0
 50
0.0
 51
0.0
 71
     0
 72
   500
 73
     1
 74
     0
 75
     0
 76
     0
 77
     0
 78
     1
  0
ENDTAB
  0
TABLE
  2
LTYPE
 70
     3
  0
LTYPE
  2
CONTINUOUS
 70
     0
  3
Solid Line
 72
    65
 73
     0
 40
0.0
  0
LTYPE
  2
CENTER
 70
     0
  3
____ _ ____ _ ____ _ ____ _ ____ _ ____ _ ____
 72
    65
 73
     4
 40
2.0
 49
1.25
 49
-0.25
 49
0.25
 49
-0.25
  0
LTYPE
  2
HIDDEN
 70
     0
  3
_ _ _ _ _ _ _ _ _ _ _ _ _ _ _ _ _ _ _ _ _ _ _
 72
    65
 73
     2
 40
0.375
 49
0.25
 49
-0.125
  0
ENDTAB
  0
TABLE
  2
LAYER
 70
     6
  0
LAYER
  2
0
 70
     0
 62
     7
  6
CONTINUOUS
  0
LAYER
  2
1
 70
     0
 62
     1
  6
CENTER
  0
LAYER
  2
3
 70
     0
 62
     3
  6
CONTINUOUS
  0
LAYER
  2
WAKU
 70
     0
 62
     5
  6
CONTINUOUS
  0
LAYER
  2
2
 70
     0
 62
     2
  6
HIDDEN
  0
LAYER
  2
DEFPOINTS
 70
     0
 62
     7
  6
CONTINUOUS
  0
ENDTAB
  0
TABLE
  2
STYLE
 70
     2
  0
STYLE
  2
STANDARD
 70
     0
 40
0.0
 41
1.0
 50
0.0
 71
     0
 42
3.0
  3
simplex.shx
  4
EXTFONT.shx
  0
STYLE
  2
STANDARD1
 70
     0
 40
0.0
 41
1.0
 50
0.0
 71
     0
 42
3.0
  3
txt
  4

  0
ENDTAB
  0
TABLE
  2
VIEW
 70
     0
  0
ENDTAB
  0
TABLE
  2
UCS
 70
     0
  0
ENDTAB
  0
TABLE
  2
APPID
 70
     6
  0
APPID
  2
ACAD
 70
     0
  0
APPID
  2
ACAD_MLEADERVER
 70
     0
  0
APPID
  2
ACAD_EXEMPT_FROM_CAD_STANDARDS
 70
     0
  0
APPID
  2
ACAD_NAV_VCDISPLAY
 70
     0
  0
APPID
  2
ACAD_DSTYLE_DIMJAG
 70
     0
  0
APPID
  2
ACAD_DSTYLE_DIMTALN
 70
     0
  0
ENDTAB
  0
TABLE
  2
DIMSTYLE
 70
     1
  0
DIMSTYLE
  2
STANDARD
 70
     0
  3

  4

  5

  6

  7

 40
1.0
 41
0.18
 42
0.0625
 43
0.38
 44
0.18
 45
0.0
 46
0.0
 47
0.0
 48
0.0
140
0.18
141
0.09
142
0.0
143
25.399999999999999
144
1.0
145
0.0
146
1.0
147
0.09
 71
     0
 72
     0
 73
     1
 74
     1
 75
     0
 76
     0
 77
     0
 78
     0
170
     0
171
     2
172
     0
173
     0
174
     0
175
     0
176
     0
177
     0
178
     0
  0
ENDTAB
  0
ENDSEC
  0
SECTION
  2
BLOCKS
  0
BLOCK
  8
0
  2
$MODEL_SPACE
 70
     0
 10
0.0
 20
0.0
 30
0.0
  3
$MODEL_SPACE
  1

  0
ENDBLK
  5
33
  8
0
  0
BLOCK
 67
     1
  8
0
  2
$PAPER_SPACE
 70
     0
 10
0.0
 20
0.0
 30
0.0
  3
$PAPER_SPACE
  1

  0
ENDBLK
  5
31
 67
     1
  8
0
  0
BLOCK
  8
0
  2
ARROW1
 70
     0
 10
0.0
 20
0.0
 30
0.0
  3
ARROW1
  1

  0
SOLID
  5
D5
  8
WAKU
  6
CONTINUOUS
 62
     4
 10
-1.0
 20
0.1666666666666714
 30
0.0
 11
-1.0
 21
-0.1666666666666714
 31
0.0
 12
0.0
 22
0.0
 32
0.0
 13
0.0
 23
0.0
 33
0.0
  0
ENDBLK
  5
D7
  8
0
  0
ENDSEC
  0
SECTION
  2
ENTITIES
  0
TEXT
  5
1860
  8
0
 62
     3
 10
0.0
 20
0.0
 30
0.0
 40
10.0
  1
TL12X40N-SUS
  7
STANDARD1
  0
ARC
  5
1922
  8
0
 10
201.0
 20
239.99999999999989
 30
0.0
 40
5.9999999999999218
 50
270.0
 51
295.05796281583918
  0
LINE
  5
1923
  8
0
 10
185.99999999999861
 20
234.0
 30
0.0
 11
201.0
 21
234.0
 31
0.0
  0
LINE
  5
1924
  8
0
 10
199.94203811574911
 20
246.0
 30
0.0
 11
185.99999999999989
 21
246.0
 31
0.0
  0
ARC
  5
1928
  8
0
 10
201.99415897570469
 20
240.3618442752794
 30
0.0
 40
5.9999999999946594
 50
284.94203718416492
 51
290.00000000000341
  0
LINE
  5
1929
  8
0
 10
204.04627983565709
 20
234.72368855056911
 30
0.0
 11
267.53370220232171
 21
257.83122054232132
 31
0.0
  0
LINE
  5
192A
  8
0
 10
263.42946048241367
 20
269.10753199175218
 30
0.0
 11
199.942038115749
 21
245.99999999999989
 31
0.0
  0
LINE
  5
192B
  8
0
 10
162.5
 20
203.5
 30
0.0
 11
162.5
 21
198.0
 31
0.0
  0
LINE
  5
192C
  8
0
 10
181.5
 20
198.0
 30
0.0
 11
181.5
 21
203.5
 31
0.0
  0
LINE
  5
192D
  8
0
 10
181.5
 20
198.0
 30
0.0
 11
162.5
 21
198.0
 31
0.0
  0
LINE
  5
192E
  8
0
 10
185.44999999999999
 20
203.5
 30
0.0
 11
186.0
 21
204.05000000000001
 31
0.0
  0
LINE
  5
192F
  8
0
 10
158.0
 20
204.05000000000001
 30
0.0
 11
158.5499999999999
 21
203.5
 31
0.0
  0
LINE
  5
1930
  8
0
 10
185.44999999999999
 20
203.5
 30
0.0
 11
158.5499999999999
 21
203.5
 31
0.0
  0
LINE
  5
1931
  8
0
 10
160.57499999999999
 20
249.5
 30
0.0
 11
158.0
 21
246.92500000000001
 31
0.0
  0
LINE
  5
1932
  8
0
 10
186.0
 20
246.92500000000001
 30
0.0
 11
183.4249999999999
 21
249.5
 31
0.0
  0
LINE
  5
1933
  8
0
 10
183.4249999999999
 20
249.5
 30
0.0
 11
160.57499999999999
 21
249.5
 31
0.0
  0
LINE
  5
1934
  8
0
 10
158.0
 20
246.92500000000001
 30
0.0
 11
158.0
 21
204.05000000000001
 31
0.0
  0
LINE
  5
1935
  8
0
 10
186.0
 20
204.05000000000001
 30
0.0
 11
186.0
 21
233.9999999999969
 31
0.0
  0
LINE
  5
1936
  8
0
 10
186.0
 20
246.0000000000002
 30
0.0
 11
186.0
 21
246.92500000000001
 31
0.0
  0
LINE
  5
1937
  8
0
 10
186.0
 20
204.05000000000001
 30
0.0
 11
158.0
 21
204.05000000000001
 31
0.0
  0
POLYLINE
  5
1938
  8
0
 66
     1
 10
0.0
 20
0.0
 30
0.0
  0
VERTEX
  5
1A70
  8
0
 10
185.99999999993059
 20
245.9999999998382
 30
0.0
  0
VERTEX
  5
1A71
  8
0
 10
185.99305247811481
 20
245.98377119008379
 30
0.0
  0
VERTEX
  5
1A72
  8
0
 10
185.93455190786719
 20
245.84565966106879
 30
0.0
  0
VERTEX
  5
1A73
  8
0
 10
185.8179004470683
 20
245.56186774070471
 30
0.0
  0
VERTEX
  5
1A74
  8
0
 10
185.65720304173641
 20
245.14967910876149
 30
0.0
  0
VERTEX
  5
1A75
  8
0
 10
185.46089843499081
 20
244.6038882129279
 30
0.0
  0
VERTEX
  5
1A76
  8
0
 10
185.24060145902371
 20
243.9132501832494
 30
0.0
  0
VERTEX
  5
1A77
  8
0
 10
185.02183680049939
 20
243.09325615797309
 30
0.0
  0
VERTEX
  5
1A78
  8
0
 10
184.83447777918221
 20
242.17343503798079
 30
0.0
  0
VERTEX
  5
1A79
  8
0
 10
184.70107642150231
 20
241.1477553157537
 30
0.0
  0
VERTEX
  5
1A7A
  8
0
 10
184.65045744390531
 20
240.1845901949151
 30
0.0
  0
VERTEX
  5
1A7B
  8
0
 10
184.67545387452441
 20
239.18321916942341
 30
0.0
  0
VERTEX
  5
1A7C
  8
0
 10
184.7626339150184
 20
238.30152290307529
 30
0.0
  0
VERTEX
  5
1A7D
  8
0
 10
184.9051123604545
 20
237.4422812828704
 30
0.0
  0
VERTEX
  5
1A7E
  8
0
 10
185.0889784148396
 20
236.63527773150031
 30
0.0
  0
VERTEX
  5
1A7F
  8
0
 10
185.29841388329771
 20
235.89539139363001
 30
0.0
  0
VERTEX
  5
1A80
  8
0
 10
185.52086174944779
 20
235.22363083004669
 30
0.0
  0
VERTEX
  5
1A81
  8
0
 10
185.72627471766009
 20
234.66983887441711
 30
0.0
  0
VERTEX
  5
1A82
  8
0
 10
185.8819500880806
 20
234.28086210622951
 30
0.0
  0
VERTEX
  5
1A83
  8
0
 10
185.97828125385769
 20
234.05085327026219
 30
0.0
  0
VERTEX
  5
1A84
  8
0
 10
185.99999999960559
 20
234.00000000092041
 30
0.0
  0
SEQEND
  5
1A85
  8
0
  0
LINE
  5
1939
  8
0
 10
186.0
 20
246.92500000000001
 30
0.0
 11
158.0
 21
246.92500000000001
 31
0.0
  0
LINE
  5
193A
  8
0
 10
262.68854107801388
 20
271.14319132497621
 30
0.0
 11
268.2746216067215
 21
255.79556120909729
 31
0.0
  0
ARC
  5
193B
  8
0
 10
278.0
 20
266.5
 30
0.0
 40
16.000000000000028
 50
25.14094307643839
 51
163.13010235415521
  0
ARC
  5
193C
  8
0
 10
277.01929377685462
 20
269.1944682032107
 30
0.0
 40
16.000000000000028
 50
236.86989764584649
 51
14.859056923561941
  0
LINE
  5
1940
  8
1
 10
172.0
 20
254.5
 30
0.0
 11
172.0
 21
153.0
 31
0.0
  0
LINE
  5
1941
  8
1
 10
172.0
 20
240.0
 30
0.0
 11
201.0000000000002
 21
240.0
 31
0.0
  0
LINE
  5
1942
  8
1
 10
201.0000000000002
 20
240.0
 30
0.0
 11
300.41161169342229
 21
276.18286759683559
 31
0.0
  0
LINE
  5
1943
  8
3
 10
201.0
 20
350.70276664349768
 30
0.0
 11
201.0
 21
362.29723335650232
 31
0.0
  0
POLYLINE
  5
1944
  8
0
 66
     1
 10
0.0
 20
0.0
 30
0.0
  0
VERTEX
  5
1A86
  8
0
 10
201.0
 20
350.70276664349768
 30
0.0
  0
VERTEX
  5
1A87
  8
0
 10
200.84828630567171
 20
350.84138007729513
 30
0.0
  0
VERTEX
  5
1A88
  8
0
 10
200.71656913619819
 20
351.01692225133462
 30
0.0
  0
VERTEX
  5
1A89
  8
0
 10
200.59685585592501
 20
351.23572550010022
 30
0.0
  0
VERTEX
  5
1A8A
  8
0
 10
200.49074048268901
 20
351.4917684277317
 30
0.0
  0
VERTEX
  5
1A8B
  8
0
 10
200.398913379123
 20
351.77459117020948
 30
0.0
  0
VERTEX
  5
1A8C
  8
0
 10
200.3170151329532
 20
352.08934530823308
 30
0.0
  0
VERTEX
  5
1A8D
  8
0
 10
200.24229204400621
 20
352.44438981036569
 30
0.0
  0
VERTEX
  5
1A8E
  8
0
 10
200.1766143831519
 20
352.82869897187948
 30
0.0
  0
VERTEX
  5
1A8F
  8
0
 10
200.12048255442841
 20
353.23214868671943
 30
0.0
  0
VERTEX
  5
1A90
  8
0
 10
200.0723366121957
 20
353.65851184822571
 30
0.0
  0
VERTEX
  5
1A91
  8
0
 10
200.03088037559189
 20
354.11839038117381
 30
0.0
  0
VERTEX
  5
1A92
  8
0
 10
199.9974648565356
 20
354.59605996624367
 30
0.0
  0
VERTEX
  5
1A93
  8
0
 10
199.9734471359385
 20
355.0544033494628
 30
0.0
  0
VERTEX
  5
1A94
  8
0
 10
199.95623135742201
 20
355.5221699546878
 30
0.0
  0
VERTEX
  5
1A95
  8
0
 10
199.94558710441649
 20
356.0093945784418
 30
0.0
  0
VERTEX
  5
1A96
  8
0
 10
199.94203811574911
 20
356.5
 30
0.0
  0
SEQEND
  5
1A97
  8
0
  0
POLYLINE
  5
1945
  8
0
 10
200.99999999999991
 20
350.7027666434978
 30
0.0
 66
     1
 70
     8
  0
VERTEX
  8
0
  5
1D0D
 10
201.000
 20
350.703
 30
0.000000
  70
    32
  0
VERTEX
  8
0
  5
1D0E
 10
201.003
 20
350.700
 30
0.000000
  70
    32
  0
VERTEX
  8
0
  5
1D0F
 10
201.007
 20
350.698
 30
0.000000
  70
    32
  0
VERTEX
  8
0
  5
1D10
 10
201.010
 20
350.696
 30
0.000000
  70
    32
  0
VERTEX
  8
0
  5
1D11
 10
201.013
 20
350.693
 30
0.000000
  70
    32
  0
VERTEX
  8
0
  5
1D12
 10
201.017
 20
350.691
 30
0.000000
  70
    32
  0
VERTEX
  8
0
  5
1D13
 10
201.020
 20
350.689
 30
0.000000
  70
    32
  0
VERTEX
  8
0
  5
1D14
 10
201.023
 20
350.686
 30
0.000000
  70
    32
  0
VERTEX
  8
0
  5
1D15
 10
201.026
 20
350.684
 30
0.000000
  70
    32
  0
VERTEX
  8
0
  5
1D16
 10
201.030
 20
350.682
 30
0.000000
  70
    32
  0
VERTEX
  8
0
  5
1D17
 10
201.033
 20
350.679
 30
0.000000
  70
    32
  0
VERTEX
  8
0
  5
1D18
 10
201.036
 20
350.677
 30
0.000000
  70
    32
  0
VERTEX
  8
0
  5
1D19
 10
201.040
 20
350.675
 30
0.000000
  70
    32
  0
VERTEX
  8
0
  5
1D1A
 10
201.043
 20
350.673
 30
0.000000
  70
    32
  0
VERTEX
  8
0
  5
1D1B
 10
201.046
 20
350.670
 30
0.000000
  70
    32
  0
VERTEX
  8
0
  5
1D1C
 10
201.050
 20
350.668
 30
0.000000
  70
    32
  0
VERTEX
  8
0
  5
1D1D
 10
201.053
 20
350.666
 30
0.000000
  70
    32
  0
VERTEX
  8
0
  5
1D1E
 10
201.056
 20
350.664
 30
0.000000
  70
    32
  0
VERTEX
  8
0
  5
1D1F
 10
201.060
 20
350.662
 30
0.000000
  70
    32
  0
VERTEX
  8
0
  5
1D20
 10
201.063
 20
350.660
 30
0.000000
  70
    32
  0
VERTEX
  8
0
  5
1D21
 10
201.066
 20
350.658
 30
0.000000
  70
    32
  0
VERTEX
  8
0
  5
1D22
 10
201.070
 20
350.655
 30
0.000000
  70
    32
  0
VERTEX
  8
0
  5
1D23
 10
201.073
 20
350.653
 30
0.000000
  70
    32
  0
VERTEX
  8
0
  5
1D24
 10
201.076
 20
350.651
 30
0.000000
  70
    32
  0
VERTEX
  8
0
  5
1D25
 10
201.080
 20
350.649
 30
0.000000
  70
    32
  0
VERTEX
  8
0
  5
1D26
 10
201.083
 20
350.647
 30
0.000000
  70
    32
  0
VERTEX
  8
0
  5
1D27
 10
201.086
 20
350.645
 30
0.000000
  70
    32
  0
VERTEX
  8
0
  5
1D28
 10
201.090
 20
350.643
 30
0.000000
  70
    32
  0
VERTEX
  8
0
  5
1D29
 10
201.093
 20
350.641
 30
0.000000
  70
    32
  0
VERTEX
  8
0
  5
1D2A
 10
201.096
 20
350.639
 30
0.000000
  70
    32
  0
VERTEX
  8
0
  5
1D2B
 10
201.100
 20
350.637
 30
0.000000
  70
    32
  0
VERTEX
  8
0
  5
1D2C
 10
201.103
 20
350.635
 30
0.000000
  70
    32
  0
VERTEX
  8
0
  5
1D2D
 10
201.106
 20
350.634
 30
0.000000
  70
    32
  0
VERTEX
  8
0
  5
1D2E
 10
201.110
 20
350.632
 30
0.000000
  70
    32
  0
VERTEX
  8
0
  5
1D2F
 10
201.113
 20
350.630
 30
0.000000
  70
    32
  0
VERTEX
  8
0
  5
1D30
 10
201.116
 20
350.628
 30
0.000000
  70
    32
  0
VERTEX
  8
0
  5
1D31
 10
201.120
 20
350.626
 30
0.000000
  70
    32
  0
VERTEX
  8
0
  5
1D32
 10
201.123
 20
350.624
 30
0.000000
  70
    32
  0
VERTEX
  8
0
  5
1D33
 10
201.127
 20
350.622
 30
0.000000
  70
    32
  0
VERTEX
  8
0
  5
1D34
 10
201.130
 20
350.621
 30
0.000000
  70
    32
  0
VERTEX
  8
0
  5
1D35
 10
201.133
 20
350.619
 30
0.000000
  70
    32
  0
VERTEX
  8
0
  5
1D36
 10
201.137
 20
350.617
 30
0.000000
  70
    32
  0
VERTEX
  8
0
  5
1D37
 10
201.140
 20
350.615
 30
0.000000
  70
    32
  0
VERTEX
  8
0
  5
1D38
 10
201.143
 20
350.614
 30
0.000000
  70
    32
  0
VERTEX
  8
0
  5
1D39
 10
201.147
 20
350.612
 30
0.000000
  70
    32
  0
VERTEX
  8
0
  5
1D3A
 10
201.150
 20
350.610
 30
0.000000
  70
    32
  0
VERTEX
  8
0
  5
1D3B
 10
201.153
 20
350.608
 30
0.000000
  70
    32
  0
VERTEX
  8
0
  5
1D3C
 10
201.157
 20
350.607
 30
0.000000
  70
    32
  0
VERTEX
  8
0
  5
1D3D
 10
201.160
 20
350.605
 30
0.000000
  70
    32
  0
VERTEX
  8
0
  5
1D3E
 10
201.163
 20
350.603
 30
0.000000
  70
    32
  0
VERTEX
  8
0
  5
1D3F
 10
201.167
 20
350.602
 30
0.000000
  70
    32
  0
VERTEX
  8
0
  5
1D40
 10
201.170
 20
350.600
 30
0.000000
  70
    32
  0
VERTEX
  8
0
  5
1D41
 10
201.174
 20
350.599
 30
0.000000
  70
    32
  0
VERTEX
  8
0
  5
1D42
 10
201.177
 20
350.597
 30
0.000000
  70
    32
  0
VERTEX
  8
0
  5
1D43
 10
201.180
 20
350.596
 30
0.000000
  70
    32
  0
VERTEX
  8
0
  5
1D44
 10
201.184
 20
350.594
 30
0.000000
  70
    32
  0
VERTEX
  8
0
  5
1D45
 10
201.187
 20
350.593
 30
0.000000
  70
    32
  0
VERTEX
  8
0
  5
1D46
 10
201.190
 20
350.591
 30
0.000000
  70
    32
  0
VERTEX
  8
0
  5
1D47
 10
201.194
 20
350.590
 30
0.000000
  70
    32
  0
VERTEX
  8
0
  5
1D48
 10
201.197
 20
350.588
 30
0.000000
  70
    32
  0
VERTEX
  8
0
  5
1D49
 10
201.201
 20
350.587
 30
0.000000
  70
    32
  0
VERTEX
  8
0
  5
1D4A
 10
201.204
 20
350.585
 30
0.000000
  70
    32
  0
VERTEX
  8
0
  5
1D4B
 10
201.207
 20
350.584
 30
0.000000
  70
    32
  0
VERTEX
  8
0
  5
1D4C
 10
201.211
 20
350.582
 30
0.000000
  70
    32
  0
VERTEX
  8
0
  5
1D4D
 10
201.214
 20
350.581
 30
0.000000
  70
    32
  0
VERTEX
  8
0
  5
1D4E
 10
201.217
 20
350.580
 30
0.000000
  70
    32
  0
VERTEX
  8
0
  5
1D4F
 10
201.221
 20
350.578
 30
0.000000
  70
    32
  0
VERTEX
  8
0
  5
1D50
 10
201.224
 20
350.577
 30
0.000000
  70
    32
  0
VERTEX
  8
0
  5
1D51
 10
201.228
 20
350.576
 30
0.000000
  70
    32
  0
VERTEX
  8
0
  5
1D52
 10
201.231
 20
350.574
 30
0.000000
  70
    32
  0
VERTEX
  8
0
  5
1D53
 10
201.234
 20
350.573
 30
0.000000
  70
    32
  0
VERTEX
  8
0
  5
1D54
 10
201.238
 20
350.572
 30
0.000000
  70
    32
  0
VERTEX
  8
0
  5
1D55
 10
201.241
 20
350.570
 30
0.000000
  70
    32
  0
VERTEX
  8
0
  5
1D56
 10
201.244
 20
350.569
 30
0.000000
  70
    32
  0
VERTEX
  8
0
  5
1D57
 10
201.248
 20
350.568
 30
0.000000
  70
    32
  0
VERTEX
  8
0
  5
1D58
 10
201.251
 20
350.567
 30
0.000000
  70
    32
  0
VERTEX
  8
0
  5
1D59
 10
201.255
 20
350.566
 30
0.000000
  70
    32
  0
VERTEX
  8
0
  5
1D5A
 10
201.258
 20
350.564
 30
0.000000
  70
    32
  0
VERTEX
  8
0
  5
1D5B
 10
201.261
 20
350.563
 30
0.000000
  70
    32
  0
VERTEX
  8
0
  5
1D5C
 10
201.265
 20
350.562
 30
0.000000
  70
    32
  0
VERTEX
  8
0
  5
1D5D
 10
201.268
 20
350.561
 30
0.000000
  70
    32
  0
VERTEX
  8
0
  5
1D5E
 10
201.271
 20
350.560
 30
0.000000
  70
    32
  0
VERTEX
  8
0
  5
1D5F
 10
201.275
 20
350.559
 30
0.000000
  70
    32
  0
VERTEX
  8
0
  5
1D60
 10
201.278
 20
350.558
 30
0.000000
  70
    32
  0
VERTEX
  8
0
  5
1D61
 10
201.282
 20
350.557
 30
0.000000
  70
    32
  0
VERTEX
  8
0
  5
1D62
 10
201.285
 20
350.556
 30
0.000000
  70
    32
  0
VERTEX
  8
0
  5
1D63
 10
201.288
 20
350.555
 30
0.000000
  70
    32
  0
VERTEX
  8
0
  5
1D64
 10
201.292
 20
350.554
 30
0.000000
  70
    32
  0
VERTEX
  8
0
  5
1D65
 10
201.295
 20
350.553
 30
0.000000
  70
    32
  0
VERTEX
  8
0
  5
1D66
 10
201.299
 20
350.552
 30
0.000000
  70
    32
  0
VERTEX
  8
0
  5
1D67
 10
201.302
 20
350.551
 30
0.000000
  70
    32
  0
VERTEX
  8
0
  5
1D68
 10
201.305
 20
350.550
 30
0.000000
  70
    32
  0
VERTEX
  8
0
  5
1D69
 10
201.309
 20
350.549
 30
0.000000
  70
    32
  0
VERTEX
  8
0
  5
1D6A
 10
201.312
 20
350.548
 30
0.000000
  70
    32
  0
VERTEX
  8
0
  5
1D6B
 10
201.316
 20
350.547
 30
0.000000
  70
    32
  0
VERTEX
  8
0
  5
1D6C
 10
201.319
 20
350.546
 30
0.000000
  70
    32
  0
VERTEX
  8
0
  5
1D6D
 10
201.322
 20
350.545
 30
0.000000
  70
    32
  0
VERTEX
  8
0
  5
1D6E
 10
201.326
 20
350.544
 30
0.000000
  70
    32
  0
VERTEX
  8
0
  5
1D6F
 10
201.329
 20
350.544
 30
0.000000
  70
    32
  0
VERTEX
  8
0
  5
1D70
 10
201.333
 20
350.543
 30
0.000000
  70
    32
  0
VERTEX
  8
0
  5
1D71
 10
201.336
 20
350.542
 30
0.000000
  70
    32
  0
VERTEX
  8
0
  5
1D72
 10
201.339
 20
350.541
 30
0.000000
  70
    32
  0
VERTEX
  8
0
  5
1D73
 10
201.343
 20
350.540
 30
0.000000
  70
    32
  0
VERTEX
  8
0
  5
1D74
 10
201.346
 20
350.540
 30
0.000000
  70
    32
  0
VERTEX
  8
0
  5
1D75
 10
201.350
 20
350.539
 30
0.000000
  70
    32
  0
VERTEX
  8
0
  5
1D76
 10
201.353
 20
350.538
 30
0.000000
  70
    32
  0
VERTEX
  8
0
  5
1D77
 10
201.356
 20
350.538
 30
0.000000
  70
    32
  0
VERTEX
  8
0
  5
1D78
 10
201.360
 20
350.537
 30
0.000000
  70
    32
  0
VERTEX
  8
0
  5
1D79
 10
201.363
 20
350.536
 30
0.000000
  70
    32
  0
VERTEX
  8
0
  5
1D7A
 10
201.367
 20
350.536
 30
0.000000
  70
    32
  0
VERTEX
  8
0
  5
1D7B
 10
201.370
 20
350.535
 30
0.000000
  70
    32
  0
VERTEX
  8
0
  5
1D7C
 10
201.373
 20
350.534
 30
0.000000
  70
    32
  0
VERTEX
  8
0
  5
1D7D
 10
201.377
 20
350.534
 30
0.000000
  70
    32
  0
VERTEX
  8
0
  5
1D7E
 10
201.380
 20
350.533
 30
0.000000
  70
    32
  0
VERTEX
  8
0
  5
1D7F
 10
201.384
 20
350.533
 30
0.000000
  70
    32
  0
VERTEX
  8
0
  5
1D80
 10
201.387
 20
350.532
 30
0.000000
  70
    32
  0
VERTEX
  8
0
  5
1D81
 10
201.390
 20
350.532
 30
0.000000
  70
    32
  0
VERTEX
  8
0
  5
1D82
 10
201.394
 20
350.531
 30
0.000000
  70
    32
  0
VERTEX
  8
0
  5
1D83
 10
201.397
 20
350.531
 30
0.000000
  70
    32
  0
VERTEX
  8
0
  5
1D84
 10
201.401
 20
350.530
 30
0.000000
  70
    32
  0
VERTEX
  8
0
  5
1D85
 10
201.404
 20
350.530
 30
0.000000
  70
    32
  0
VERTEX
  8
0
  5
1D86
 10
201.407
 20
350.529
 30
0.000000
  70
    32
  0
VERTEX
  8
0
  5
1D87
 10
201.411
 20
350.529
 30
0.000000
  70
    32
  0
VERTEX
  8
0
  5
1D88
 10
201.414
 20
350.528
 30
0.000000
  70
    32
  0
VERTEX
  8
0
  5
1D89
 10
201.418
 20
350.528
 30
0.000000
  70
    32
  0
VERTEX
  8
0
  5
1D8A
 10
201.421
 20
350.528
 30
0.000000
  70
    32
  0
VERTEX
  8
0
  5
1D8B
 10
201.424
 20
350.527
 30
0.000000
  70
    32
  0
VERTEX
  8
0
  5
1D8C
 10
201.428
 20
350.527
 30
0.000000
  70
    32
  0
VERTEX
  8
0
  5
1D8D
 10
201.431
 20
350.526
 30
0.000000
  70
    32
  0
SEQEND
  8
0
  5
1D8E
  0
POLYLINE
  5
1946
  8
0
 66
     1
 10
0.0
 20
0.0
 30
0.0
  0
VERTEX
  5
1A98
  8
0
 10
199.94203811574911
 20
356.5
 30
0.0
  0
VERTEX
  5
1A99
  8
0
 10
199.94210368752661
 20
356.56680046979687
 30
0.0
  0
VERTEX
  5
1A9A
  8
0
 10
199.94662480716099
 20
357.05758710291872
 30
0.0
  0
VERTEX
  5
1A9B
  8
0
 10
199.95825707738101
 20
357.54452463879602
 30
0.0
  0
VERTEX
  5
1A9C
  8
0
 10
199.97770159099639
 20
358.0380351713539
 30
0.0
  0
VERTEX
  5
1A9D
  8
0
 10
200.00477730766119
 20
358.52032415068493
 30
0.0
  0
VERTEX
  5
1A9E
  8
0
 10
200.0385055088407
 20
358.97491260648331
 30
0.0
  0
VERTEX
  5
1A9F
  8
0
 10
200.07965687980919
 20
359.412504401234
 30
0.0
  0
VERTEX
  5
1AA0
  8
0
 10
200.12992676963819
 20
359.84176374902478
 30
0.0
  0
VERTEX
  5
1AA1
  8
0
 10
200.1884850877845
 20
360.24686657713391
 30
0.0
  0
VERTEX
  5
1AA2
  8
0
 10
200.25402781238549
 20
360.61650131574868
 30
0.0
  0
VERTEX
  5
1AA3
  8
0
 10
200.32824522636929
 20
360.95793939356429
 30
0.0
  0
VERTEX
  5
1AA4
  8
0
 10
200.41424890705221
 20
361.27729287470379
 30
0.0
  0
VERTEX
  5
1AA5
  8
0
 10
200.5109894914921
 20
361.56237413933491
 30
0.0
  0
VERTEX
  5
1AA6
  8
0
 10
200.61084873497489
 20
361.79331516501281
 30
0.0
  0
VERTEX
  5
1AA7
  8
0
 10
200.7225264014516
 20
361.99235413335703
 30
0.0
  0
VERTEX
  5
1AA8
  8
0
 10
200.85168475524799
 20
362.1623896222946
 30
0.0
  0
VERTEX
  5
1AA9
  8
0
 10
201.0
 20
362.29723335650232
 30
0.0
  0
SEQEND
  5
1AAA
  8
0
  0
ARC
  5
1947
  8
0
 10
201.9941589757031
 20
356.50000000000142
 30
0.0
 40
5.9999999999986517
 50
90.0
 51
95.383501071737925
  0
ARC
  5
1948
  8
0
 10
201.9941589757031
 20
356.49999999999858
 30
0.0
 40
5.999999999998578
 50
264.61649892826199
 51
270.0
  0
POLYLINE
  5
1949
  8
0
 10
201.43122921502996
 20
362.47353413688643
 30
0.0
 66
     1
 70
     8
  0
VERTEX
  8
0
  5
1D8F
 10
201.431
 20
362.474
 30
0.000000
  70
    32
  0
VERTEX
  8
0
  5
1D90
 10
201.428
 20
362.473
 30
0.000000
  70
    32
  0
VERTEX
  8
0
  5
1D91
 10
201.424
 20
362.473
 30
0.000000
  70
    32
  0
VERTEX
  8
0
  5
1D92
 10
201.421
 20
362.472
 30
0.000000
  70
    32
  0
VERTEX
  8
0
  5
1D93
 10
201.418
 20
362.472
 30
0.000000
  70
    32
  0
VERTEX
  8
0
  5
1D94
 10
201.414
 20
362.472
 30
0.000000
  70
    32
  0
VERTEX
  8
0
  5
1D95
 10
201.411
 20
362.471
 30
0.000000
  70
    32
  0
VERTEX
  8
0
  5
1D96
 10
201.407
 20
362.471
 30
0.000000
  70
    32
  0
VERTEX
  8
0
  5
1D97
 10
201.404
 20
362.470
 30
0.000000
  70
    32
  0
VERTEX
  8
0
  5
1D98
 10
201.401
 20
362.470
 30
0.000000
  70
    32
  0
VERTEX
  8
0
  5
1D99
 10
201.397
 20
362.469
 30
0.000000
  70
    32
  0
VERTEX
  8
0
  5
1D9A
 10
201.394
 20
362.469
 30
0.000000
  70
    32
  0
VERTEX
  8
0
  5
1D9B
 10
201.390
 20
362.468
 30
0.000000
  70
    32
  0
VERTEX
  8
0
  5
1D9C
 10
201.387
 20
362.468
 30
0.000000
  70
    32
  0
VERTEX
  8
0
  5
1D9D
 10
201.384
 20
362.467
 30
0.000000
  70
    32
  0
VERTEX
  8
0
  5
1D9E
 10
201.380
 20
362.467
 30
0.000000
  70
    32
  0
VERTEX
  8
0
  5
1D9F
 10
201.377
 20
362.466
 30
0.000000
  70
    32
  0
VERTEX
  8
0
  5
1DA0
 10
201.373
 20
362.466
 30
0.000000
  70
    32
  0
VERTEX
  8
0
  5
1DA1
 10
201.370
 20
362.465
 30
0.000000
  70
    32
  0
VERTEX
  8
0
  5
1DA2
 10
201.367
 20
362.464
 30
0.000000
  70
    32
  0
VERTEX
  8
0
  5
1DA3
 10
201.363
 20
362.464
 30
0.000000
  70
    32
  0
VERTEX
  8
0
  5
1DA4
 10
201.360
 20
362.463
 30
0.000000
  70
    32
  0
VERTEX
  8
0
  5
1DA5
 10
201.356
 20
362.462
 30
0.000000
  70
    32
  0
VERTEX
  8
0
  5
1DA6
 10
201.353
 20
362.462
 30
0.000000
  70
    32
  0
VERTEX
  8
0
  5
1DA7
 10
201.350
 20
362.461
 30
0.000000
  70
    32
  0
VERTEX
  8
0
  5
1DA8
 10
201.346
 20
362.460
 30
0.000000
  70
    32
  0
VERTEX
  8
0
  5
1DA9
 10
201.343
 20
362.460
 30
0.000000
  70
    32
  0
VERTEX
  8
0
  5
1DAA
 10
201.339
 20
362.459
 30
0.000000
  70
    32
  0
VERTEX
  8
0
  5
1DAB
 10
201.336
 20
362.458
 30
0.000000
  70
    32
  0
VERTEX
  8
0
  5
1DAC
 10
201.333
 20
362.457
 30
0.000000
  70
    32
  0
VERTEX
  8
0
  5
1DAD
 10
201.329
 20
362.456
 30
0.000000
  70
    32
  0
VERTEX
  8
0
  5
1DAE
 10
201.326
 20
362.456
 30
0.000000
  70
    32
  0
VERTEX
  8
0
  5
1DAF
 10
201.322
 20
362.455
 30
0.000000
  70
    32
  0
VERTEX
  8
0
  5
1DB0
 10
201.319
 20
362.454
 30
0.000000
  70
    32
  0
VERTEX
  8
0
  5
1DB1
 10
201.316
 20
362.453
 30
0.000000
  70
    32
  0
VERTEX
  8
0
  5
1DB2
 10
201.312
 20
362.452
 30
0.000000
  70
    32
  0
VERTEX
  8
0
  5
1DB3
 10
201.309
 20
362.451
 30
0.000000
  70
    32
  0
VERTEX
  8
0
  5
1DB4
 10
201.305
 20
362.450
 30
0.000000
  70
    32
  0
VERTEX
  8
0
  5
1DB5
 10
201.302
 20
362.449
 30
0.000000
  70
    32
  0
VERTEX
  8
0
  5
1DB6
 10
201.299
 20
362.448
 30
0.000000
  70
    32
  0
VERTEX
  8
0
  5
1DB7
 10
201.295
 20
362.447
 30
0.000000
  70
    32
  0
VERTEX
  8
0
  5
1DB8
 10
201.292
 20
362.446
 30
0.000000
  70
    32
  0
VERTEX
  8
0
  5
1DB9
 10
201.288
 20
362.445
 30
0.000000
  70
    32
  0
VERTEX
  8
0
  5
1DBA
 10
201.285
 20
362.444
 30
0.000000
  70
    32
  0
VERTEX
  8
0
  5
1DBB
 10
201.282
 20
362.443
 30
0.000000
  70
    32
  0
VERTEX
  8
0
  5
1DBC
 10
201.278
 20
362.442
 30
0.000000
  70
    32
  0
VERTEX
  8
0
  5
1DBD
 10
201.275
 20
362.441
 30
0.000000
  70
    32
  0
VERTEX
  8
0
  5
1DBE
 10
201.271
 20
362.440
 30
0.000000
  70
    32
  0
VERTEX
  8
0
  5
1DBF
 10
201.268
 20
362.439
 30
0.000000
  70
    32
  0
VERTEX
  8
0
  5
1DC0
 10
201.265
 20
362.438
 30
0.000000
  70
    32
  0
VERTEX
  8
0
  5
1DC1
 10
201.261
 20
362.437
 30
0.000000
  70
    32
  0
VERTEX
  8
0
  5
1DC2
 10
201.258
 20
362.436
 30
0.000000
  70
    32
  0
VERTEX
  8
0
  5
1DC3
 10
201.255
 20
362.434
 30
0.000000
  70
    32
  0
VERTEX
  8
0
  5
1DC4
 10
201.251
 20
362.433
 30
0.000000
  70
    32
  0
VERTEX
  8
0
  5
1DC5
 10
201.248
 20
362.432
 30
0.000000
  70
    32
  0
VERTEX
  8
0
  5
1DC6
 10
201.244
 20
362.431
 30
0.000000
  70
    32
  0
VERTEX
  8
0
  5
1DC7
 10
201.241
 20
362.430
 30
0.000000
  70
    32
  0
VERTEX
  8
0
  5
1DC8
 10
201.238
 20
362.428
 30
0.000000
  70
    32
  0
VERTEX
  8
0
  5
1DC9
 10
201.234
 20
362.427
 30
0.000000
  70
    32
  0
VERTEX
  8
0
  5
1DCA
 10
201.231
 20
362.426
 30
0.000000
  70
    32
  0
VERTEX
  8
0
  5
1DCB
 10
201.228
 20
362.424
 30
0.000000
  70
    32
  0
VERTEX
  8
0
  5
1DCC
 10
201.224
 20
362.423
 30
0.000000
  70
    32
  0
VERTEX
  8
0
  5
1DCD
 10
201.221
 20
362.422
 30
0.000000
  70
    32
  0
VERTEX
  8
0
  5
1DCE
 10
201.217
 20
362.420
 30
0.000000
  70
    32
  0
VERTEX
  8
0
  5
1DCF
 10
201.214
 20
362.419
 30
0.000000
  70
    32
  0
VERTEX
  8
0
  5
1DD0
 10
201.211
 20
362.418
 30
0.000000
  70
    32
  0
VERTEX
  8
0
  5
1DD1
 10
201.207
 20
362.416
 30
0.000000
  70
    32
  0
VERTEX
  8
0
  5
1DD2
 10
201.204
 20
362.415
 30
0.000000
  70
    32
  0
VERTEX
  8
0
  5
1DD3
 10
201.201
 20
362.413
 30
0.000000
  70
    32
  0
VERTEX
  8
0
  5
1DD4
 10
201.197
 20
362.412
 30
0.000000
  70
    32
  0
VERTEX
  8
0
  5
1DD5
 10
201.194
 20
362.410
 30
0.000000
  70
    32
  0
VERTEX
  8
0
  5
1DD6
 10
201.190
 20
362.409
 30
0.000000
  70
    32
  0
VERTEX
  8
0
  5
1DD7
 10
201.187
 20
362.407
 30
0.000000
  70
    32
  0
VERTEX
  8
0
  5
1DD8
 10
201.184
 20
362.406
 30
0.000000
  70
    32
  0
VERTEX
  8
0
  5
1DD9
 10
201.180
 20
362.404
 30
0.000000
  70
    32
  0
VERTEX
  8
0
  5
1DDA
 10
201.177
 20
362.403
 30
0.000000
  70
    32
  0
VERTEX
  8
0
  5
1DDB
 10
201.174
 20
362.401
 30
0.000000
  70
    32
  0
VERTEX
  8
0
  5
1DDC
 10
201.170
 20
362.400
 30
0.000000
  70
    32
  0
VERTEX
  8
0
  5
1DDD
 10
201.167
 20
362.398
 30
0.000000
  70
    32
  0
VERTEX
  8
0
  5
1DDE
 10
201.163
 20
362.397
 30
0.000000
  70
    32
  0
VERTEX
  8
0
  5
1DDF
 10
201.160
 20
362.395
 30
0.000000
  70
    32
  0
VERTEX
  8
0
  5
1DE0
 10
201.157
 20
362.393
 30
0.000000
  70
    32
  0
VERTEX
  8
0
  5
1DE1
 10
201.153
 20
362.392
 30
0.000000
  70
    32
  0
VERTEX
  8
0
  5
1DE2
 10
201.150
 20
362.390
 30
0.000000
  70
    32
  0
VERTEX
  8
0
  5
1DE3
 10
201.147
 20
362.388
 30
0.000000
  70
    32
  0
VERTEX
  8
0
  5
1DE4
 10
201.143
 20
362.386
 30
0.000000
  70
    32
  0
VERTEX
  8
0
  5
1DE5
 10
201.140
 20
362.385
 30
0.000000
  70
    32
  0
VERTEX
  8
0
  5
1DE6
 10
201.137
 20
362.383
 30
0.000000
  70
    32
  0
VERTEX
  8
0
  5
1DE7
 10
201.133
 20
362.381
 30
0.000000
  70
    32
  0
VERTEX
  8
0
  5
1DE8
 10
201.130
 20
362.379
 30
0.000000
  70
    32
  0
VERTEX
  8
0
  5
1DE9
 10
201.127
 20
362.378
 30
0.000000
  70
    32
  0
VERTEX
  8
0
  5
1DEA
 10
201.123
 20
362.376
 30
0.000000
  70
    32
  0
VERTEX
  8
0
  5
1DEB
 10
201.120
 20
362.374
 30
0.000000
  70
    32
  0
VERTEX
  8
0
  5
1DEC
 10
201.116
 20
362.372
 30
0.000000
  70
    32
  0
VERTEX
  8
0
  5
1DED
 10
201.113
 20
362.370
 30
0.000000
  70
    32
  0
VERTEX
  8
0
  5
1DEE
 10
201.110
 20
362.368
 30
0.000000
  70
    32
  0
VERTEX
  8
0
  5
1DEF
 10
201.106
 20
362.366
 30
0.000000
  70
    32
  0
VERTEX
  8
0
  5
1DF0
 10
201.103
 20
362.365
 30
0.000000
  70
    32
  0
VERTEX
  8
0
  5
1DF1
 10
201.100
 20
362.363
 30
0.000000
  70
    32
  0
VERTEX
  8
0
  5
1DF2
 10
201.096
 20
362.361
 30
0.000000
  70
    32
  0
VERTEX
  8
0
  5
1DF3
 10
201.093
 20
362.359
 30
0.000000
  70
    32
  0
VERTEX
  8
0
  5
1DF4
 10
201.090
 20
362.357
 30
0.000000
  70
    32
  0
VERTEX
  8
0
  5
1DF5
 10
201.086
 20
362.355
 30
0.000000
  70
    32
  0
VERTEX
  8
0
  5
1DF6
 10
201.083
 20
362.353
 30
0.000000
  70
    32
  0
VERTEX
  8
0
  5
1DF7
 10
201.080
 20
362.351
 30
0.000000
  70
    32
  0
VERTEX
  8
0
  5
1DF8
 10
201.076
 20
362.349
 30
0.000000
  70
    32
  0
VERTEX
  8
0
  5
1DF9
 10
201.073
 20
362.347
 30
0.000000
  70
    32
  0
VERTEX
  8
0
  5
1DFA
 10
201.070
 20
362.345
 30
0.000000
  70
    32
  0
VERTEX
  8
0
  5
1DFB
 10
201.066
 20
362.342
 30
0.000000
  70
    32
  0
VERTEX
  8
0
  5
1DFC
 10
201.063
 20
362.340
 30
0.000000
  70
    32
  0
VERTEX
  8
0
  5
1DFD
 10
201.060
 20
362.338
 30
0.000000
  70
    32
  0
VERTEX
  8
0
  5
1DFE
 10
201.056
 20
362.336
 30
0.000000
  70
    32
  0
VERTEX
  8
0
  5
1DFF
 10
201.053
 20
362.334
 30
0.000000
  70
    32
  0
VERTEX
  8
0
  5
1E00
 10
201.050
 20
362.332
 30
0.000000
  70
    32
  0
VERTEX
  8
0
  5
1E01
 10
201.046
 20
362.330
 30
0.000000
  70
    32
  0
VERTEX
  8
0
  5
1E02
 10
201.043
 20
362.327
 30
0.000000
  70
    32
  0
VERTEX
  8
0
  5
1E03
 10
201.040
 20
362.325
 30
0.000000
  70
    32
  0
VERTEX
  8
0
  5
1E04
 10
201.036
 20
362.323
 30
0.000000
  70
    32
  0
VERTEX
  8
0
  5
1E05
 10
201.033
 20
362.321
 30
0.000000
  70
    32
  0
VERTEX
  8
0
  5
1E06
 10
201.030
 20
362.318
 30
0.000000
  70
    32
  0
VERTEX
  8
0
  5
1E07
 10
201.026
 20
362.316
 30
0.000000
  70
    32
  0
VERTEX
  8
0
  5
1E08
 10
201.023
 20
362.314
 30
0.000000
  70
    32
  0
VERTEX
  8
0
  5
1E09
 10
201.020
 20
362.311
 30
0.000000
  70
    32
  0
VERTEX
  8
0
  5
1E0A
 10
201.017
 20
362.309
 30
0.000000
  70
    32
  0
VERTEX
  8
0
  5
1E0B
 10
201.013
 20
362.307
 30
0.000000
  70
    32
  0
VERTEX
  8
0
  5
1E0C
 10
201.010
 20
362.304
 30
0.000000
  70
    32
  0
VERTEX
  8
0
  5
1E0D
 10
201.007
 20
362.302
 30
0.000000
  70
    32
  0
VERTEX
  8
0
  5
1E0E
 10
201.003
 20
362.300
 30
0.000000
  70
    32
  0
VERTEX
  8
0
  5
1E0F
 10
201.000
 20
362.297
 30
0.000000
  70
    32
  0
SEQEND
  8
0
  5
1E10
  0
CIRCLE
  5
194A
  8
0
 10
172.0
 20
356.5
 30
0.0
 40
14.0
  0
CIRCLE
  5
194B
  8
0
 10
172.0
 20
356.5
 30
0.0
 40
11.425000000000001
  0
LINE
  5
194C
  8
0
 10
184.64911064067351
 20
350.5
 30
0.0
 11
263.58688508849411
 21
350.5
 31
0.0
  0
LINE
  5
194D
  8
0
 10
263.58688508849411
 20
362.5
 30
0.0
 11
184.64911064067351
 21
362.5
 31
0.0
  0
POLYLINE
  5
194E
  8
0
 10
264.12227709331592
 20
363.63394246239358
 30
0.0
 66
     1
 70
     8
  0
VERTEX
  8
0
  5
1E11
 10
264.122
 20
363.634
 30
0.000000
  70
    32
  0
VERTEX
  8
0
  5
1E12
 10
264.082
 20
363.567
 30
0.000000
  70
    32
  0
VERTEX
  8
0
  5
1E13
 10
264.042
 20
363.498
 30
0.000000
  70
    32
  0
VERTEX
  8
0
  5
1E14
 10
264.002
 20
363.427
 30
0.000000
  70
    32
  0
VERTEX
  8
0
  5
1E15
 10
263.963
 20
363.354
 30
0.000000
  70
    32
  0
VERTEX
  8
0
  5
1E16
 10
263.925
 20
363.280
 30
0.000000
  70
    32
  0
VERTEX
  8
0
  5
1E17
 10
263.886
 20
363.203
 30
0.000000
  70
    32
  0
VERTEX
  8
0
  5
1E18
 10
263.849
 20
363.125
 30
0.000000
  70
    32
  0
VERTEX
  8
0
  5
1E19
 10
263.811
 20
363.045
 30
0.000000
  70
    32
  0
VERTEX
  8
0
  5
1E1A
 10
263.774
 20
362.963
 30
0.000000
  70
    32
  0
VERTEX
  8
0
  5
1E1B
 10
263.738
 20
362.879
 30
0.000000
  70
    32
  0
VERTEX
  8
0
  5
1E1C
 10
263.702
 20
362.793
 30
0.000000
  70
    32
  0
VERTEX
  8
0
  5
1E1D
 10
263.666
 20
362.706
 30
0.000000
  70
    32
  0
VERTEX
  8
0
  5
1E1E
 10
263.631
 20
362.617
 30
0.000000
  70
    32
  0
VERTEX
  8
0
  5
1E1F
 10
263.597
 20
362.527
 30
0.000000
  70
    32
  0
VERTEX
  8
0
  5
1E20
 10
263.563
 20
362.434
 30
0.000000
  70
    32
  0
VERTEX
  8
0
  5
1E21
 10
263.529
 20
362.340
 30
0.000000
  70
    32
  0
VERTEX
  8
0
  5
1E22
 10
263.496
 20
362.245
 30
0.000000
  70
    32
  0
VERTEX
  8
0
  5
1E23
 10
263.464
 20
362.148
 30
0.000000
  70
    32
  0
VERTEX
  8
0
  5
1E24
 10
263.432
 20
362.049
 30
0.000000
  70
    32
  0
VERTEX
  8
0
  5
1E25
 10
263.401
 20
361.949
 30
0.000000
  70
    32
  0
VERTEX
  8
0
  5
1E26
 10
263.370
 20
361.847
 30
0.000000
  70
    32
  0
VERTEX
  8
0
  5
1E27
 10
263.340
 20
361.744
 30
0.000000
  70
    32
  0
VERTEX
  8
0
  5
1E28
 10
263.311
 20
361.639
 30
0.000000
  70
    32
  0
VERTEX
  8
0
  5
1E29
 10
263.282
 20
361.533
 30
0.000000
  70
    32
  0
VERTEX
  8
0
  5
1E2A
 10
263.254
 20
361.425
 30
0.000000
  70
    32
  0
VERTEX
  8
0
  5
1E2B
 10
263.226
 20
361.317
 30
0.000000
  70
    32
  0
VERTEX
  8
0
  5
1E2C
 10
263.199
 20
361.206
 30
0.000000
  70
    32
  0
VERTEX
  8
0
  5
1E2D
 10
263.173
 20
361.095
 30
0.000000
  70
    32
  0
VERTEX
  8
0
  5
1E2E
 10
263.147
 20
360.982
 30
0.000000
  70
    32
  0
VERTEX
  8
0
  5
1E2F
 10
263.122
 20
360.868
 30
0.000000
  70
    32
  0
VERTEX
  8
0
  5
1E30
 10
263.097
 20
360.753
 30
0.000000
  70
    32
  0
VERTEX
  8
0
  5
1E31
 10
263.073
 20
360.637
 30
0.000000
  70
    32
  0
VERTEX
  8
0
  5
1E32
 10
263.050
 20
360.519
 30
0.000000
  70
    32
  0
VERTEX
  8
0
  5
1E33
 10
263.028
 20
360.401
 30
0.000000
  70
    32
  0
VERTEX
  8
0
  5
1E34
 10
263.006
 20
360.281
 30
0.000000
  70
    32
  0
VERTEX
  8
0
  5
1E35
 10
262.985
 20
360.161
 30
0.000000
  70
    32
  0
VERTEX
  8
0
  5
1E36
 10
262.964
 20
360.039
 30
0.000000
  70
    32
  0
VERTEX
  8
0
  5
1E37
 10
262.945
 20
359.916
 30
0.000000
  70
    32
  0
VERTEX
  8
0
  5
1E38
 10
262.926
 20
359.793
 30
0.000000
  70
    32
  0
VERTEX
  8
0
  5
1E39
 10
262.907
 20
359.668
 30
0.000000
  70
    32
  0
VERTEX
  8
0
  5
1E3A
 10
262.890
 20
359.543
 30
0.000000
  70
    32
  0
VERTEX
  8
0
  5
1E3B
 10
262.873
 20
359.416
 30
0.000000
  70
    32
  0
VERTEX
  8
0
  5
1E3C
 10
262.857
 20
359.289
 30
0.000000
  70
    32
  0
VERTEX
  8
0
  5
1E3D
 10
262.841
 20
359.162
 30
0.000000
  70
    32
  0
VERTEX
  8
0
  5
1E3E
 10
262.826
 20
359.033
 30
0.000000
  70
    32
  0
VERTEX
  8
0
  5
1E3F
 10
262.812
 20
358.904
 30
0.000000
  70
    32
  0
VERTEX
  8
0
  5
1E40
 10
262.799
 20
358.774
 30
0.000000
  70
    32
  0
VERTEX
  8
0
  5
1E41
 10
262.786
 20
358.643
 30
0.000000
  70
    32
  0
VERTEX
  8
0
  5
1E42
 10
262.775
 20
358.512
 30
0.000000
  70
    32
  0
VERTEX
  8
0
  5
1E43
 10
262.764
 20
358.381
 30
0.000000
  70
    32
  0
VERTEX
  8
0
  5
1E44
 10
262.753
 20
358.248
 30
0.000000
  70
    32
  0
VERTEX
  8
0
  5
1E45
 10
262.744
 20
358.116
 30
0.000000
  70
    32
  0
VERTEX
  8
0
  5
1E46
 10
262.735
 20
357.983
 30
0.000000
  70
    32
  0
VERTEX
  8
0
  5
1E47
 10
262.727
 20
357.849
 30
0.000000
  70
    32
  0
VERTEX
  8
0
  5
1E48
 10
262.720
 20
357.715
 30
0.000000
  70
    32
  0
VERTEX
  8
0
  5
1E49
 10
262.713
 20
357.581
 30
0.000000
  70
    32
  0
VERTEX
  8
0
  5
1E4A
 10
262.707
 20
357.446
 30
0.000000
  70
    32
  0
VERTEX
  8
0
  5
1E4B
 10
262.702
 20
357.312
 30
0.000000
  70
    32
  0
VERTEX
  8
0
  5
1E4C
 10
262.698
 20
357.176
 30
0.000000
  70
    32
  0
VERTEX
  8
0
  5
1E4D
 10
262.695
 20
357.041
 30
0.000000
  70
    32
  0
VERTEX
  8
0
  5
1E4E
 10
262.692
 20
356.906
 30
0.000000
  70
    32
  0
VERTEX
  8
0
  5
1E4F
 10
262.690
 20
356.770
 30
0.000000
  70
    32
  0
VERTEX
  8
0
  5
1E50
 10
262.689
 20
356.635
 30
0.000000
  70
    32
  0
VERTEX
  8
0
  5
1E51
 10
262.689
 20
356.499
 30
0.000000
  70
    32
  0
VERTEX
  8
0
  5
1E52
 10
262.689
 20
356.364
 30
0.000000
  70
    32
  0
VERTEX
  8
0
  5
1E53
 10
262.690
 20
356.228
 30
0.000000
  70
    32
  0
VERTEX
  8
0
  5
1E54
 10
262.692
 20
356.093
 30
0.000000
  70
    32
  0
VERTEX
  8
0
  5
1E55
 10
262.695
 20
355.957
 30
0.000000
  70
    32
  0
VERTEX
  8
0
  5
1E56
 10
262.698
 20
355.822
 30
0.000000
  70
    32
  0
VERTEX
  8
0
  5
1E57
 10
262.702
 20
355.687
 30
0.000000
  70
    32
  0
VERTEX
  8
0
  5
1E58
 10
262.707
 20
355.552
 30
0.000000
  70
    32
  0
VERTEX
  8
0
  5
1E59
 10
262.713
 20
355.418
 30
0.000000
  70
    32
  0
VERTEX
  8
0
  5
1E5A
 10
262.720
 20
355.284
 30
0.000000
  70
    32
  0
VERTEX
  8
0
  5
1E5B
 10
262.727
 20
355.150
 30
0.000000
  70
    32
  0
VERTEX
  8
0
  5
1E5C
 10
262.735
 20
355.016
 30
0.000000
  70
    32
  0
VERTEX
  8
0
  5
1E5D
 10
262.744
 20
354.883
 30
0.000000
  70
    32
  0
VERTEX
  8
0
  5
1E5E
 10
262.753
 20
354.750
 30
0.000000
  70
    32
  0
VERTEX
  8
0
  5
1E5F
 10
262.764
 20
354.618
 30
0.000000
  70
    32
  0
VERTEX
  8
0
  5
1E60
 10
262.775
 20
354.487
 30
0.000000
  70
    32
  0
VERTEX
  8
0
  5
1E61
 10
262.787
 20
354.355
 30
0.000000
  70
    32
  0
VERTEX
  8
0
  5
1E62
 10
262.799
 20
354.225
 30
0.000000
  70
    32
  0
VERTEX
  8
0
  5
1E63
 10
262.812
 20
354.095
 30
0.000000
  70
    32
  0
VERTEX
  8
0
  5
1E64
 10
262.826
 20
353.966
 30
0.000000
  70
    32
  0
VERTEX
  8
0
  5
1E65
 10
262.841
 20
353.837
 30
0.000000
  70
    32
  0
VERTEX
  8
0
  5
1E66
 10
262.857
 20
353.709
 30
0.000000
  70
    32
  0
VERTEX
  8
0
  5
1E67
 10
262.873
 20
353.582
 30
0.000000
  70
    32
  0
VERTEX
  8
0
  5
1E68
 10
262.890
 20
353.456
 30
0.000000
  70
    32
  0
VERTEX
  8
0
  5
1E69
 10
262.907
 20
353.331
 30
0.000000
  70
    32
  0
VERTEX
  8
0
  5
1E6A
 10
262.926
 20
353.206
 30
0.000000
  70
    32
  0
VERTEX
  8
0
  5
1E6B
 10
262.945
 20
353.083
 30
0.000000
  70
    32
  0
VERTEX
  8
0
  5
1E6C
 10
262.965
 20
352.960
 30
0.000000
  70
    32
  0
VERTEX
  8
0
  5
1E6D
 10
262.985
 20
352.838
 30
0.000000
  70
    32
  0
VERTEX
  8
0
  5
1E6E
 10
263.006
 20
352.718
 30
0.000000
  70
    32
  0
VERTEX
  8
0
  5
1E6F
 10
263.028
 20
352.598
 30
0.000000
  70
    32
  0
VERTEX
  8
0
  5
1E70
 10
263.051
 20
352.479
 30
0.000000
  70
    32
  0
VERTEX
  8
0
  5
1E71
 10
263.074
 20
352.362
 30
0.000000
  70
    32
  0
VERTEX
  8
0
  5
1E72
 10
263.098
 20
352.246
 30
0.000000
  70
    32
  0
VERTEX
  8
0
  5
1E73
 10
263.122
 20
352.130
 30
0.000000
  70
    32
  0
VERTEX
  8
0
  5
1E74
 10
263.147
 20
352.017
 30
0.000000
  70
    32
  0
VERTEX
  8
0
  5
1E75
 10
263.173
 20
351.904
 30
0.000000
  70
    32
  0
VERTEX
  8
0
  5
1E76
 10
263.199
 20
351.792
 30
0.000000
  70
    32
  0
VERTEX
  8
0
  5
1E77
 10
263.226
 20
351.682
 30
0.000000
  70
    32
  0
VERTEX
  8
0
  5
1E78
 10
263.254
 20
351.573
 30
0.000000
  70
    32
  0
VERTEX
  8
0
  5
1E79
 10
263.282
 20
351.466
 30
0.000000
  70
    32
  0
VERTEX
  8
0
  5
1E7A
 10
263.311
 20
351.360
 30
0.000000
  70
    32
  0
VERTEX
  8
0
  5
1E7B
 10
263.341
 20
351.255
 30
0.000000
  70
    32
  0
VERTEX
  8
0
  5
1E7C
 10
263.371
 20
351.152
 30
0.000000
  70
    32
  0
VERTEX
  8
0
  5
1E7D
 10
263.401
 20
351.050
 30
0.000000
  70
    32
  0
VERTEX
  8
0
  5
1E7E
 10
263.433
 20
350.950
 30
0.000000
  70
    32
  0
VERTEX
  8
0
  5
1E7F
 10
263.464
 20
350.851
 30
0.000000
  70
    32
  0
VERTEX
  8
0
  5
1E80
 10
263.497
 20
350.754
 30
0.000000
  70
    32
  0
VERTEX
  8
0
  5
1E81
 10
263.530
 20
350.659
 30
0.000000
  70
    32
  0
VERTEX
  8
0
  5
1E82
 10
263.563
 20
350.565
 30
0.000000
  70
    32
  0
VERTEX
  8
0
  5
1E83
 10
263.597
 20
350.473
 30
0.000000
  70
    32
  0
VERTEX
  8
0
  5
1E84
 10
263.632
 20
350.382
 30
0.000000
  70
    32
  0
VERTEX
  8
0
  5
1E85
 10
263.667
 20
350.293
 30
0.000000
  70
    32
  0
VERTEX
  8
0
  5
1E86
 10
263.702
 20
350.206
 30
0.000000
  70
    32
  0
VERTEX
  8
0
  5
1E87
 10
263.738
 20
350.120
 30
0.000000
  70
    32
  0
VERTEX
  8
0
  5
1E88
 10
263.775
 20
350.036
 30
0.000000
  70
    32
  0
VERTEX
  8
0
  5
1E89
 10
263.811
 20
349.954
 30
0.000000
  70
    32
  0
VERTEX
  8
0
  5
1E8A
 10
263.849
 20
349.874
 30
0.000000
  70
    32
  0
VERTEX
  8
0
  5
1E8B
 10
263.887
 20
349.796
 30
0.000000
  70
    32
  0
VERTEX
  8
0
  5
1E8C
 10
263.925
 20
349.719
 30
0.000000
  70
    32
  0
VERTEX
  8
0
  5
1E8D
 10
263.964
 20
349.645
 30
0.000000
  70
    32
  0
VERTEX
  8
0
  5
1E8E
 10
264.003
 20
349.572
 30
0.000000
  70
    32
  0
VERTEX
  8
0
  5
1E8F
 10
264.042
 20
349.501
 30
0.000000
  70
    32
  0
VERTEX
  8
0
  5
1E90
 10
264.082
 20
349.432
 30
0.000000
  70
    32
  0
VERTEX
  8
0
  5
1E91
 10
264.123
 20
349.365
 30
0.000000
  70
    32
  0
SEQEND
  8
0
  5
1E92
  0
POLYLINE
  5
194F
  8
0
 66
     1
 10
0.0
 20
0.0
 30
0.0
  0
VERTEX
  5
1AAB
  8
0
 10
264.1226785116416
 20
349.36540380993392
 30
0.0
  0
VERTEX
  5
1AAC
  8
0
 10
264.25759531769239
 20
349.15027689682881
 30
0.0
  0
VERTEX
  5
1AAD
  8
0
 10
264.55186083120458
 20
348.70684902617381
 30
0.0
  0
VERTEX
  5
1AAE
  8
0
 10
264.86242908006818
 20
348.27241553116937
 30
0.0
  0
VERTEX
  5
1AAF
  8
0
 10
265.18886722903238
 20
347.84775405486499
 30
0.0
  0
VERTEX
  5
1AB0
  8
0
 10
265.53072395303411
 20
347.43359571829768
 30
0.0
  0
VERTEX
  5
1AB1
  8
0
 10
265.8875318540243
 20
347.03062727301329
 30
0.0
  0
VERTEX
  5
1AB2
  8
0
 10
266.25880911264841
 20
346.63949395295327
 30
0.0
  0
VERTEX
  5
1AB3
  8
0
 10
266.64406060721711
 20
346.26080245628759
 30
0.0
  0
VERTEX
  5
1AB4
  8
0
 10
267.04277868094073
 20
345.89512375071268
 30
0.0
  0
VERTEX
  5
1AB5
  8
0
 10
267.45444369005259
 20
345.54299555918391
 30
0.0
  0
VERTEX
  5
1AB6
  8
0
 10
267.92688321406882
 20
345.16787140542101
 30
0.0
  0
VERTEX
  5
1AB7
  8
0
 10
268.41343918908501
 20
344.81114052087719
 30
0.0
  0
VERTEX
  5
1AB8
  8
0
 10
268.91192194644327
 20
344.47425594200081
 30
0.0
  0
VERTEX
  5
1AB9
  8
0
 10
269.4214638798735
 20
344.15753949809931
 30
0.0
  0
VERTEX
  5
1ABA
  8
0
 10
269.94123723129047
 20
343.86125355057948
 30
0.0
  0
VERTEX
  5
1ABB
  8
0
 10
270.47041789372298
 20
343.5856297730798
 30
0.0
  0
VERTEX
  5
1ABC
  8
0
 10
271.00818406082777
 20
343.33087077777492
 30
0.0
  0
VERTEX
  5
1ABD
  8
0
 10
271.55371598927547
 20
343.09715079499779
 30
0.0
  0
VERTEX
  5
1ABE
  8
0
 10
272.1061959726315
 20
342.88461611717798
 30
0.0
  0
VERTEX
  5
1ABF
  8
0
 10
272.66480847518761
 20
342.69338538939178
 30
0.0
  0
VERTEX
  5
1AC0
  8
0
 10
273.22874039849938
 20
342.52354979750669
 30
0.0
  0
VERTEX
  5
1AC1
  8
0
 10
273.7971814577528
 20
342.37517319111481
 30
0.0
  0
VERTEX
  5
1AC2
  8
0
 10
274.36932464861218
 20
342.2482921683976
 30
0.0
  0
VERTEX
  5
1AC3
  8
0
 10
274.94436678821791
 20
342.142916142611
 30
0.0
  0
VERTEX
  5
1AC4
  8
0
 10
275.52150911655139
 20
342.0590274043559
 30
0.0
  0
VERTEX
  5
1AC5
  8
0
 10
276.09995794651451
 20
341.99658118969012
 30
0.0
  0
VERTEX
  5
1AC6
  8
0
 10
276.67892535283198
 20
341.95550576106581
 30
0.0
  0
VERTEX
  5
1AC7
  8
0
 10
277.25762989134182
 20
341.93570250576909
 30
0.0
  0
VERTEX
  5
1AC8
  8
0
 10
277.83529734142297
 20
341.93704605477518
 30
0.0
  0
VERTEX
  5
1AC9
  8
0
 10
278.41116124093298
 20
341.95938441077323
 30
0.0
  0
VERTEX
  5
1ACA
  8
0
 10
278.98446083805089
 20
342.0025388067009
 30
0.0
  0
VERTEX
  5
1ACB
  8
0
 10
279.55444823662123
 20
342.06630416179581
 30
0.0
  0
VERTEX
  5
1ACC
  8
0
 10
280.1203858307498
 20
342.15044933388799
 30
0.0
  0
VERTEX
  5
1ACD
  8
0
 10
280.68154708296009
 20
342.25471733734759
 30
0.0
  0
VERTEX
  5
1ACE
  8
0
 10
281.23721729781943
 20
342.37882557737879
 30
0.0
  0
VERTEX
  5
1ACF
  8
0
 10
281.78669438713291
 20
342.52246609723198
 30
0.0
  0
VERTEX
  5
1AD0
  8
0
 10
282.32928962381249
 20
342.68530583422603
 30
0.0
  0
VERTEX
  5
1AD1
  8
0
 10
282.864328381745
 20
342.86698687969943
 30
0.0
  0
VERTEX
  5
1AD2
  8
0
 10
283.39115085914989
 20
343.0671267371236
 30
0.0
  0
VERTEX
  5
1AD3
  8
0
 10
283.9091127830963
 20
343.28531857159351
 30
0.0
  0
VERTEX
  5
1AD4
  8
0
 10
284.4175860930265
 20
343.52113144272289
 30
0.0
  0
VERTEX
  5
1AD5
  8
0
 10
284.91595960136198
 20
343.77411051159498
 30
0.0
  0
VERTEX
  5
1AD6
  8
0
 10
285.40363962955882
 20
344.04377721081943
 30
0.0
  0
VERTEX
  5
1AD7
  8
0
 10
285.88005061843131
 20
344.32962936494818
 30
0.0
  0
VERTEX
  5
1AD8
  8
0
 10
286.34463571219101
 20
344.63114124650377
 30
0.0
  0
VERTEX
  5
1AD9
  8
0
 10
286.79685731665188
 20
344.94776355078648
 30
0.0
  0
VERTEX
  5
1ADA
  8
0
 10
287.23619763350621
 20
345.2789232706304
 30
0.0
  0
VERTEX
  5
1ADB
  8
0
 10
287.66215917480929
 20
345.62402345075452
 30
0.0
  0
VERTEX
  5
1ADC
  8
0
 10
288.07426526506998
 20
345.98244280094377
 30
0.0
  0
VERTEX
  5
1ADD
  8
0
 10
288.47206054314819
 20
346.35353514918017
 30
0.0
  0
VERTEX
  5
1ADE
  8
0
 10
288.85511148306699
 20
346.73662872190721
 30
0.0
  0
VERTEX
  5
1ADF
  8
0
 10
289.22300696263233
 20
347.13102525202549
 30
0.0
  0
VERTEX
  5
1AE0
  8
0
 10
289.57535892228418
 20
347.53599894095532
 30
0.0
  0
VERTEX
  5
1AE1
  8
0
 10
289.91180317472651
 20
347.95079534696163
 30
0.0
  0
VERTEX
  5
1AE2
  8
0
 10
290.23200044903871
 20
348.37463034957
 30
0.0
  0
VERTEX
  5
1AE3
  8
0
 10
290.53563778040183
 20
348.80668946613201
 30
0.0
  0
VERTEX
  5
1AE4
  8
0
 10
290.82243038467573
 20
349.24612799398159
 30
0.0
  0
VERTEX
  5
1AE5
  8
0
 10
291.09212417646688
 20
349.69207274703069
 30
0.0
  0
VERTEX
  5
1AE6
  8
0
 10
291.3444990797712
 20
350.1436265729493
 30
0.0
  0
VERTEX
  5
1AE7
  8
0
 10
291.57937320233799
 20
350.59987737599562
 30
0.0
  0
VERTEX
  5
1AE8
  8
0
 10
291.79660772800469
 20
351.05991395502377
 30
0.0
  0
VERTEX
  5
1AE9
  8
0
 10
291.99611190802148
 20
351.522851325842
 30
0.0
  0
VERTEX
  5
1AEA
  8
0
 10
292.17784662332161
 20
351.98786760292552
 30
0.0
  0
VERTEX
  5
1AEB
  8
0
 10
292.34182340378362
 20
352.4542511904674
 30
0.0
  0
VERTEX
  5
1AEC
  8
0
 10
292.48809330645298
 20
352.92144686476189
 30
0.0
  0
VERTEX
  5
1AED
  8
0
 10
292.61671691150201
 20
353.38906343848947
 30
0.0
  0
VERTEX
  5
1AEE
  8
0
 10
292.72770549678012
 20
353.85674871181777
 30
0.0
  0
VERTEX
  5
1AEF
  8
0
 10
292.82093582689532
 20
354.3237456775056
 30
0.0
  0
VERTEX
  5
1AF0
  8
0
 10
292.89610059760861
 20
354.7879506412126
 30
0.0
  0
VERTEX
  5
1AF1
  8
0
 10
292.95288683781968
 20
355.24498277066419
 30
0.0
  0
VERTEX
  5
1AF2
  8
0
 10
292.99152879372161
 20
355.68947348513058
 30
0.0
  0
VERTEX
  5
1AF3
  8
0
 10
293.01317386021418
 20
356.1197472010129
 30
0.0
  0
VERTEX
  5
1AF4
  8
0
 10
293.01922203871379
 20
356.54116064054472
 30
0.0
  0
VERTEX
  5
1AF5
  8
0
 10
293.01015423573358
 20
356.96473727413058
 30
0.0
  0
VERTEX
  5
1AF6
  8
0
 10
292.98498415552399
 20
357.40119588550527
 30
0.0
  0
VERTEX
  5
1AF7
  8
0
 10
292.94107205956158
 20
357.86256267104011
 30
0.0
  0
VERTEX
  5
1AF8
  8
0
 10
292.87398800979872
 20
358.36038812361602
 30
0.0
  0
VERTEX
  5
1AF9
  8
0
 10
292.79102495108378
 20
358.83600647171181
 30
0.0
  0
VERTEX
  5
1AFA
  8
0
 10
292.68797700738389
 20
359.3193766809141
 30
0.0
  0
VERTEX
  5
1AFB
  8
0
 10
292.56554818576149
 20
359.80476773005262
 30
0.0
  0
VERTEX
  5
1AFC
  8
0
 10
292.42422448277671
 20
360.28961663044561
 30
0.0
  0
VERTEX
  5
1AFD
  8
0
 10
292.26426130392849
 20
360.772784663143
 30
0.0
  0
VERTEX
  5
1AFE
  8
0
 10
292.08581440407528
 20
361.25351027049851
 30
0.0
  0
VERTEX
  5
1AFF
  8
0
 10
291.88903157256033
 20
361.73103428577889
 30
0.0
  0
VERTEX
  5
1B00
  8
0
 10
291.67409654531468
 20
362.20451889032802
 30
0.0
  0
VERTEX
  5
1B01
  8
0
 10
291.44124362658152
 20
362.6730637763697
 30
0.0
  0
VERTEX
  5
1B02
  8
0
 10
291.19075762357409
 20
363.13574298307628
 30
0.0
  0
VERTEX
  5
1B03
  8
0
 10
290.92296779111859
 20
363.59163705304542
 30
0.0
  0
VERTEX
  5
1B04
  8
0
 10
290.6382403293843
 20
364.03985477221818
 30
0.0
  0
VERTEX
  5
1B05
  8
0
 10
290.33697149392862
 20
364.47954545402342
 30
0.0
  0
VERTEX
  5
1B06
  8
0
 10
290.01958203420241
 20
364.90990438931482
 30
0.0
  0
VERTEX
  5
1B07
  8
0
 10
289.68651302534391
 20
365.33017395689598
 30
0.0
  0
VERTEX
  5
1B08
  8
0
 10
289.33822289132883
 20
365.73964227635798
 30
0.0
  0
VERTEX
  5
1B09
  8
0
 10
288.97518534590102
 20
366.13764066568228
 30
0.0
  0
VERTEX
  5
1B0A
  8
0
 10
288.59788799353009
 20
366.52354068228891
 30
0.0
  0
VERTEX
  5
1B0B
  8
0
 10
288.20683137957752
 20
366.89675119039492
 30
0.0
  0
VERTEX
  5
1B0C
  8
0
 10
287.80252833019091
 20
367.25671568130161
 30
0.0
  0
VERTEX
  5
1B0D
  8
0
 10
287.38550346734911
 20
367.60290994211567
 30
0.0
  0
VERTEX
  5
1B0E
  8
0
 10
286.90806375782739
 20
367.97067994619641
 30
0.0
  0
VERTEX
  5
1B0F
  8
0
 10
286.4168676739846
 20
368.31986063056422
 30
0.0
  0
VERTEX
  5
1B10
  8
0
 10
285.91406450335188
 20
368.64907672057399
 30
0.0
  0
VERTEX
  5
1B11
  8
0
 10
285.40051831385762
 20
368.95802104959461
 30
0.0
  0
VERTEX
  5
1B12
  8
0
 10
284.87705567541769
 20
369.2464429392918
 30
0.0
  0
VERTEX
  5
1B13
  8
0
 10
284.34449978328468
 20
369.51412190590571
 30
0.0
  0
VERTEX
  5
1B14
  8
0
 10
283.8036716417331
 20
369.760866239471
 30
0.0
  0
VERTEX
  5
1B15
  8
0
 10
283.25539022259068
 20
369.98651242041427
 30
0.0
  0
VERTEX
  5
1B16
  8
0
 10
282.70047242696171
 20
370.19092474115132
 30
0.0
  0
VERTEX
  5
1B17
  8
0
 10
282.13973289778107
 20
370.37399505980142
 30
0.0
  0
VERTEX
  5
1B18
  8
0
 10
281.57398370884488
 20
370.53564264072031
 30
0.0
  0
VERTEX
  5
1B19
  8
0
 10
281.0040339517833
 20
370.67581404885249
 30
0.0
  0
VERTEX
  5
1B1A
  8
0
 10
280.43068923911858
 20
370.79448307387128
 30
0.0
  0
VERTEX
  5
1B1B
  8
0
 10
279.85475113871661
 20
370.89165066672501
 30
0.0
  0
VERTEX
  5
1B1C
  8
0
 10
279.27701655254748
 20
370.967344876136
 30
0.0
  0
VERTEX
  5
1B1D
  8
0
 10
278.69827705069861
 20
371.02162077627651
 30
0.0
  0
VERTEX
  5
1B1E
  8
0
 10
278.11931816994411
 20
371.05456037959277
 30
0.0
  0
VERTEX
  5
1B1F
  8
0
 10
277.54091868482112
 20
371.06627253083332
 30
0.0
  0
VERTEX
  5
1B20
  8
0
 10
276.96384985806429
 20
371.0568927799244
 30
0.0
  0
VERTEX
  5
1B21
  8
0
 10
276.38887624000381
 20
371.02658334355851
 30
0.0
  0
VERTEX
  5
1B22
  8
0
 10
275.8167536718791
 20
370.97553308790498
 30
0.0
  0
VERTEX
  5
1B23
  8
0
 10
275.24822621175258
 20
370.90395706973652
 30
0.0
  0
VERTEX
  5
1B24
  8
0
 10
274.68402733078921
 20
370.81209632615207
 30
0.0
  0
VERTEX
  5
1B25
  8
0
 10
274.12487913552673
 20
370.7002176500028
 30
0.0
  0
VERTEX
  5
1B26
  8
0
 10
273.57149159711417
 20
370.56861335022569
 30
0.0
  0
VERTEX
  5
1B27
  8
0
 10
273.02456179011432
 20
370.41760100074248
 30
0.0
  0
VERTEX
  5
1B28
  8
0
 10
272.48477314367409
 20
370.24752318231612
 30
0.0
  0
VERTEX
  5
1B29
  8
0
 10
271.95279470767412
 20
370.05874722256789
 30
0.0
  0
VERTEX
  5
1B2A
  8
0
 10
271.42928043630019
 20
369.85166494029647
 30
0.0
  0
VERTEX
  5
1B2B
  8
0
 10
270.91486849129871
 20
369.6266924013118
 30
0.0
  0
VERTEX
  5
1B2C
  8
0
 10
270.4101805669913
 20
369.38426969426177
 30
0.0
  0
VERTEX
  5
1B2D
  8
0
 10
269.91582123887213
 20
369.12486073638422
 30
0.0
  0
VERTEX
  5
1B2E
  8
0
 10
269.43237733726528
 20
368.84895312079431
 30
0.0
  0
VERTEX
  5
1B2F
  8
0
 10
268.9604173470201
 20
368.5570580188035
 30
0.0
  0
VERTEX
  5
1B30
  8
0
 10
268.50049083345561
 20
368.24971015280403
 30
0.0
  0
VERTEX
  5
1B31
  8
0
 10
268.05312789361949
 20
367.9274678573459
 30
0.0
  0
VERTEX
  5
1B32
  8
0
 10
267.61883863020682
 20
367.59091324789762
 30
0.0
  0
VERTEX
  5
1B33
  8
0
 10
267.19811264290411
 20
367.2406525179872
 30
0.0
  0
VERTEX
  5
1B34
  8
0
 10
266.7914185281345
 20
366.877316385119
 30
0.0
  0
VERTEX
  5
1B35
  8
0
 10
266.39920337265141
 20
366.5015607026632
 30
0.0
  0
VERTEX
  5
1B36
  8
0
 10
266.02189221852592
 20
366.11406724650487
 30
0.0
  0
VERTEX
  5
1B37
  8
0
 10
265.65988746595542
 20
365.71554466782879
 30
0.0
  0
VERTEX
  5
1B38
  8
0
 10
265.31356816513198
 20
365.30672957110562
 30
0.0
  0
VERTEX
  5
1B39
  8
0
 10
264.98328912837292
 20
364.88838761997829
 30
0.0
  0
VERTEX
  5
1B3A
  8
0
 10
264.66937976872669
 20
364.46131447985351
 30
0.0
  0
VERTEX
  5
1B3B
  8
0
 10
264.37214254293713
 20
364.02633625557638
 30
0.0
  0
VERTEX
  5
1B3C
  8
0
 10
264.12227709331592
 20
363.63394246239358
 30
0.0
  0
SEQEND
  5
1B3D
  8
0
  0
LINE
  5
1950
  8
1
 10
153.0
 20
356.5
 30
0.0
 11
298.01914622828019
 21
356.5
 31
0.0
  0
LINE
  5
1951
  8
1
 10
172.0
 20
337.5
 30
0.0
 11
172.0
 21
375.5
 31
0.0
  0
LINE
  5
195A
  8
0
 10
376.51929377685479
 20
198.0
 30
0.0
 11
357.51929377685462
 21
198.0
 31
0.0
  0
LINE
  5
195B
  8
0
 10
357.51929377685462
 20
203.5
 30
0.0
 11
357.51929377685462
 21
198.0
 31
0.0
  0
LINE
  5
195C
  8
0
 10
376.51929377685479
 20
198.0
 30
0.0
 11
376.51929377685479
 21
203.5
 31
0.0
  0
LINE
  5
195D
  8
0
 10
361.01929377685462
 20
249.5
 30
0.0
 11
355.59429377685473
 21
249.5
 31
0.0
  0
LINE
  5
195E
  8
0
 10
378.44429377685452
 20
249.5
 30
0.0
 11
373.01929377685468
 21
249.5
 31
0.0
  0
LINE
  5
195F
  8
0
 10
355.59429377685473
 20
249.5
 30
0.0
 11
353.01929377685462
 21
246.92500000000001
 31
0.0
  0
LINE
  5
1960
  8
0
 10
381.01929377685468
 20
246.92500000000001
 30
0.0
 11
378.44429377685452
 21
249.5
 31
0.0
  0
LINE
  5
1961
  8
0
 10
380.46929377685461
 20
203.5
 30
0.0
 11
353.56929377685458
 21
203.5
 31
0.0
  0
LINE
  5
1962
  8
0
 10
380.46929377685461
 20
203.5
 30
0.0
 11
381.01929377685468
 21
204.05000000000001
 31
0.0
  0
LINE
  5
1963
  8
0
 10
353.01929377685462
 20
204.05000000000001
 30
0.0
 11
353.56929377685458
 21
203.5
 31
0.0
  0
LINE
  5
1964
  8
0
 10
381.01929377685468
 20
204.05000000000001
 30
0.0
 11
353.01929377685462
 21
204.05000000000001
 31
0.0
  0
LINE
  5
1965
  8
0
 10
361.01929377685462
 20
246.92500000000001
 30
0.0
 11
353.01929377685462
 21
246.92500000000001
 31
0.0
  0
LINE
  5
1966
  8
0
 10
381.01929377685468
 20
246.92500000000001
 30
0.0
 11
373.01929377685468
 21
246.92500000000001
 31
0.0
  0
LINE
  5
1967
  8
0
 10
353.01929377685462
 20
246.92500000000001
 30
0.0
 11
353.01929377685462
 21
204.05000000000001
 31
0.0
  0
LINE
  5
1968
  8
0
 10
381.01929377685468
 20
204.05000000000001
 30
0.0
 11
381.01929377685468
 21
246.92500000000001
 31
0.0
  0
ARC
  5
1969
  8
0
 10
367.01929377685462
 20
240.0
 30
0.0
 40
5.9999999999999991
 50
178.2720589275927
 51
1.7279410724068951
  0
ARC
  5
196A
  8
0
 10
367.0192937768544
 20
240.36184427528451
 30
0.0
 40
5.999999999999674
 50
180.0
 51
181.727941072335
  0
ARC
  5
196B
  8
0
 10
367.01929377685423
 20
240.3618442752846
 30
0.0
 40
6.0000000000004681
 50
358.27205892764698
 51
359.99999999999841
  0
LINE
  5
196C
  8
0
 10
373.01929377685468
 20
240.36184427528451
 30
0.0
 11
373.01929377685468
 21
254.49622004562801
 31
0.0
  0
LINE
  5
196D
  8
0
 10
361.01929377685462
 20
254.4984378316303
 30
0.0
 11
361.01929377685462
 21
240.36184427528451
 31
0.0
  0
POLYLINE
  5
196E
  8
0
 66
     1
 10
0.0
 20
0.0
 30
0.0
  0
VERTEX
  5
1B3E
  8
0
 10
367.01929377685462
 20
282.5
 30
0.0
  0
VERTEX
  5
1B3F
  8
0
 10
366.49685056373448
 20
282.49056829077603
 30
0.0
  0
VERTEX
  5
1B40
  8
0
 10
365.94589552510149
 20
282.46014485299378
 30
0.0
  0
VERTEX
  5
1B41
  8
0
 10
365.3962384816511
 20
282.40871660918708
 30
0.0
  0
VERTEX
  5
1B42
  8
0
 10
364.84867160321079
 20
282.33632998907069
 30
0.0
  0
VERTEX
  5
1B43
  8
0
 10
364.30398247560208
 20
282.24306123123182
 30
0.0
  0
VERTEX
  5
1B44
  8
0
 10
363.76295821295469
 20
282.12901691183691
 30
0.0
  0
VERTEX
  5
1B45
  8
0
 10
363.22638429657411
 20
281.99433424183042
 30
0.0
  0
VERTEX
  5
1B46
  8
0
 10
362.69504334560389
 20
281.83918130946819
 30
0.0
  0
VERTEX
  5
1B47
  8
0
 10
362.16971382503419
 20
281.6637572580039
 30
0.0
  0
VERTEX
  5
1B48
  8
0
 10
361.6511686966702
 20
281.46829238883657
 30
0.0
  0
VERTEX
  5
1B49
  8
0
 10
361.14017402053912
 20
281.25304818142882
 30
0.0
  0
VERTEX
  5
1B4A
  8
0
 10
360.63748751583552
 20
281.01831722261443
 30
0.0
  0
VERTEX
  5
1B4B
  8
0
 10
360.14385709183091
 20
280.7644230394838
 30
0.0
  0
VERTEX
  5
1B4C
  8
0
 10
359.66001936009582
 20
280.49171983174898
 30
0.0
  0
VERTEX
  5
1B4D
  8
0
 10
359.18669813995268
 20
280.20059210131592
 30
0.0
  0
VERTEX
  5
1B4E
  8
0
 10
358.72460296924322
 20
279.89145417858759
 30
0.0
  0
VERTEX
  5
1B4F
  8
0
 10
358.27442763228657
 20
279.56474964676642
 30
0.0
  0
VERTEX
  5
1B50
  8
0
 10
357.83684871639628
 20
279.22095066701092
 30
0.0
  0
VERTEX
  5
1B51
  8
0
 10
357.412524207513
 20
278.8605572087169
 30
0.0
  0
VERTEX
  5
1B52
  8
0
 10
357.00209213450768
 20
278.48409619035812
 30
0.0
  0
VERTEX
  5
1B53
  8
0
 10
356.60616927055582
 20
278.09212053728407
 30
0.0
  0
VERTEX
  5
1B54
  8
0
 10
356.22534989872668
 20
277.68520816354459
 30
0.0
  0
VERTEX
  5
1B55
  8
0
 10
355.86020464767267
 20
277.26396088528668
 30
0.0
  0
VERTEX
  5
1B56
  8
0
 10
355.51127940203708
 20
276.82900327350399
 30
0.0
  0
VERTEX
  5
1B57
  8
0
 10
355.17909429100138
 20
276.38098145396611
 30
0.0
  0
VERTEX
  5
1B58
  8
0
 10
354.86414275728418
 20
275.92056186204269
 30
0.0
  0
VERTEX
  5
1B59
  8
0
 10
354.56689070790469
 20
275.44842995989399
 30
0.0
  0
VERTEX
  5
1B5A
  8
0
 10
354.28777574713229
 20
274.96528892313989
 30
0.0
  0
VERTEX
  5
1B5B
  8
0
 10
354.02720649129441
 20
274.47185830370779
 30
0.0
  0
VERTEX
  5
1B5C
  8
0
 10
353.78556196447983
 20
273.9688726750818
 30
0.0
  0
VERTEX
  5
1B5D
  8
0
 10
353.56319107365391
 20
273.45708026568332
 30
0.0
  0
VERTEX
  5
1B5E
  8
0
 10
353.3604121613028
 20
272.93724158560991
 30
0.0
  0
VERTEX
  5
1B5F
  8
0
 10
353.17751263341199
 20
272.41012805146272
 30
0.0
  0
VERTEX
  5
1B60
  8
0
 10
353.01474866035647
 20
271.8765206135173
 30
0.0
  0
VERTEX
  5
1B61
  8
0
 10
352.8723449481414
 20
271.33720838904839
 30
0.0
  0
VERTEX
  5
1B62
  8
0
 10
352.75049457733343
 20
270.79298730519957
 30
0.0
  0
VERTEX
  5
1B63
  8
0
 10
352.64935890698968
 20
270.24465875441177
 30
0.0
  0
VERTEX
  5
1B64
  8
0
 10
352.56906754089061
 20
269.6930282650855
 30
0.0
  0
VERTEX
  5
1B65
  8
0
 10
352.5097183534109
 20
269.13890418984579
 30
0.0
  0
VERTEX
  5
1B66
  8
0
 10
352.47137757241319
 20
268.58309641351531
 30
0.0
  0
VERTEX
  5
1B67
  8
0
 10
352.45407991661813
 20
268.02641508266549
 30
0.0
  0
VERTEX
  5
1B68
  8
0
 10
352.45782878496732
 20
267.46966935841812
 30
0.0
  0
VERTEX
  5
1B69
  8
0
 10
352.48259644813072
 20
266.91366694129988
 30
0.0
  0
VERTEX
  5
1B6A
  8
0
 10
352.52832399711281
 20
266.3592148008575
 30
0.0
  0
VERTEX
  5
1B6B
  8
0
 10
352.5949220242174
 20
265.80711182813769
 30
0.0
  0
VERTEX
  5
1B6C
  8
0
 10
352.68227104339019
 20
265.25815115427349
 30
0.0
  0
VERTEX
  5
1B6D
  8
0
 10
352.79022190895711
 20
264.7131190409101
 30
0.0
  0
VERTEX
  5
1B6E
  8
0
 10
352.91859627280388
 20
264.1727938008766
 30
0.0
  0
VERTEX
  5
1B6F
  8
0
 10
353.06718707787729
 20
263.63794475039759
 30
0.0
  0
VERTEX
  5
1B70
  8
0
 10
353.23575908592522
 20
263.10933119365808
 30
0.0
  0
VERTEX
  5
1B71
  8
0
 10
353.42404943737091
 20
262.58770144047662
 30
0.0
  0
VERTEX
  5
1B72
  8
0
 10
353.63176824120688
 20
262.07379185777188
 30
0.0
  0
VERTEX
  5
1B73
  8
0
 10
353.85859919275561
 20
261.56832595544068
 30
0.0
  0
VERTEX
  5
1B74
  8
0
 10
354.10420021710149
 20
261.07201350718168
 30
0.0
  0
VERTEX
  5
1B75
  8
0
 10
354.3682041359454
 20
260.58554970670951
 30
0.0
  0
VERTEX
  5
1B76
  8
0
 10
354.65021935557058
 20
260.10961435969881
 30
0.0
  0
VERTEX
  5
1B77
  8
0
 10
354.94983057354273
 20
259.64487111167739
 30
0.0
  0
VERTEX
  5
1B78
  8
0
 10
355.26659950169881
 20
259.191966711943
 30
0.0
  0
VERTEX
  5
1B79
  8
0
 10
355.60006560291129
 20
258.75153031342631
 30
0.0
  0
VERTEX
  5
1B7A
  8
0
 10
355.94974683905878
 20
258.32417280822722
 30
0.0
  0
VERTEX
  5
1B7B
  8
0
 10
356.3151404275747
 20
257.91048619836232
 30
0.0
  0
VERTEX
  5
1B7C
  8
0
 10
356.69572360392527
 20
257.51104300101258
 30
0.0
  0
VERTEX
  5
1B7D
  8
0
 10
357.09095438734369
 20
257.12639568732749
 30
0.0
  0
VERTEX
  5
1B7E
  8
0
 10
357.50027234717771
 20
256.75707615354531
 30
0.0
  0
VERTEX
  5
1B7F
  8
0
 10
357.92309936725081
 20
256.40359522290822
 30
0.0
  0
VERTEX
  5
1B80
  8
0
 10
358.3588404057565
 20
256.06644217652678
 30
0.0
  0
VERTEX
  5
1B81
  8
0
 10
358.80688424833733
 20
255.7460843110226
 30
0.0
  0
VERTEX
  5
1B82
  8
0
 10
359.26660425224497
 20
255.44296652044099
 30
0.0
  0
VERTEX
  5
1B83
  8
0
 10
359.73735907975822
 20
255.1575108995975
 30
0.0
  0
VERTEX
  5
1B84
  8
0
 10
360.21849341941942
 20
254.89011636569529
 30
0.0
  0
VERTEX
  5
1B85
  8
0
 10
360.70933869413091
 20
254.64115829476569
 30
0.0
  0
VERTEX
  5
1B86
  8
0
 10
361.2092137557039
 20
254.41098816924111
 30
0.0
  0
VERTEX
  5
1B87
  8
0
 10
361.7174255661572
 20
254.1999332327849
 30
0.0
  0
VERTEX
  5
1B88
  8
0
 10
362.2332698668036
 20
254.0082961484288
 30
0.0
  0
VERTEX
  5
1B89
  8
0
 10
362.75603183704891
 20
253.83635465609251
 30
0.0
  0
VERTEX
  5
1B8A
  8
0
 10
363.28498674575201
 20
253.68436122574099
 30
0.0
  0
VERTEX
  5
1B8B
  8
0
 10
363.8194005989875
 20
253.55254270277979
 30
0.0
  0
VERTEX
  5
1B8C
  8
0
 10
364.35853078903381
 20
253.441099942824
 30
0.0
  0
VERTEX
  5
1B8D
  8
0
 10
364.9016267503772
 20
253.35020743371709
 30
0.0
  0
VERTEX
  5
1B8E
  8
0
 10
365.44793062937322
 20
253.2800129036238
 30
0.0
  0
VERTEX
  5
1B8F
  8
0
 10
365.99667797493282
 20
253.23063691517009
 30
0.0
  0
VERTEX
  5
1B90
  8
0
 10
366.54709845807213
 20
253.2021724469235
 30
0.0
  0
VERTEX
  5
1B91
  8
0
 10
367.09841662840279
 20
253.1946844649722
 30
0.0
  0
VERTEX
  5
1B92
  8
0
 10
367.64985271551728
 20
253.20820948889099
 30
0.0
  0
VERTEX
  5
1B93
  8
0
 10
368.2006193521114
 20
253.2427548197015
 30
0.0
  0
VERTEX
  5
1B94
  8
0
 10
368.74992853951932
 20
253.29829804664391
 30
0.0
  0
VERTEX
  5
1B95
  8
0
 10
369.2969931132202
 20
253.3747870735798
 30
0.0
  0
VERTEX
  5
1B96
  8
0
 10
369.84102549300951
 20
253.47213973782061
 30
0.0
  0
VERTEX
  5
1B97
  8
0
 10
370.38123879118712
 20
253.59024347689581
 30
0.0
  0
VERTEX
  5
1B98
  8
0
 10
370.91684798884131
 20
253.72895504136289
 30
0.0
  0
VERTEX
  5
1B99
  8
0
 10
371.4470711778186
 20
253.88810026419191
 30
0.0
  0
VERTEX
  5
1B9A
  8
0
 10
371.97113086440692
 20
254.06747389696031
 30
0.0
  0
VERTEX
  5
1B9B
  8
0
 10
372.48825532873161
 20
254.26683952238
 30
0.0
  0
VERTEX
  5
1B9C
  8
0
 10
372.9976800320506
 20
254.4859295516157
 30
0.0
  0
VERTEX
  5
1B9D
  8
0
 10
373.49864906255021
 20
254.72444531348
 30
0.0
  0
VERTEX
  5
1B9E
  8
0
 10
373.99041660902458
 20
254.98205724099779
 30
0.0
  0
VERTEX
  5
1B9F
  8
0
 10
374.4722484509266
 20
255.2584051590768
 30
0.0
  0
VERTEX
  5
1BA0
  8
0
 10
374.94342345282712
 20
255.5530986752093
 30
0.0
  0
VERTEX
  5
1BA1
  8
0
 10
375.40323505119932
 20
255.86571767332509
 30
0.0
  0
VERTEX
  5
1BA2
  8
0
 10
375.85099272173278
 20
256.19581290920621
 30
0.0
  0
VERTEX
  5
1BA3
  8
0
 10
376.28602341595018
 20
256.54290670431351
 30
0.0
  0
VERTEX
  5
1BA4
  8
0
 10
376.7076729567471
 20
256.90649373351062
 30
0.0
  0
VERTEX
  5
1BA5
  8
0
 10
377.11530738351797
 20
257.28604190103613
 30
0.0
  0
VERTEX
  5
1BA6
  8
0
 10
377.50831423871477
 20
257.68099329818398
 30
0.0
  0
VERTEX
  5
1BA7
  8
0
 10
377.88610378893009
 20
258.09076523550209
 30
0.0
  0
VERTEX
  5
1BA8
  8
0
 10
378.24811017488082
 20
258.5147513419081
 30
0.0
  0
VERTEX
  5
1BA9
  8
0
 10
378.59379248590812
 20
258.95232272291503
 30
0.0
  0
VERTEX
  5
1BAA
  8
0
 10
378.92263575580319
 20
259.40282917014952
 30
0.0
  0
VERTEX
  5
1BAB
  8
0
 10
379.23415187784258
 20
259.86560041448791
 30
0.0
  0
VERTEX
  5
1BAC
  8
0
 10
379.52788043791679
 20
260.33994741539959
 30
0.0
  0
VERTEX
  5
1BAD
  8
0
 10
379.80338946547818
 20
260.82516367946528
 30
0.0
  0
VERTEX
  5
1BAE
  8
0
 10
380.06027610277488
 20
261.32052660145348
 30
0.0
  0
VERTEX
  5
1BAF
  8
0
 10
380.29816719343938
 20
261.8252988218369
 30
0.0
  0
VERTEX
  5
1BB0
  8
0
 10
380.51671979201137
 20
262.33872959510859
 30
0.0
  0
VERTEX
  5
1BB1
  8
0
 10
380.7156215963364
 20
262.86005616377798
 30
0.0
  0
VERTEX
  5
1BB2
  8
0
 10
380.89459130509073
 20
263.3885051334031
 30
0.0
  0
VERTEX
  5
1BB3
  8
0
 10
381.05337890288951
 20
263.92329384450011
 30
0.0
  0
VERTEX
  5
1BB4
  8
0
 10
381.1917658755583
 20
264.4636317376017
 30
0.0
  0
VERTEX
  5
1BB5
  8
0
 10
381.3095653582418
 20
265.00872170815012
 30
0.0
  0
VERTEX
  5
1BB6
  8
0
 10
381.4066222190441
 20
265.55776144828269
 30
0.0
  0
VERTEX
  5
1BB7
  8
0
 10
381.48281308088832
 20
266.10994477289438
 30
0.0
  0
VERTEX
  5
1BB8
  8
0
 10
381.53804628426309
 20
266.6644629276658
 30
0.0
  0
VERTEX
  5
1BB9
  8
0
 10
381.57226179344121
 20
267.22050587699988
 30
0.0
  0
VERTEX
  5
1BBA
  8
0
 10
381.58543104872069
 20
267.7772635700353
 30
0.0
  0
VERTEX
  5
1BBB
  8
0
 10
381.57755676715118
 20
268.33392718310552
 30
0.0
  0
VERTEX
  5
1BBC
  8
0
 10
381.5486728053952
 20
268.88968876848861
 30
0.0
  0
VERTEX
  5
1BBD
  8
0
 10
381.49884410304821
 20
269.44374299677452
 30
0.0
  0
VERTEX
  5
1BBE
  8
0
 10
381.42816599794378
 20
269.99529201775061
 30
0.0
  0
VERTEX
  5
1BBF
  8
0
 10
381.33676382727981
 20
270.54354396099149
 30
0.0
  0
VERTEX
  5
1BC0
  8
0
 10
381.224792501173
 20
271.08771403968461
 30
0.0
  0
VERTEX
  5
1BC1
  8
0
 10
381.09243603819368
 20
271.62702562384032
 30
0.0
  0
VERTEX
  5
1BC2
  8
0
 10
380.93990706498113
 20
272.16071128179652
 30
0.0
  0
VERTEX
  5
1BC3
  8
0
 10
380.76744628203818
 20
272.68801378921978
 30
0.0
  0
VERTEX
  5
1BC4
  8
0
 10
380.57532189780022
 20
273.20818710485543
 30
0.0
  0
VERTEX
  5
1BC5
  8
0
 10
380.36382903310511
 20
273.72049731235808
 30
0.0
  0
VERTEX
  5
1BC6
  8
0
 10
380.13328909822349
 20
274.22422352760009
 30
0.0
  0
VERTEX
  5
1BC7
  8
0
 10
379.88404914465542
 20
274.71865877093842
 30
0.0
  0
VERTEX
  5
1BC8
  8
0
 10
379.61648119394749
 20
275.20311080401751
 30
0.0
  0
VERTEX
  5
1BC9
  8
0
 10
379.33098154586742
 20
275.6769029307859
 30
0.0
  0
VERTEX
  5
1BCA
  8
0
 10
379.0279700683123
 20
276.13937476254119
 30
0.0
  0
VERTEX
  5
1BCB
  8
0
 10
378.70788947141818
 20
276.58988294695121
 30
0.0
  0
VERTEX
  5
1BCC
  8
0
 10
378.3712045683933
 20
277.02780186116672
 30
0.0
  0
VERTEX
  5
1BCD
  8
0
 10
378.01840152565819
 20
277.45252426933592
 30
0.0
  0
VERTEX
  5
1BCE
  8
0
 10
377.64998710492318
 20
277.86346194502869
 30
0.0
  0
VERTEX
  5
1BCF
  8
0
 10
377.2664878998612
 20
278.26004625932268
 30
0.0
  0
VERTEX
  5
1BD0
  8
0
 10
376.86844957004729
 20
278.64172873555651
 30
0.0
  0
VERTEX
  5
1BD1
  8
0
 10
376.45643607479821
 20
279.00798157203832
 30
0.0
  0
VERTEX
  5
1BD2
  8
0
 10
376.03102890949191
 20
279.35829813430018
 30
0.0
  0
VERTEX
  5
1BD3
  8
0
 10
375.59282634683808
 20
279.69219341879688
 30
0.0
  0
VERTEX
  5
1BD4
  8
0
 10
375.14244268538408
 20
280.00920449029809
 30
0.0
  0
VERTEX
  5
1BD5
  8
0
 10
374.68050750733067
 20
280.30889089553568
 30
0.0
  0
VERTEX
  5
1BD6
  8
0
 10
374.20766494740519
 20
280.59083505601728
 30
0.0
  0
VERTEX
  5
1BD7
  8
0
 10
373.72457297413888
 20
280.85464264321951
 30
0.0
  0
VERTEX
  5
1BD8
  8
0
 10
373.23190268442107
 20
281.0999429396677
 30
0.0
  0
VERTEX
  5
1BD9
  8
0
 10
372.7303376115878
 20
281.32638918962948
 30
0.0
  0
VERTEX
  5
1BDA
  8
0
 10
372.22057304663298
 20
281.53365894332472
 30
0.0
  0
VERTEX
  5
1BDB
  8
0
 10
371.70331537131551
 20
281.72145439860259
 30
0.0
  0
VERTEX
  5
1BDC
  8
0
 10
371.17928140107551
 20
281.8895027439915
 30
0.0
  0
VERTEX
  5
1BDD
  8
0
 10
370.64919773471371
 20
282.0375565068087
 30
0.0
  0
VERTEX
  5
1BDE
  8
0
 10
370.11380010680023
 20
282.16539390964499
 30
0.0
  0
VERTEX
  5
1BDF
  8
0
 10
369.57383273779487
 20
282.27281923795499
 30
0.0
  0
VERTEX
  5
1BE0
  8
0
 10
369.03004767591392
 20
282.35966322071062
 30
0.0
  0
VERTEX
  5
1BE1
  8
0
 10
368.48320412394349
 20
282.42578342508091
 30
0.0
  0
VERTEX
  5
1BE2
  8
0
 10
367.93406774352383
 20
282.47106466492261
 30
0.0
  0
VERTEX
  5
1BE3
  8
0
 10
367.38340992899077
 20
282.49541942150518
 30
0.0
  0
VERTEX
  5
1BE4
  8
0
 10
367.01929377685462
 20
282.5
 30
0.0
  0
SEQEND
  5
1BE5
  8
0
  0
LINE
  5
1972
  8
1
 10
367.01929377685462
 20
287.50039562488189
 30
0.0
 11
367.01929377685462
 21
153.0
 31
0.0
  0
LINE
  5
1973
  8
1
 10
356.01929377685462
 20
240.0
 30
0.0
 11
378.01929377685468
 21
240.0
 31
0.0
  0
CIRCLE
  5
1974
  8
0
 10
172.0
 20
84.0
 30
0.0
 40
9.5
  0
CIRCLE
  5
1975
  8
0
 10
172.0
 20
84.0
 30
0.0
 40
13.449999999999999
  0
CIRCLE
  5
1976
  8
3
 10
172.0
 20
84.0
 30
0.0
 40
5.052999999999999
  0
ARC
  5
1977
  8
0
 10
201.0000000000002
 20
83.999999999995495
 30
0.0
 40
5.9999999999955191
 50
270.0
 51
275.38350107174438
  0
ARC
  5
1978
  8
0
 10
200.9999999902123
 20
83.999999791848012
 30
0.0
 40
6.0000002081520032
 50
84.61650360332834
 51
89.999999906533844
  0
POLYLINE
  5
1979
  8
0
 10
201.56292976067303
 20
78.026465863113458
 30
0.0
 66
     1
 70
     8
  0
VERTEX
  8
0
  5
1E93
 10
201.563
 20
78.0265
 30
0.000000
  70
    32
  0
VERTEX
  8
0
  5
1E94
 10
201.612
 20
78.0328
 30
0.000000
  70
    32
  0
VERTEX
  8
0
  5
1E95
 10
201.661
 20
78.0426
 30
0.000000
  70
    32
  0
VERTEX
  8
0
  5
1E96
 10
201.710
 20
78.0559
 30
0.000000
  70
    32
  0
VERTEX
  8
0
  5
1E97
 10
201.759
 20
78.0725
 30
0.000000
  70
    32
  0
VERTEX
  8
0
  5
1E98
 10
201.807
 20
78.0927
 30
0.000000
  70
    32
  0
VERTEX
  8
0
  5
1E99
 10
201.856
 20
78.1162
 30
0.000000
  70
    32
  0
VERTEX
  8
0
  5
1E9A
 10
201.904
 20
78.1431
 30
0.000000
  70
    32
  0
VERTEX
  8
0
  5
1E9B
 10
201.952
 20
78.1734
 30
0.000000
  70
    32
  0
VERTEX
  8
0
  5
1E9C
 10
202.000
 20
78.2071
 30
0.000000
  70
    32
  0
VERTEX
  8
0
  5
1E9D
 10
202.047
 20
78.2441
 30
0.000000
  70
    32
  0
VERTEX
  8
0
  5
1E9E
 10
202.095
 20
78.2844
 30
0.000000
  70
    32
  0
VERTEX
  8
0
  5
1E9F
 10
202.141
 20
78.3281
 30
0.000000
  70
    32
  0
VERTEX
  8
0
  5
1EA0
 10
202.188
 20
78.3750
 30
0.000000
  70
    32
  0
VERTEX
  8
0
  5
1EA1
 10
202.234
 20
78.4252
 30
0.000000
  70
    32
  0
VERTEX
  8
0
  5
1EA2
 10
202.280
 20
78.4786
 30
0.000000
  70
    32
  0
VERTEX
  8
0
  5
1EA3
 10
202.325
 20
78.5352
 30
0.000000
  70
    32
  0
VERTEX
  8
0
  5
1EA4
 10
202.369
 20
78.5949
 30
0.000000
  70
    32
  0
VERTEX
  8
0
  5
1EA5
 10
202.414
 20
78.6578
 30
0.000000
  70
    32
  0
VERTEX
  8
0
  5
1EA6
 10
202.457
 20
78.7238
 30
0.000000
  70
    32
  0
VERTEX
  8
0
  5
1EA7
 10
202.500
 20
78.7928
 30
0.000000
  70
    32
  0
VERTEX
  8
0
  5
1EA8
 10
202.543
 20
78.8648
 30
0.000000
  70
    32
  0
VERTEX
  8
0
  5
1EA9
 10
202.585
 20
78.9398
 30
0.000000
  70
    32
  0
VERTEX
  8
0
  5
1EAA
 10
202.626
 20
79.0177
 30
0.000000
  70
    32
  0
VERTEX
  8
0
  5
1EAB
 10
202.667
 20
79.0985
 30
0.000000
  70
    32
  0
VERTEX
  8
0
  5
1EAC
 10
202.707
 20
79.1821
 30
0.000000
  70
    32
  0
VERTEX
  8
0
  5
1EAD
 10
202.746
 20
79.2685
 30
0.000000
  70
    32
  0
VERTEX
  8
0
  5
1EAE
 10
202.784
 20
79.3576
 30
0.000000
  70
    32
  0
VERTEX
  8
0
  5
1EAF
 10
202.822
 20
79.4495
 30
0.000000
  70
    32
  0
VERTEX
  8
0
  5
1EB0
 10
202.859
 20
79.5439
 30
0.000000
  70
    32
  0
VERTEX
  8
0
  5
1EB1
 10
202.896
 20
79.6410
 30
0.000000
  70
    32
  0
VERTEX
  8
0
  5
1EB2
 10
202.931
 20
79.7405
 30
0.000000
  70
    32
  0
VERTEX
  8
0
  5
1EB3
 10
202.966
 20
79.8425
 30
0.000000
  70
    32
  0
VERTEX
  8
0
  5
1EB4
 10
202.999
 20
79.9469
 30
0.000000
  70
    32
  0
VERTEX
  8
0
  5
1EB5
 10
203.032
 20
80.0537
 30
0.000000
  70
    32
  0
VERTEX
  8
0
  5
1EB6
 10
203.064
 20
80.1627
 30
0.000000
  70
    32
  0
VERTEX
  8
0
  5
1EB7
 10
203.095
 20
80.2740
 30
0.000000
  70
    32
  0
VERTEX
  8
0
  5
1EB8
 10
203.126
 20
80.3874
 30
0.000000
  70
    32
  0
VERTEX
  8
0
  5
1EB9
 10
203.155
 20
80.5029
 30
0.000000
  70
    32
  0
VERTEX
  8
0
  5
1EBA
 10
203.183
 20
80.6204
 30
0.000000
  70
    32
  0
VERTEX
  8
0
  5
1EBB
 10
203.210
 20
80.7398
 30
0.000000
  70
    32
  0
VERTEX
  8
0
  5
1EBC
 10
203.237
 20
80.8612
 30
0.000000
  70
    32
  0
VERTEX
  8
0
  5
1EBD
 10
203.262
 20
80.9844
 30
0.000000
  70
    32
  0
VERTEX
  8
0
  5
1EBE
 10
203.286
 20
81.1093
 30
0.000000
  70
    32
  0
VERTEX
  8
0
  5
1EBF
 10
203.309
 20
81.2358
 30
0.000000
  70
    32
  0
VERTEX
  8
0
  5
1EC0
 10
203.332
 20
81.3640
 30
0.000000
  70
    32
  0
VERTEX
  8
0
  5
1EC1
 10
203.353
 20
81.4937
 30
0.000000
  70
    32
  0
VERTEX
  8
0
  5
1EC2
 10
203.373
 20
81.6249
 30
0.000000
  70
    32
  0
VERTEX
  8
0
  5
1EC3
 10
203.392
 20
81.7574
 30
0.000000
  70
    32
  0
VERTEX
  8
0
  5
1EC4
 10
203.410
 20
81.8912
 30
0.000000
  70
    32
  0
VERTEX
  8
0
  5
1EC5
 10
203.427
 20
82.0262
 30
0.000000
  70
    32
  0
VERTEX
  8
0
  5
1EC6
 10
203.442
 20
82.1624
 30
0.000000
  70
    32
  0
VERTEX
  8
0
  5
1EC7
 10
203.457
 20
82.2997
 30
0.000000
  70
    32
  0
VERTEX
  8
0
  5
1EC8
 10
203.470
 20
82.4379
 30
0.000000
  70
    32
  0
VERTEX
  8
0
  5
1EC9
 10
203.482
 20
82.5770
 30
0.000000
  70
    32
  0
VERTEX
  8
0
  5
1ECA
 10
203.494
 20
82.7169
 30
0.000000
  70
    32
  0
VERTEX
  8
0
  5
1ECB
 10
203.504
 20
82.8576
 30
0.000000
  70
    32
  0
VERTEX
  8
0
  5
1ECC
 10
203.512
 20
82.9990
 30
0.000000
  70
    32
  0
VERTEX
  8
0
  5
1ECD
 10
203.520
 20
83.1409
 30
0.000000
  70
    32
  0
VERTEX
  8
0
  5
1ECE
 10
203.526
 20
83.2833
 30
0.000000
  70
    32
  0
VERTEX
  8
0
  5
1ECF
 10
203.532
 20
83.4262
 30
0.000000
  70
    32
  0
VERTEX
  8
0
  5
1ED0
 10
203.536
 20
83.5693
 30
0.000000
  70
    32
  0
VERTEX
  8
0
  5
1ED1
 10
203.539
 20
83.7128
 30
0.000000
  70
    32
  0
VERTEX
  8
0
  5
1ED2
 10
203.541
 20
83.8563
 30
0.000000
  70
    32
  0
VERTEX
  8
0
  5
1ED3
 10
203.541
 20
84.0000
 30
0.000000
  70
    32
  0
VERTEX
  8
0
  5
1ED4
 10
203.541
 20
84.1437
 30
0.000000
  70
    32
  0
VERTEX
  8
0
  5
1ED5
 10
203.539
 20
84.2872
 30
0.000000
  70
    32
  0
VERTEX
  8
0
  5
1ED6
 10
203.536
 20
84.4307
 30
0.000000
  70
    32
  0
VERTEX
  8
0
  5
1ED7
 10
203.532
 20
84.5738
 30
0.000000
  70
    32
  0
VERTEX
  8
0
  5
1ED8
 10
203.526
 20
84.7167
 30
0.000000
  70
    32
  0
VERTEX
  8
0
  5
1ED9
 10
203.520
 20
84.8591
 30
0.000000
  70
    32
  0
VERTEX
  8
0
  5
1EDA
 10
203.512
 20
85.0010
 30
0.000000
  70
    32
  0
VERTEX
  8
0
  5
1EDB
 10
203.504
 20
85.1424
 30
0.000000
  70
    32
  0
VERTEX
  8
0
  5
1EDC
 10
203.494
 20
85.2831
 30
0.000000
  70
    32
  0
VERTEX
  8
0
  5
1EDD
 10
203.482
 20
85.4230
 30
0.000000
  70
    32
  0
VERTEX
  8
0
  5
1EDE
 10
203.470
 20
85.5621
 30
0.000000
  70
    32
  0
VERTEX
  8
0
  5
1EDF
 10
203.457
 20
85.7003
 30
0.000000
  70
    32
  0
VERTEX
  8
0
  5
1EE0
 10
203.442
 20
85.8376
 30
0.000000
  70
    32
  0
VERTEX
  8
0
  5
1EE1
 10
203.427
 20
85.9738
 30
0.000000
  70
    32
  0
VERTEX
  8
0
  5
1EE2
 10
203.410
 20
86.1088
 30
0.000000
  70
    32
  0
VERTEX
  8
0
  5
1EE3
 10
203.392
 20
86.2426
 30
0.000000
  70
    32
  0
VERTEX
  8
0
  5
1EE4
 10
203.373
 20
86.3751
 30
0.000000
  70
    32
  0
VERTEX
  8
0
  5
1EE5
 10
203.353
 20
86.5063
 30
0.000000
  70
    32
  0
VERTEX
  8
0
  5
1EE6
 10
203.332
 20
86.6360
 30
0.000000
  70
    32
  0
VERTEX
  8
0
  5
1EE7
 10
203.309
 20
86.7642
 30
0.000000
  70
    32
  0
VERTEX
  8
0
  5
1EE8
 10
203.286
 20
86.8907
 30
0.000000
  70
    32
  0
VERTEX
  8
0
  5
1EE9
 10
203.262
 20
87.0156
 30
0.000000
  70
    32
  0
VERTEX
  8
0
  5
1EEA
 10
203.237
 20
87.1388
 30
0.000000
  70
    32
  0
VERTEX
  8
0
  5
1EEB
 10
203.210
 20
87.2602
 30
0.000000
  70
    32
  0
VERTEX
  8
0
  5
1EEC
 10
203.183
 20
87.3796
 30
0.000000
  70
    32
  0
VERTEX
  8
0
  5
1EED
 10
203.155
 20
87.4971
 30
0.000000
  70
    32
  0
VERTEX
  8
0
  5
1EEE
 10
203.126
 20
87.6126
 30
0.000000
  70
    32
  0
VERTEX
  8
0
  5
1EEF
 10
203.095
 20
87.7260
 30
0.000000
  70
    32
  0
VERTEX
  8
0
  5
1EF0
 10
203.064
 20
87.8373
 30
0.000000
  70
    32
  0
VERTEX
  8
0
  5
1EF1
 10
203.032
 20
87.9463
 30
0.000000
  70
    32
  0
VERTEX
  8
0
  5
1EF2
 10
202.999
 20
88.0531
 30
0.000000
  70
    32
  0
VERTEX
  8
0
  5
1EF3
 10
202.966
 20
88.1575
 30
0.000000
  70
    32
  0
VERTEX
  8
0
  5
1EF4
 10
202.931
 20
88.2595
 30
0.000000
  70
    32
  0
VERTEX
  8
0
  5
1EF5
 10
202.896
 20
88.3590
 30
0.000000
  70
    32
  0
VERTEX
  8
0
  5
1EF6
 10
202.859
 20
88.4561
 30
0.000000
  70
    32
  0
VERTEX
  8
0
  5
1EF7
 10
202.822
 20
88.5505
 30
0.000000
  70
    32
  0
VERTEX
  8
0
  5
1EF8
 10
202.784
 20
88.6424
 30
0.000000
  70
    32
  0
VERTEX
  8
0
  5
1EF9
 10
202.746
 20
88.7315
 30
0.000000
  70
    32
  0
VERTEX
  8
0
  5
1EFA
 10
202.707
 20
88.8179
 30
0.000000
  70
    32
  0
VERTEX
  8
0
  5
1EFB
 10
202.667
 20
88.9015
 30
0.000000
  70
    32
  0
VERTEX
  8
0
  5
1EFC
 10
202.626
 20
88.9823
 30
0.000000
  70
    32
  0
VERTEX
  8
0
  5
1EFD
 10
202.585
 20
89.0602
 30
0.000000
  70
    32
  0
VERTEX
  8
0
  5
1EFE
 10
202.543
 20
89.1352
 30
0.000000
  70
    32
  0
VERTEX
  8
0
  5
1EFF
 10
202.500
 20
89.2072
 30
0.000000
  70
    32
  0
VERTEX
  8
0
  5
1F00
 10
202.457
 20
89.2762
 30
0.000000
  70
    32
  0
VERTEX
  8
0
  5
1F01
 10
202.414
 20
89.3422
 30
0.000000
  70
    32
  0
VERTEX
  8
0
  5
1F02
 10
202.369
 20
89.4051
 30
0.000000
  70
    32
  0
VERTEX
  8
0
  5
1F03
 10
202.325
 20
89.4648
 30
0.000000
  70
    32
  0
VERTEX
  8
0
  5
1F04
 10
202.280
 20
89.5214
 30
0.000000
  70
    32
  0
VERTEX
  8
0
  5
1F05
 10
202.234
 20
89.5748
 30
0.000000
  70
    32
  0
VERTEX
  8
0
  5
1F06
 10
202.188
 20
89.6250
 30
0.000000
  70
    32
  0
VERTEX
  8
0
  5
1F07
 10
202.141
 20
89.6719
 30
0.000000
  70
    32
  0
VERTEX
  8
0
  5
1F08
 10
202.095
 20
89.7156
 30
0.000000
  70
    32
  0
VERTEX
  8
0
  5
1F09
 10
202.047
 20
89.7559
 30
0.000000
  70
    32
  0
VERTEX
  8
0
  5
1F0A
 10
202.000
 20
89.7929
 30
0.000000
  70
    32
  0
VERTEX
  8
0
  5
1F0B
 10
201.952
 20
89.8266
 30
0.000000
  70
    32
  0
VERTEX
  8
0
  5
1F0C
 10
201.904
 20
89.8569
 30
0.000000
  70
    32
  0
VERTEX
  8
0
  5
1F0D
 10
201.856
 20
89.8838
 30
0.000000
  70
    32
  0
VERTEX
  8
0
  5
1F0E
 10
201.807
 20
89.9073
 30
0.000000
  70
    32
  0
VERTEX
  8
0
  5
1F0F
 10
201.759
 20
89.9275
 30
0.000000
  70
    32
  0
VERTEX
  8
0
  5
1F10
 10
201.710
 20
89.9441
 30
0.000000
  70
    32
  0
VERTEX
  8
0
  5
1F11
 10
201.661
 20
89.9574
 30
0.000000
  70
    32
  0
VERTEX
  8
0
  5
1F12
 10
201.612
 20
89.9672
 30
0.000000
  70
    32
  0
VERTEX
  8
0
  5
1F13
 10
201.563
 20
89.9735
 30
0.000000
  70
    32
  0
SEQEND
  8
0
  5
1F14
  0
CIRCLE
  5
197A
  8
0
 10
172.0
 20
84.0
 30
0.0
 40
14.0
  0
LINE
  5
197B
  8
0
 10
184.64911064067351
 20
78.0
 30
0.0
 11
265.48158134236769
 21
78.0
 31
0.0
  0
LINE
  5
197C
  8
0
 10
265.48158134236769
 20
90.0
 30
0.0
 11
184.64911064067351
 21
90.0
 31
0.0
  0
POLYLINE
  5
197D
  8
0
 10
264.12534250636412
 20
91.138928218148763
 30
0.0
 66
     1
 70
     8
  0
VERTEX
  8
0
  5
1F15
 10
264.125
 20
91.1389
 30
0.000000
  70
    32
  0
VERTEX
  8
0
  5
1F16
 10
264.121
 20
91.1315
 30
0.000000
  70
    32
  0
VERTEX
  8
0
  5
1F17
 10
264.116
 20
91.1241
 30
0.000000
  70
    32
  0
VERTEX
  8
0
  5
1F18
 10
264.112
 20
91.1167
 30
0.000000
  70
    32
  0
VERTEX
  8
0
  5
1F19
 10
264.107
 20
91.1092
 30
0.000000
  70
    32
  0
VERTEX
  8
0
  5
1F1A
 10
264.103
 20
91.1017
 30
0.000000
  70
    32
  0
VERTEX
  8
0
  5
1F1B
 10
264.098
 20
91.0941
 30
0.000000
  70
    32
  0
VERTEX
  8
0
  5
1F1C
 10
264.094
 20
91.0866
 30
0.000000
  70
    32
  0
VERTEX
  8
0
  5
1F1D
 10
264.089
 20
91.0790
 30
0.000000
  70
    32
  0
VERTEX
  8
0
  5
1F1E
 10
264.085
 20
91.0714
 30
0.000000
  70
    32
  0
VERTEX
  8
0
  5
1F1F
 10
264.080
 20
91.0638
 30
0.000000
  70
    32
  0
VERTEX
  8
0
  5
1F20
 10
264.076
 20
91.0562
 30
0.000000
  70
    32
  0
VERTEX
  8
0
  5
1F21
 10
264.071
 20
91.0485
 30
0.000000
  70
    32
  0
VERTEX
  8
0
  5
1F22
 10
264.067
 20
91.0408
 30
0.000000
  70
    32
  0
VERTEX
  8
0
  5
1F23
 10
264.062
 20
91.0331
 30
0.000000
  70
    32
  0
VERTEX
  8
0
  5
1F24
 10
264.058
 20
91.0253
 30
0.000000
  70
    32
  0
VERTEX
  8
0
  5
1F25
 10
264.053
 20
91.0176
 30
0.000000
  70
    32
  0
VERTEX
  8
0
  5
1F26
 10
264.049
 20
91.0098
 30
0.000000
  70
    32
  0
VERTEX
  8
0
  5
1F27
 10
264.044
 20
91.0019
 30
0.000000
  70
    32
  0
VERTEX
  8
0
  5
1F28
 10
264.040
 20
90.9941
 30
0.000000
  70
    32
  0
VERTEX
  8
0
  5
1F29
 10
264.035
 20
90.9862
 30
0.000000
  70
    32
  0
VERTEX
  8
0
  5
1F2A
 10
264.031
 20
90.9783
 30
0.000000
  70
    32
  0
VERTEX
  8
0
  5
1F2B
 10
264.026
 20
90.9704
 30
0.000000
  70
    32
  0
VERTEX
  8
0
  5
1F2C
 10
264.022
 20
90.9625
 30
0.000000
  70
    32
  0
VERTEX
  8
0
  5
1F2D
 10
264.018
 20
90.9545
 30
0.000000
  70
    32
  0
VERTEX
  8
0
  5
1F2E
 10
264.013
 20
90.9465
 30
0.000000
  70
    32
  0
VERTEX
  8
0
  5
1F2F
 10
264.009
 20
90.9385
 30
0.000000
  70
    32
  0
VERTEX
  8
0
  5
1F30
 10
264.004
 20
90.9305
 30
0.000000
  70
    32
  0
VERTEX
  8
0
  5
1F31
 10
264.000
 20
90.9224
 30
0.000000
  70
    32
  0
VERTEX
  8
0
  5
1F32
 10
263.995
 20
90.9143
 30
0.000000
  70
    32
  0
VERTEX
  8
0
  5
1F33
 10
263.991
 20
90.9062
 30
0.000000
  70
    32
  0
VERTEX
  8
0
  5
1F34
 10
263.987
 20
90.8981
 30
0.000000
  70
    32
  0
VERTEX
  8
0
  5
1F35
 10
263.982
 20
90.8899
 30
0.000000
  70
    32
  0
VERTEX
  8
0
  5
1F36
 10
263.978
 20
90.8818
 30
0.000000
  70
    32
  0
VERTEX
  8
0
  5
1F37
 10
263.973
 20
90.8736
 30
0.000000
  70
    32
  0
VERTEX
  8
0
  5
1F38
 10
263.969
 20
90.8653
 30
0.000000
  70
    32
  0
VERTEX
  8
0
  5
1F39
 10
263.965
 20
90.8571
 30
0.000000
  70
    32
  0
VERTEX
  8
0
  5
1F3A
 10
263.960
 20
90.8488
 30
0.000000
  70
    32
  0
VERTEX
  8
0
  5
1F3B
 10
263.956
 20
90.8405
 30
0.000000
  70
    32
  0
VERTEX
  8
0
  5
1F3C
 10
263.952
 20
90.8322
 30
0.000000
  70
    32
  0
VERTEX
  8
0
  5
1F3D
 10
263.947
 20
90.8238
 30
0.000000
  70
    32
  0
VERTEX
  8
0
  5
1F3E
 10
263.943
 20
90.8155
 30
0.000000
  70
    32
  0
VERTEX
  8
0
  5
1F3F
 10
263.939
 20
90.8071
 30
0.000000
  70
    32
  0
VERTEX
  8
0
  5
1F40
 10
263.934
 20
90.7986
 30
0.000000
  70
    32
  0
VERTEX
  8
0
  5
1F41
 10
263.930
 20
90.7902
 30
0.000000
  70
    32
  0
VERTEX
  8
0
  5
1F42
 10
263.926
 20
90.7817
 30
0.000000
  70
    32
  0
VERTEX
  8
0
  5
1F43
 10
263.921
 20
90.7732
 30
0.000000
  70
    32
  0
VERTEX
  8
0
  5
1F44
 10
263.917
 20
90.7647
 30
0.000000
  70
    32
  0
VERTEX
  8
0
  5
1F45
 10
263.913
 20
90.7562
 30
0.000000
  70
    32
  0
VERTEX
  8
0
  5
1F46
 10
263.908
 20
90.7476
 30
0.000000
  70
    32
  0
VERTEX
  8
0
  5
1F47
 10
263.904
 20
90.7391
 30
0.000000
  70
    32
  0
VERTEX
  8
0
  5
1F48
 10
263.900
 20
90.7305
 30
0.000000
  70
    32
  0
VERTEX
  8
0
  5
1F49
 10
263.895
 20
90.7218
 30
0.000000
  70
    32
  0
VERTEX
  8
0
  5
1F4A
 10
263.891
 20
90.7132
 30
0.000000
  70
    32
  0
VERTEX
  8
0
  5
1F4B
 10
263.887
 20
90.7045
 30
0.000000
  70
    32
  0
VERTEX
  8
0
  5
1F4C
 10
263.883
 20
90.6958
 30
0.000000
  70
    32
  0
VERTEX
  8
0
  5
1F4D
 10
263.878
 20
90.6871
 30
0.000000
  70
    32
  0
VERTEX
  8
0
  5
1F4E
 10
263.874
 20
90.6783
 30
0.000000
  70
    32
  0
VERTEX
  8
0
  5
1F4F
 10
263.870
 20
90.6696
 30
0.000000
  70
    32
  0
VERTEX
  8
0
  5
1F50
 10
263.866
 20
90.6608
 30
0.000000
  70
    32
  0
VERTEX
  8
0
  5
1F51
 10
263.861
 20
90.6519
 30
0.000000
  70
    32
  0
VERTEX
  8
0
  5
1F52
 10
263.857
 20
90.6431
 30
0.000000
  70
    32
  0
VERTEX
  8
0
  5
1F53
 10
263.853
 20
90.6342
 30
0.000000
  70
    32
  0
VERTEX
  8
0
  5
1F54
 10
263.849
 20
90.6254
 30
0.000000
  70
    32
  0
VERTEX
  8
0
  5
1F55
 10
263.844
 20
90.6165
 30
0.000000
  70
    32
  0
VERTEX
  8
0
  5
1F56
 10
263.840
 20
90.6075
 30
0.000000
  70
    32
  0
VERTEX
  8
0
  5
1F57
 10
263.836
 20
90.5986
 30
0.000000
  70
    32
  0
VERTEX
  8
0
  5
1F58
 10
263.832
 20
90.5896
 30
0.000000
  70
    32
  0
VERTEX
  8
0
  5
1F59
 10
263.828
 20
90.5806
 30
0.000000
  70
    32
  0
VERTEX
  8
0
  5
1F5A
 10
263.823
 20
90.5716
 30
0.000000
  70
    32
  0
VERTEX
  8
0
  5
1F5B
 10
263.819
 20
90.5625
 30
0.000000
  70
    32
  0
VERTEX
  8
0
  5
1F5C
 10
263.815
 20
90.5535
 30
0.000000
  70
    32
  0
VERTEX
  8
0
  5
1F5D
 10
263.811
 20
90.5444
 30
0.000000
  70
    32
  0
VERTEX
  8
0
  5
1F5E
 10
263.807
 20
90.5353
 30
0.000000
  70
    32
  0
VERTEX
  8
0
  5
1F5F
 10
263.803
 20
90.5261
 30
0.000000
  70
    32
  0
VERTEX
  8
0
  5
1F60
 10
263.798
 20
90.5170
 30
0.000000
  70
    32
  0
VERTEX
  8
0
  5
1F61
 10
263.794
 20
90.5078
 30
0.000000
  70
    32
  0
VERTEX
  8
0
  5
1F62
 10
263.790
 20
90.4986
 30
0.000000
  70
    32
  0
VERTEX
  8
0
  5
1F63
 10
263.786
 20
90.4894
 30
0.000000
  70
    32
  0
VERTEX
  8
0
  5
1F64
 10
263.782
 20
90.4801
 30
0.000000
  70
    32
  0
VERTEX
  8
0
  5
1F65
 10
263.778
 20
90.4708
 30
0.000000
  70
    32
  0
VERTEX
  8
0
  5
1F66
 10
263.774
 20
90.4615
 30
0.000000
  70
    32
  0
VERTEX
  8
0
  5
1F67
 10
263.770
 20
90.4522
 30
0.000000
  70
    32
  0
VERTEX
  8
0
  5
1F68
 10
263.765
 20
90.4429
 30
0.000000
  70
    32
  0
VERTEX
  8
0
  5
1F69
 10
263.761
 20
90.4335
 30
0.000000
  70
    32
  0
VERTEX
  8
0
  5
1F6A
 10
263.757
 20
90.4241
 30
0.000000
  70
    32
  0
VERTEX
  8
0
  5
1F6B
 10
263.753
 20
90.4147
 30
0.000000
  70
    32
  0
VERTEX
  8
0
  5
1F6C
 10
263.749
 20
90.4053
 30
0.000000
  70
    32
  0
VERTEX
  8
0
  5
1F6D
 10
263.745
 20
90.3959
 30
0.000000
  70
    32
  0
VERTEX
  8
0
  5
1F6E
 10
263.741
 20
90.3864
 30
0.000000
  70
    32
  0
VERTEX
  8
0
  5
1F6F
 10
263.737
 20
90.3769
 30
0.000000
  70
    32
  0
VERTEX
  8
0
  5
1F70
 10
263.733
 20
90.3674
 30
0.000000
  70
    32
  0
VERTEX
  8
0
  5
1F71
 10
263.729
 20
90.3578
 30
0.000000
  70
    32
  0
VERTEX
  8
0
  5
1F72
 10
263.725
 20
90.3483
 30
0.000000
  70
    32
  0
VERTEX
  8
0
  5
1F73
 10
263.721
 20
90.3387
 30
0.000000
  70
    32
  0
VERTEX
  8
0
  5
1F74
 10
263.717
 20
90.3291
 30
0.000000
  70
    32
  0
VERTEX
  8
0
  5
1F75
 10
263.713
 20
90.3195
 30
0.000000
  70
    32
  0
VERTEX
  8
0
  5
1F76
 10
263.709
 20
90.3098
 30
0.000000
  70
    32
  0
VERTEX
  8
0
  5
1F77
 10
263.704
 20
90.3001
 30
0.000000
  70
    32
  0
VERTEX
  8
0
  5
1F78
 10
263.700
 20
90.2904
 30
0.000000
  70
    32
  0
VERTEX
  8
0
  5
1F79
 10
263.696
 20
90.2807
 30
0.000000
  70
    32
  0
VERTEX
  8
0
  5
1F7A
 10
263.692
 20
90.2710
 30
0.000000
  70
    32
  0
VERTEX
  8
0
  5
1F7B
 10
263.688
 20
90.2612
 30
0.000000
  70
    32
  0
VERTEX
  8
0
  5
1F7C
 10
263.685
 20
90.2515
 30
0.000000
  70
    32
  0
VERTEX
  8
0
  5
1F7D
 10
263.681
 20
90.2417
 30
0.000000
  70
    32
  0
VERTEX
  8
0
  5
1F7E
 10
263.677
 20
90.2318
 30
0.000000
  70
    32
  0
VERTEX
  8
0
  5
1F7F
 10
263.673
 20
90.2220
 30
0.000000
  70
    32
  0
VERTEX
  8
0
  5
1F80
 10
263.669
 20
90.2121
 30
0.000000
  70
    32
  0
VERTEX
  8
0
  5
1F81
 10
263.665
 20
90.2022
 30
0.000000
  70
    32
  0
VERTEX
  8
0
  5
1F82
 10
263.661
 20
90.1923
 30
0.000000
  70
    32
  0
VERTEX
  8
0
  5
1F83
 10
263.657
 20
90.1824
 30
0.000000
  70
    32
  0
VERTEX
  8
0
  5
1F84
 10
263.653
 20
90.1724
 30
0.000000
  70
    32
  0
VERTEX
  8
0
  5
1F85
 10
263.649
 20
90.1625
 30
0.000000
  70
    32
  0
VERTEX
  8
0
  5
1F86
 10
263.645
 20
90.1525
 30
0.000000
  70
    32
  0
VERTEX
  8
0
  5
1F87
 10
263.641
 20
90.1425
 30
0.000000
  70
    32
  0
VERTEX
  8
0
  5
1F88
 10
263.637
 20
90.1324
 30
0.000000
  70
    32
  0
VERTEX
  8
0
  5
1F89
 10
263.633
 20
90.1224
 30
0.000000
  70
    32
  0
VERTEX
  8
0
  5
1F8A
 10
263.629
 20
90.1123
 30
0.000000
  70
    32
  0
VERTEX
  8
0
  5
1F8B
 10
263.625
 20
90.1022
 30
0.000000
  70
    32
  0
VERTEX
  8
0
  5
1F8C
 10
263.622
 20
90.0921
 30
0.000000
  70
    32
  0
VERTEX
  8
0
  5
1F8D
 10
263.618
 20
90.0819
 30
0.000000
  70
    32
  0
VERTEX
  8
0
  5
1F8E
 10
263.614
 20
90.0717
 30
0.000000
  70
    32
  0
VERTEX
  8
0
  5
1F8F
 10
263.610
 20
90.0616
 30
0.000000
  70
    32
  0
VERTEX
  8
0
  5
1F90
 10
263.606
 20
90.0514
 30
0.000000
  70
    32
  0
VERTEX
  8
0
  5
1F91
 10
263.602
 20
90.0411
 30
0.000000
  70
    32
  0
VERTEX
  8
0
  5
1F92
 10
263.598
 20
90.0309
 30
0.000000
  70
    32
  0
VERTEX
  8
0
  5
1F93
 10
263.595
 20
90.0206
 30
0.000000
  70
    32
  0
VERTEX
  8
0
  5
1F94
 10
263.591
 20
90.0103
 30
0.000000
  70
    32
  0
VERTEX
  8
0
  5
1F95
 10
263.587
 20
90.0000
 30
0.000000
  70
    32
  0
SEQEND
  8
0
  5
1F96
  0
POLYLINE
  5
197E
  8
0
 10
263.58688508849417
 20
77.999999999999986
 30
0.0
 66
     1
 70
     8
  0
VERTEX
  8
0
  5
1F97
 10
263.587
 20
78.0000
 30
0.000000
  70
    32
  0
VERTEX
  8
0
  5
1F98
 10
263.591
 20
77.9897
 30
0.000000
  70
    32
  0
VERTEX
  8
0
  5
1F99
 10
263.595
 20
77.9794
 30
0.000000
  70
    32
  0
VERTEX
  8
0
  5
1F9A
 10
263.598
 20
77.9691
 30
0.000000
  70
    32
  0
VERTEX
  8
0
  5
1F9B
 10
263.602
 20
77.9588
 30
0.000000
  70
    32
  0
VERTEX
  8
0
  5
1F9C
 10
263.606
 20
77.9486
 30
0.000000
  70
    32
  0
VERTEX
  8
0
  5
1F9D
 10
263.610
 20
77.9384
 30
0.000000
  70
    32
  0
VERTEX
  8
0
  5
1F9E
 10
263.614
 20
77.9282
 30
0.000000
  70
    32
  0
VERTEX
  8
0
  5
1F9F
 10
263.618
 20
77.9180
 30
0.000000
  70
    32
  0
VERTEX
  8
0
  5
1FA0
 10
263.622
 20
77.9079
 30
0.000000
  70
    32
  0
VERTEX
  8
0
  5
1FA1
 10
263.625
 20
77.8977
 30
0.000000
  70
    32
  0
VERTEX
  8
0
  5
1FA2
 10
263.629
 20
77.8876
 30
0.000000
  70
    32
  0
VERTEX
  8
0
  5
1FA3
 10
263.633
 20
77.8775
 30
0.000000
  70
    32
  0
VERTEX
  8
0
  5
1FA4
 10
263.637
 20
77.8674
 30
0.000000
  70
    32
  0
VERTEX
  8
0
  5
1FA5
 10
263.641
 20
77.8574
 30
0.000000
  70
    32
  0
VERTEX
  8
0
  5
1FA6
 10
263.645
 20
77.8474
 30
0.000000
  70
    32
  0
VERTEX
  8
0
  5
1FA7
 10
263.649
 20
77.8374
 30
0.000000
  70
    32
  0
VERTEX
  8
0
  5
1FA8
 10
263.653
 20
77.8274
 30
0.000000
  70
    32
  0
VERTEX
  8
0
  5
1FA9
 10
263.657
 20
77.8174
 30
0.000000
  70
    32
  0
VERTEX
  8
0
  5
1FAA
 10
263.661
 20
77.8075
 30
0.000000
  70
    32
  0
VERTEX
  8
0
  5
1FAB
 10
263.665
 20
77.7976
 30
0.000000
  70
    32
  0
VERTEX
  8
0
  5
1FAC
 10
263.669
 20
77.7877
 30
0.000000
  70
    32
  0
VERTEX
  8
0
  5
1FAD
 10
263.673
 20
77.7778
 30
0.000000
  70
    32
  0
VERTEX
  8
0
  5
1FAE
 10
263.677
 20
77.7679
 30
0.000000
  70
    32
  0
VERTEX
  8
0
  5
1FAF
 10
263.681
 20
77.7581
 30
0.000000
  70
    32
  0
VERTEX
  8
0
  5
1FB0
 10
263.685
 20
77.7483
 30
0.000000
  70
    32
  0
VERTEX
  8
0
  5
1FB1
 10
263.689
 20
77.7385
 30
0.000000
  70
    32
  0
VERTEX
  8
0
  5
1FB2
 10
263.693
 20
77.7287
 30
0.000000
  70
    32
  0
VERTEX
  8
0
  5
1FB3
 10
263.697
 20
77.7190
 30
0.000000
  70
    32
  0
VERTEX
  8
0
  5
1FB4
 10
263.701
 20
77.7093
 30
0.000000
  70
    32
  0
VERTEX
  8
0
  5
1FB5
 10
263.705
 20
77.6996
 30
0.000000
  70
    32
  0
VERTEX
  8
0
  5
1FB6
 10
263.709
 20
77.6899
 30
0.000000
  70
    32
  0
VERTEX
  8
0
  5
1FB7
 10
263.713
 20
77.6802
 30
0.000000
  70
    32
  0
VERTEX
  8
0
  5
1FB8
 10
263.717
 20
77.6706
 30
0.000000
  70
    32
  0
VERTEX
  8
0
  5
1FB9
 10
263.721
 20
77.6610
 30
0.000000
  70
    32
  0
VERTEX
  8
0
  5
1FBA
 10
263.725
 20
77.6514
 30
0.000000
  70
    32
  0
VERTEX
  8
0
  5
1FBB
 10
263.729
 20
77.6418
 30
0.000000
  70
    32
  0
VERTEX
  8
0
  5
1FBC
 10
263.733
 20
77.6323
 30
0.000000
  70
    32
  0
VERTEX
  8
0
  5
1FBD
 10
263.737
 20
77.6227
 30
0.000000
  70
    32
  0
VERTEX
  8
0
  5
1FBE
 10
263.741
 20
77.6132
 30
0.000000
  70
    32
  0
VERTEX
  8
0
  5
1FBF
 10
263.745
 20
77.6038
 30
0.000000
  70
    32
  0
VERTEX
  8
0
  5
1FC0
 10
263.749
 20
77.5943
 30
0.000000
  70
    32
  0
VERTEX
  8
0
  5
1FC1
 10
263.753
 20
77.5849
 30
0.000000
  70
    32
  0
VERTEX
  8
0
  5
1FC2
 10
263.757
 20
77.5754
 30
0.000000
  70
    32
  0
VERTEX
  8
0
  5
1FC3
 10
263.761
 20
77.5661
 30
0.000000
  70
    32
  0
VERTEX
  8
0
  5
1FC4
 10
263.766
 20
77.5567
 30
0.000000
  70
    32
  0
VERTEX
  8
0
  5
1FC5
 10
263.770
 20
77.5473
 30
0.000000
  70
    32
  0
VERTEX
  8
0
  5
1FC6
 10
263.774
 20
77.5380
 30
0.000000
  70
    32
  0
VERTEX
  8
0
  5
1FC7
 10
263.778
 20
77.5287
 30
0.000000
  70
    32
  0
VERTEX
  8
0
  5
1FC8
 10
263.782
 20
77.5194
 30
0.000000
  70
    32
  0
VERTEX
  8
0
  5
1FC9
 10
263.786
 20
77.5102
 30
0.000000
  70
    32
  0
VERTEX
  8
0
  5
1FCA
 10
263.790
 20
77.5009
 30
0.000000
  70
    32
  0
VERTEX
  8
0
  5
1FCB
 10
263.795
 20
77.4917
 30
0.000000
  70
    32
  0
VERTEX
  8
0
  5
1FCC
 10
263.799
 20
77.4825
 30
0.000000
  70
    32
  0
VERTEX
  8
0
  5
1FCD
 10
263.803
 20
77.4734
 30
0.000000
  70
    32
  0
VERTEX
  8
0
  5
1FCE
 10
263.807
 20
77.4642
 30
0.000000
  70
    32
  0
VERTEX
  8
0
  5
1FCF
 10
263.811
 20
77.4551
 30
0.000000
  70
    32
  0
VERTEX
  8
0
  5
1FD0
 10
263.815
 20
77.4460
 30
0.000000
  70
    32
  0
VERTEX
  8
0
  5
1FD1
 10
263.820
 20
77.4369
 30
0.000000
  70
    32
  0
VERTEX
  8
0
  5
1FD2
 10
263.824
 20
77.4279
 30
0.000000
  70
    32
  0
VERTEX
  8
0
  5
1FD3
 10
263.828
 20
77.4188
 30
0.000000
  70
    32
  0
VERTEX
  8
0
  5
1FD4
 10
263.832
 20
77.4098
 30
0.000000
  70
    32
  0
VERTEX
  8
0
  5
1FD5
 10
263.836
 20
77.4009
 30
0.000000
  70
    32
  0
VERTEX
  8
0
  5
1FD6
 10
263.841
 20
77.3919
 30
0.000000
  70
    32
  0
VERTEX
  8
0
  5
1FD7
 10
263.845
 20
77.3830
 30
0.000000
  70
    32
  0
VERTEX
  8
0
  5
1FD8
 10
263.849
 20
77.3740
 30
0.000000
  70
    32
  0
VERTEX
  8
0
  5
1FD9
 10
263.853
 20
77.3651
 30
0.000000
  70
    32
  0
VERTEX
  8
0
  5
1FDA
 10
263.857
 20
77.3563
 30
0.000000
  70
    32
  0
VERTEX
  8
0
  5
1FDB
 10
263.862
 20
77.3474
 30
0.000000
  70
    32
  0
VERTEX
  8
0
  5
1FDC
 10
263.866
 20
77.3386
 30
0.000000
  70
    32
  0
VERTEX
  8
0
  5
1FDD
 10
263.870
 20
77.3298
 30
0.000000
  70
    32
  0
VERTEX
  8
0
  5
1FDE
 10
263.874
 20
77.3210
 30
0.000000
  70
    32
  0
VERTEX
  8
0
  5
1FDF
 10
263.879
 20
77.3123
 30
0.000000
  70
    32
  0
VERTEX
  8
0
  5
1FE0
 10
263.883
 20
77.3036
 30
0.000000
  70
    32
  0
VERTEX
  8
0
  5
1FE1
 10
263.887
 20
77.2948
 30
0.000000
  70
    32
  0
VERTEX
  8
0
  5
1FE2
 10
263.892
 20
77.2862
 30
0.000000
  70
    32
  0
VERTEX
  8
0
  5
1FE3
 10
263.896
 20
77.2775
 30
0.000000
  70
    32
  0
VERTEX
  8
0
  5
1FE4
 10
263.900
 20
77.2689
 30
0.000000
  70
    32
  0
VERTEX
  8
0
  5
1FE5
 10
263.904
 20
77.2603
 30
0.000000
  70
    32
  0
VERTEX
  8
0
  5
1FE6
 10
263.909
 20
77.2517
 30
0.000000
  70
    32
  0
VERTEX
  8
0
  5
1FE7
 10
263.913
 20
77.2431
 30
0.000000
  70
    32
  0
VERTEX
  8
0
  5
1FE8
 10
263.917
 20
77.2346
 30
0.000000
  70
    32
  0
VERTEX
  8
0
  5
1FE9
 10
263.922
 20
77.2260
 30
0.000000
  70
    32
  0
VERTEX
  8
0
  5
1FEA
 10
263.926
 20
77.2175
 30
0.000000
  70
    32
  0
VERTEX
  8
0
  5
1FEB
 10
263.930
 20
77.2091
 30
0.000000
  70
    32
  0
VERTEX
  8
0
  5
1FEC
 10
263.935
 20
77.2006
 30
0.000000
  70
    32
  0
VERTEX
  8
0
  5
1FED
 10
263.939
 20
77.1922
 30
0.000000
  70
    32
  0
VERTEX
  8
0
  5
1FEE
 10
263.943
 20
77.1838
 30
0.000000
  70
    32
  0
VERTEX
  8
0
  5
1FEF
 10
263.948
 20
77.1754
 30
0.000000
  70
    32
  0
VERTEX
  8
0
  5
1FF0
 10
263.952
 20
77.1671
 30
0.000000
  70
    32
  0
VERTEX
  8
0
  5
1FF1
 10
263.956
 20
77.1587
 30
0.000000
  70
    32
  0
VERTEX
  8
0
  5
1FF2
 10
263.961
 20
77.1504
 30
0.000000
  70
    32
  0
VERTEX
  8
0
  5
1FF3
 10
263.965
 20
77.1421
 30
0.000000
  70
    32
  0
VERTEX
  8
0
  5
1FF4
 10
263.970
 20
77.1339
 30
0.000000
  70
    32
  0
VERTEX
  8
0
  5
1FF5
 10
263.974
 20
77.1257
 30
0.000000
  70
    32
  0
VERTEX
  8
0
  5
1FF6
 10
263.978
 20
77.1174
 30
0.000000
  70
    32
  0
VERTEX
  8
0
  5
1FF7
 10
263.983
 20
77.1093
 30
0.000000
  70
    32
  0
VERTEX
  8
0
  5
1FF8
 10
263.987
 20
77.1011
 30
0.000000
  70
    32
  0
VERTEX
  8
0
  5
1FF9
 10
263.991
 20
77.0930
 30
0.000000
  70
    32
  0
VERTEX
  8
0
  5
1FFA
 10
263.996
 20
77.0848
 30
0.000000
  70
    32
  0
VERTEX
  8
0
  5
1FFB
 10
264.000
 20
77.0767
 30
0.000000
  70
    32
  0
VERTEX
  8
0
  5
1FFC
 10
264.005
 20
77.0687
 30
0.000000
  70
    32
  0
VERTEX
  8
0
  5
1FFD
 10
264.009
 20
77.0606
 30
0.000000
  70
    32
  0
VERTEX
  8
0
  5
1FFE
 10
264.014
 20
77.0526
 30
0.000000
  70
    32
  0
VERTEX
  8
0
  5
1FFF
 10
264.018
 20
77.0446
 30
0.000000
  70
    32
  0
VERTEX
  8
0
  5
2000
 10
264.022
 20
77.0367
 30
0.000000
  70
    32
  0
VERTEX
  8
0
  5
2001
 10
264.027
 20
77.0287
 30
0.000000
  70
    32
  0
VERTEX
  8
0
  5
2002
 10
264.031
 20
77.0208
 30
0.000000
  70
    32
  0
VERTEX
  8
0
  5
2003
 10
264.036
 20
77.0129
 30
0.000000
  70
    32
  0
VERTEX
  8
0
  5
2004
 10
264.040
 20
77.0050
 30
0.000000
  70
    32
  0
VERTEX
  8
0
  5
2005
 10
264.045
 20
76.9972
 30
0.000000
  70
    32
  0
VERTEX
  8
0
  5
2006
 10
264.049
 20
76.9893
 30
0.000000
  70
    32
  0
VERTEX
  8
0
  5
2007
 10
264.054
 20
76.9815
 30
0.000000
  70
    32
  0
VERTEX
  8
0
  5
2008
 10
264.058
 20
76.9738
 30
0.000000
  70
    32
  0
VERTEX
  8
0
  5
2009
 10
264.063
 20
76.9660
 30
0.000000
  70
    32
  0
VERTEX
  8
0
  5
200A
 10
264.067
 20
76.9583
 30
0.000000
  70
    32
  0
VERTEX
  8
0
  5
200B
 10
264.072
 20
76.9506
 30
0.000000
  70
    32
  0
VERTEX
  8
0
  5
200C
 10
264.076
 20
76.9429
 30
0.000000
  70
    32
  0
VERTEX
  8
0
  5
200D
 10
264.081
 20
76.9353
 30
0.000000
  70
    32
  0
VERTEX
  8
0
  5
200E
 10
264.085
 20
76.9276
 30
0.000000
  70
    32
  0
VERTEX
  8
0
  5
200F
 10
264.090
 20
76.9200
 30
0.000000
  70
    32
  0
VERTEX
  8
0
  5
2010
 10
264.094
 20
76.9125
 30
0.000000
  70
    32
  0
VERTEX
  8
0
  5
2011
 10
264.099
 20
76.9049
 30
0.000000
  70
    32
  0
VERTEX
  8
0
  5
2012
 10
264.103
 20
76.8974
 30
0.000000
  70
    32
  0
VERTEX
  8
0
  5
2013
 10
264.108
 20
76.8899
 30
0.000000
  70
    32
  0
VERTEX
  8
0
  5
2014
 10
264.112
 20
76.8824
 30
0.000000
  70
    32
  0
VERTEX
  8
0
  5
2015
 10
264.117
 20
76.8749
 30
0.000000
  70
    32
  0
VERTEX
  8
0
  5
2016
 10
264.121
 20
76.8675
 30
0.000000
  70
    32
  0
VERTEX
  8
0
  5
2017
 10
264.126
 20
76.8601
 30
0.000000
  70
    32
  0
SEQEND
  8
0
  5
2018
  0
POLYLINE
  5
197F
  8
0
 66
     1
 10
0.0
 20
0.0
 30
0.0
  0
VERTEX
  5
1BE6
  8
0
 10
264.1224562638825
 20
76.865758187389076
 30
0.0
  0
VERTEX
  5
1BE7
  8
0
 10
264.25759531769239
 20
76.650276896828814
 30
0.0
  0
VERTEX
  5
1BE8
  8
0
 10
264.55186083120458
 20
76.206849026173757
 30
0.0
  0
VERTEX
  5
1BE9
  8
0
 10
264.86242908006818
 20
75.772415531169372
 30
0.0
  0
VERTEX
  5
1BEA
  8
0
 10
265.18886722903238
 20
75.347754054864993
 30
0.0
  0
VERTEX
  5
1BEB
  8
0
 10
265.53072395303411
 20
74.933595718297738
 30
0.0
  0
VERTEX
  5
1BEC
  8
0
 10
265.8875318540243
 20
74.530627273013351
 30
0.0
  0
VERTEX
  5
1BED
  8
0
 10
266.25880911264841
 20
74.139493952953273
 30
0.0
  0
VERTEX
  5
1BEE
  8
0
 10
266.64406060721711
 20
73.760802456287593
 30
0.0
  0
VERTEX
  5
1BEF
  8
0
 10
267.04277868094073
 20
73.395123750712685
 30
0.0
  0
VERTEX
  5
1BF0
  8
0
 10
267.45444369005259
 20
73.042995559183893
 30
0.0
  0
VERTEX
  5
1BF1
  8
0
 10
267.92688321406882
 20
72.667871405420954
 30
0.0
  0
VERTEX
  5
1BF2
  8
0
 10
268.41343918908501
 20
72.311140520877174
 30
0.0
  0
VERTEX
  5
1BF3
  8
0
 10
268.91192194644327
 20
71.974255942000809
 30
0.0
  0
VERTEX
  5
1BF4
  8
0
 10
269.4214638798735
 20
71.657539498099311
 30
0.0
  0
VERTEX
  5
1BF5
  8
0
 10
269.94123723129047
 20
71.361253550579477
 30
0.0
  0
VERTEX
  5
1BF6
  8
0
 10
270.47041789372298
 20
71.085629773079802
 30
0.0
  0
VERTEX
  5
1BF7
  8
0
 10
271.00818406082777
 20
70.830870777774905
 30
0.0
  0
VERTEX
  5
1BF8
  8
0
 10
271.55371598927547
 20
70.597150794997845
 30
0.0
  0
VERTEX
  5
1BF9
  8
0
 10
272.1061959726315
 20
70.384616117177984
 30
0.0
  0
VERTEX
  5
1BFA
  8
0
 10
272.66480847518761
 20
70.193385389391835
 30
0.0
  0
VERTEX
  5
1BFB
  8
0
 10
273.22874039849938
 20
70.023549797506689
 30
0.0
  0
VERTEX
  5
1BFC
  8
0
 10
273.7971814577528
 20
69.875173191114811
 30
0.0
  0
VERTEX
  5
1BFD
  8
0
 10
274.36932464861218
 20
69.748292168397597
 30
0.0
  0
VERTEX
  5
1BFE
  8
0
 10
274.94436678821791
 20
69.642916142610943
 30
0.0
  0
VERTEX
  5
1BFF
  8
0
 10
275.52150911655139
 20
69.559027404355902
 30
0.0
  0
VERTEX
  5
1C00
  8
0
 10
276.09995794651451
 20
69.496581189690104
 30
0.0
  0
VERTEX
  5
1C01
  8
0
 10
276.67892535283198
 20
69.455505761065794
 30
0.0
  0
VERTEX
  5
1C02
  8
0
 10
277.25762989134182
 20
69.435702505769086
 30
0.0
  0
VERTEX
  5
1C03
  8
0
 10
277.83529734142297
 20
69.43704605477518
 30
0.0
  0
VERTEX
  5
1C04
  8
0
 10
278.41116124093298
 20
69.459384410773154
 30
0.0
  0
VERTEX
  5
1C05
  8
0
 10
278.98446083805089
 20
69.502538806700841
 30
0.0
  0
VERTEX
  5
1C06
  8
0
 10
279.55444823662123
 20
69.566304161795813
 30
0.0
  0
VERTEX
  5
1C07
  8
0
 10
280.1203858307498
 20
69.650449333887991
 30
0.0
  0
VERTEX
  5
1C08
  8
0
 10
280.68154708296009
 20
69.754717337347586
 30
0.0
  0
VERTEX
  5
1C09
  8
0
 10
281.23721729781943
 20
69.878825577378848
 30
0.0
  0
VERTEX
  5
1C0A
  8
0
 10
281.78669438713291
 20
70.022466097231984
 30
0.0
  0
VERTEX
  5
1C0B
  8
0
 10
282.32928962381249
 20
70.185305834226014
 30
0.0
  0
VERTEX
  5
1C0C
  8
0
 10
282.864328381745
 20
70.366986879699425
 30
0.0
  0
VERTEX
  5
1C0D
  8
0
 10
283.39115085914989
 20
70.567126737123644
 30
0.0
  0
VERTEX
  5
1C0E
  8
0
 10
283.9091127830963
 20
70.785318571593507
 30
0.0
  0
VERTEX
  5
1C0F
  8
0
 10
284.4175860930265
 20
71.021131442722947
 30
0.0
  0
VERTEX
  5
1C10
  8
0
 10
284.91595960136198
 20
71.27411051159504
 30
0.0
  0
VERTEX
  5
1C11
  8
0
 10
285.40363962955882
 20
71.543777210819371
 30
0.0
  0
VERTEX
  5
1C12
  8
0
 10
285.88005061843131
 20
71.829629364948175
 30
0.0
  0
VERTEX
  5
1C13
  8
0
 10
286.34463571219101
 20
72.13114124650383
 30
0.0
  0
VERTEX
  5
1C14
  8
0
 10
286.79685731665188
 20
72.447763550786476
 30
0.0
  0
VERTEX
  5
1C15
  8
0
 10
287.23619763350621
 20
72.778923270630401
 30
0.0
  0
VERTEX
  5
1C16
  8
0
 10
287.66215917480929
 20
73.124023450754521
 30
0.0
  0
VERTEX
  5
1C17
  8
0
 10
288.07426526506998
 20
73.482442800943772
 30
0.0
  0
VERTEX
  5
1C18
  8
0
 10
288.47206054314819
 20
73.853535149180175
 30
0.0
  0
VERTEX
  5
1C19
  8
0
 10
288.85511148306699
 20
74.236628721907209
 30
0.0
  0
VERTEX
  5
1C1A
  8
0
 10
289.22300696263233
 20
74.631025252025495
 30
0.0
  0
VERTEX
  5
1C1B
  8
0
 10
289.57535892228418
 20
75.035998940955324
 30
0.0
  0
VERTEX
  5
1C1C
  8
0
 10
289.91180317472651
 20
75.450795346961627
 30
0.0
  0
VERTEX
  5
1C1D
  8
0
 10
290.23200044903871
 20
75.874630349569941
 30
0.0
  0
VERTEX
  5
1C1E
  8
0
 10
290.53563778040183
 20
76.306689466131957
 30
0.0
  0
VERTEX
  5
1C1F
  8
0
 10
290.82243038467573
 20
76.746127993981574
 30
0.0
  0
VERTEX
  5
1C20
  8
0
 10
291.09212417646688
 20
77.19207274703075
 30
0.0
  0
VERTEX
  5
1C21
  8
0
 10
291.3444990797712
 20
77.643626572949302
 30
0.0
  0
VERTEX
  5
1C22
  8
0
 10
291.57937320233799
 20
78.099877375995561
 30
0.0
  0
VERTEX
  5
1C23
  8
0
 10
291.79660772800469
 20
78.559913955023774
 30
0.0
  0
VERTEX
  5
1C24
  8
0
 10
291.99611190802148
 20
79.022851325841998
 30
0.0
  0
VERTEX
  5
1C25
  8
0
 10
292.17784662332161
 20
79.487867602925462
 30
0.0
  0
VERTEX
  5
1C26
  8
0
 10
292.34182340378362
 20
79.954251190467403
 30
0.0
  0
VERTEX
  5
1C27
  8
0
 10
292.48809330645298
 20
80.421446864761904
 30
0.0
  0
VERTEX
  5
1C28
  8
0
 10
292.61671691150201
 20
80.889063438489515
 30
0.0
  0
VERTEX
  5
1C29
  8
0
 10
292.72770549678012
 20
81.356748711817772
 30
0.0
  0
VERTEX
  5
1C2A
  8
0
 10
292.82093582689532
 20
81.823745677505656
 30
0.0
  0
VERTEX
  5
1C2B
  8
0
 10
292.89610059760861
 20
82.28795064121266
 30
0.0
  0
VERTEX
  5
1C2C
  8
0
 10
292.95288683781968
 20
82.744982770664123
 30
0.0
  0
VERTEX
  5
1C2D
  8
0
 10
292.99152879372161
 20
83.189473485130634
 30
0.0
  0
VERTEX
  5
1C2E
  8
0
 10
293.01317386021418
 20
83.619747201012856
 30
0.0
  0
VERTEX
  5
1C2F
  8
0
 10
293.01922203871379
 20
84.041160640544717
 30
0.0
  0
VERTEX
  5
1C30
  8
0
 10
293.01015423573358
 20
84.464737274130584
 30
0.0
  0
VERTEX
  5
1C31
  8
0
 10
292.98498415552399
 20
84.901195885505317
 30
0.0
  0
VERTEX
  5
1C32
  8
0
 10
292.94107205956158
 20
85.362562671040109
 30
0.0
  0
VERTEX
  5
1C33
  8
0
 10
292.87398800979872
 20
85.860388123616019
 30
0.0
  0
VERTEX
  5
1C34
  8
0
 10
292.79102495108378
 20
86.336006471711812
 30
0.0
  0
VERTEX
  5
1C35
  8
0
 10
292.68797700738389
 20
86.819376680914104
 30
0.0
  0
VERTEX
  5
1C36
  8
0
 10
292.56554818576149
 20
87.304767730052617
 30
0.0
  0
VERTEX
  5
1C37
  8
0
 10
292.42422448277671
 20
87.789616630445593
 30
0.0
  0
VERTEX
  5
1C38
  8
0
 10
292.26426130392849
 20
88.272784663143057
 30
0.0
  0
VERTEX
  5
1C39
  8
0
 10
292.08581440407528
 20
88.753510270498452
 30
0.0
  0
VERTEX
  5
1C3A
  8
0
 10
291.88903157256033
 20
89.231034285778946
 30
0.0
  0
VERTEX
  5
1C3B
  8
0
 10
291.67409654531468
 20
89.704518890327961
 30
0.0
  0
VERTEX
  5
1C3C
  8
0
 10
291.44124362658152
 20
90.173063776369702
 30
0.0
  0
VERTEX
  5
1C3D
  8
0
 10
291.19075762357409
 20
90.635742983076327
 30
0.0
  0
VERTEX
  5
1C3E
  8
0
 10
290.92296779111859
 20
91.091637053045375
 30
0.0
  0
VERTEX
  5
1C3F
  8
0
 10
290.6382403293843
 20
91.539854772218234
 30
0.0
  0
VERTEX
  5
1C40
  8
0
 10
290.33697149392862
 20
91.979545454023366
 30
0.0
  0
VERTEX
  5
1C41
  8
0
 10
290.01958203420241
 20
92.409904389314761
 30
0.0
  0
VERTEX
  5
1C42
  8
0
 10
289.68651302534391
 20
92.830173956896019
 30
0.0
  0
VERTEX
  5
1C43
  8
0
 10
289.33822289132883
 20
93.239642276358026
 30
0.0
  0
VERTEX
  5
1C44
  8
0
 10
288.97518534590102
 20
93.637640665682284
 30
0.0
  0
VERTEX
  5
1C45
  8
0
 10
288.59788799353009
 20
94.023540682288854
 30
0.0
  0
VERTEX
  5
1C46
  8
0
 10
288.20683137957752
 20
94.396751190394866
 30
0.0
  0
VERTEX
  5
1C47
  8
0
 10
287.80252833019091
 20
94.756715681301557
 30
0.0
  0
VERTEX
  5
1C48
  8
0
 10
287.38550346734911
 20
95.102909942115673
 30
0.0
  0
VERTEX
  5
1C49
  8
0
 10
286.90806375782739
 20
95.470679946196412
 30
0.0
  0
VERTEX
  5
1C4A
  8
0
 10
286.4168676739846
 20
95.819860630564165
 30
0.0
  0
VERTEX
  5
1C4B
  8
0
 10
285.91406450335188
 20
96.149076720574044
 30
0.0
  0
VERTEX
  5
1C4C
  8
0
 10
285.40051831385762
 20
96.458021049594606
 30
0.0
  0
VERTEX
  5
1C4D
  8
0
 10
284.87705567541769
 20
96.746442939291796
 30
0.0
  0
VERTEX
  5
1C4E
  8
0
 10
284.34449978328468
 20
97.014121905905654
 30
0.0
  0
VERTEX
  5
1C4F
  8
0
 10
283.8036716417331
 20
97.260866239471056
 30
0.0
  0
VERTEX
  5
1C50
  8
0
 10
283.25539022259068
 20
97.486512420414314
 30
0.0
  0
VERTEX
  5
1C51
  8
0
 10
282.70047242696171
 20
97.690924741151264
 30
0.0
  0
VERTEX
  5
1C52
  8
0
 10
282.13973289778107
 20
97.873995059801359
 30
0.0
  0
VERTEX
  5
1C53
  8
0
 10
281.57398370884488
 20
98.035642640720312
 30
0.0
  0
VERTEX
  5
1C54
  8
0
 10
281.0040339517833
 20
98.175814048852445
 30
0.0
  0
VERTEX
  5
1C55
  8
0
 10
280.43068923911858
 20
98.294483073871277
 30
0.0
  0
VERTEX
  5
1C56
  8
0
 10
279.85475113871661
 20
98.391650666725013
 30
0.0
  0
VERTEX
  5
1C57
  8
0
 10
279.27701655254748
 20
98.467344876136053
 30
0.0
  0
VERTEX
  5
1C58
  8
0
 10
278.69827705069861
 20
98.521620776276464
 30
0.0
  0
VERTEX
  5
1C59
  8
0
 10
278.11931816994411
 20
98.554560379592786
 30
0.0
  0
VERTEX
  5
1C5A
  8
0
 10
277.54091868482112
 20
98.566272530833317
 30
0.0
  0
VERTEX
  5
1C5B
  8
0
 10
276.96384985806429
 20
98.556892779924397
 30
0.0
  0
VERTEX
  5
1C5C
  8
0
 10
276.38887624000381
 20
98.526583343558457
 30
0.0
  0
VERTEX
  5
1C5D
  8
0
 10
275.8167536718791
 20
98.475533087904978
 30
0.0
  0
VERTEX
  5
1C5E
  8
0
 10
275.24822621175258
 20
98.403957069736464
 30
0.0
  0
VERTEX
  5
1C5F
  8
0
 10
274.68402733078921
 20
98.312096326152073
 30
0.0
  0
VERTEX
  5
1C60
  8
0
 10
274.12487913552673
 20
98.200217650002855
 30
0.0
  0
VERTEX
  5
1C61
  8
0
 10
273.57149159711417
 20
98.068613350225689
 30
0.0
  0
VERTEX
  5
1C62
  8
0
 10
273.02456179011432
 20
97.917601000742536
 30
0.0
  0
VERTEX
  5
1C63
  8
0
 10
272.48477314367409
 20
97.747523182316115
 30
0.0
  0
VERTEX
  5
1C64
  8
0
 10
271.95279470767412
 20
97.558747222567945
 30
0.0
  0
VERTEX
  5
1C65
  8
0
 10
271.42928043630019
 20
97.351664940296473
 30
0.0
  0
VERTEX
  5
1C66
  8
0
 10
270.91486849129871
 20
97.126692401311857
 30
0.0
  0
VERTEX
  5
1C67
  8
0
 10
270.4101805669913
 20
96.884269694261775
 30
0.0
  0
VERTEX
  5
1C68
  8
0
 10
269.91582123887213
 20
96.624860736384221
 30
0.0
  0
VERTEX
  5
1C69
  8
0
 10
269.43237733726528
 20
96.348953120794363
 30
0.0
  0
VERTEX
  5
1C6A
  8
0
 10
268.9604173470201
 20
96.057058018803446
 30
0.0
  0
VERTEX
  5
1C6B
  8
0
 10
268.50049083345561
 20
95.749710152804013
 30
0.0
  0
VERTEX
  5
1C6C
  8
0
 10
268.05312789361949
 20
95.427467857345917
 30
0.0
  0
VERTEX
  5
1C6D
  8
0
 10
267.61883863020682
 20
95.090913247897547
 30
0.0
  0
VERTEX
  5
1C6E
  8
0
 10
267.19811264290411
 20
94.740652517987144
 30
0.0
  0
VERTEX
  5
1C6F
  8
0
 10
266.7914185281345
 20
94.377316385119002
 30
0.0
  0
VERTEX
  5
1C70
  8
0
 10
266.39920337265141
 20
94.001560702663255
 30
0.0
  0
VERTEX
  5
1C71
  8
0
 10
266.02189221852592
 20
93.614067246504874
 30
0.0
  0
VERTEX
  5
1C72
  8
0
 10
265.65988746595542
 20
93.215544667828851
 30
0.0
  0
VERTEX
  5
1C73
  8
0
 10
265.31356816513198
 20
92.806729571105564
 30
0.0
  0
VERTEX
  5
1C74
  8
0
 10
264.98328912837292
 20
92.388387619978289
 30
0.0
  0
VERTEX
  5
1C75
  8
0
 10
264.66937976872669
 20
91.961314479853456
 30
0.0
  0
VERTEX
  5
1C76
  8
0
 10
264.37214254293713
 20
91.526336255576396
 30
0.0
  0
VERTEX
  5
1C77
  8
0
 10
264.1221242101995
 20
91.133702371632367
 30
0.0
  0
SEQEND
  5
1C78
  8
0
  0
POLYLINE
  5
1980
  8
0
 10
264.12594343689608
 20
76.860096122614237
 30
0.0
 66
     1
 70
     8
  0
VERTEX
  8
0
  5
2019
 10
264.126
 20
76.8601
 30
0.000000
  70
    32
  0
VERTEX
  8
0
  5
201A
 10
264.206
 20
76.7352
 30
0.000000
  70
    32
  0
VERTEX
  8
0
  5
201B
 10
264.287
 20
76.6180
 30
0.000000
  70
    32
  0
VERTEX
  8
0
  5
201C
 10
264.370
 20
76.5085
 30
0.000000
  70
    32
  0
VERTEX
  8
0
  5
201D
 10
264.454
 20
76.4070
 30
0.000000
  70
    32
  0
VERTEX
  8
0
  5
201E
 10
264.538
 20
76.3134
 30
0.000000
  70
    32
  0
VERTEX
  8
0
  5
201F
 10
264.624
 20
76.2279
 30
0.000000
  70
    32
  0
VERTEX
  8
0
  5
2020
 10
264.711
 20
76.1507
 30
0.000000
  70
    32
  0
VERTEX
  8
0
  5
2021
 10
264.799
 20
76.0817
 30
0.000000
  70
    32
  0
VERTEX
  8
0
  5
2022
 10
264.887
 20
76.0210
 30
0.000000
  70
    32
  0
VERTEX
  8
0
  5
2023
 10
264.976
 20
75.9688
 30
0.000000
  70
    32
  0
VERTEX
  8
0
  5
2024
 10
265.065
 20
75.9250
 30
0.000000
  70
    32
  0
VERTEX
  8
0
  5
2025
 10
265.155
 20
75.8897
 30
0.000000
  70
    32
  0
VERTEX
  8
0
  5
2026
 10
265.245
 20
75.8630
 30
0.000000
  70
    32
  0
VERTEX
  8
0
  5
2027
 10
265.336
 20
75.8449
 30
0.000000
  70
    32
  0
VERTEX
  8
0
  5
2028
 10
265.426
 20
75.8353
 30
0.000000
  70
    32
  0
VERTEX
  8
0
  5
2029
 10
265.517
 20
75.8343
 30
0.000000
  70
    32
  0
VERTEX
  8
0
  5
202A
 10
265.608
 20
75.8420
 30
0.000000
  70
    32
  0
VERTEX
  8
0
  5
202B
 10
265.698
 20
75.8583
 30
0.000000
  70
    32
  0
VERTEX
  8
0
  5
202C
 10
265.788
 20
75.8831
 30
0.000000
  70
    32
  0
VERTEX
  8
0
  5
202D
 10
265.878
 20
75.9165
 30
0.000000
  70
    32
  0
VERTEX
  8
0
  5
202E
 10
265.968
 20
75.9584
 30
0.000000
  70
    32
  0
VERTEX
  8
0
  5
202F
 10
266.057
 20
76.0088
 30
0.000000
  70
    32
  0
VERTEX
  8
0
  5
2030
 10
266.145
 20
76.0676
 30
0.000000
  70
    32
  0
VERTEX
  8
0
  5
2031
 10
266.233
 20
76.1347
 30
0.000000
  70
    32
  0
VERTEX
  8
0
  5
2032
 10
266.320
 20
76.2102
 30
0.000000
  70
    32
  0
VERTEX
  8
0
  5
2033
 10
266.406
 20
76.2938
 30
0.000000
  70
    32
  0
VERTEX
  8
0
  5
2034
 10
266.491
 20
76.3856
 30
0.000000
  70
    32
  0
VERTEX
  8
0
  5
2035
 10
266.575
 20
76.4854
 30
0.000000
  70
    32
  0
VERTEX
  8
0
  5
2036
 10
266.658
 20
76.5931
 30
0.000000
  70
    32
  0
VERTEX
  8
0
  5
2037
 10
266.739
 20
76.7086
 30
0.000000
  70
    32
  0
VERTEX
  8
0
  5
2038
 10
266.820
 20
76.8319
 30
0.000000
  70
    32
  0
VERTEX
  8
0
  5
2039
 10
266.899
 20
76.9626
 30
0.000000
  70
    32
  0
VERTEX
  8
0
  5
203A
 10
266.976
 20
77.1008
 30
0.000000
  70
    32
  0
VERTEX
  8
0
  5
203B
 10
267.052
 20
77.2463
 30
0.000000
  70
    32
  0
VERTEX
  8
0
  5
203C
 10
267.126
 20
77.3988
 30
0.000000
  70
    32
  0
VERTEX
  8
0
  5
203D
 10
267.198
 20
77.5583
 30
0.000000
  70
    32
  0
VERTEX
  8
0
  5
203E
 10
267.269
 20
77.7247
 30
0.000000
  70
    32
  0
VERTEX
  8
0
  5
203F
 10
267.338
 20
77.8976
 30
0.000000
  70
    32
  0
VERTEX
  8
0
  5
2040
 10
267.404
 20
78.0769
 30
0.000000
  70
    32
  0
VERTEX
  8
0
  5
2041
 10
267.469
 20
78.2625
 30
0.000000
  70
    32
  0
VERTEX
  8
0
  5
2042
 10
267.532
 20
78.4542
 30
0.000000
  70
    32
  0
VERTEX
  8
0
  5
2043
 10
267.592
 20
78.6517
 30
0.000000
  70
    32
  0
VERTEX
  8
0
  5
2044
 10
267.651
 20
78.8548
 30
0.000000
  70
    32
  0
VERTEX
  8
0
  5
2045
 10
267.706
 20
79.0633
 30
0.000000
  70
    32
  0
VERTEX
  8
0
  5
2046
 10
267.760
 20
79.2771
 30
0.000000
  70
    32
  0
VERTEX
  8
0
  5
2047
 10
267.811
 20
79.4958
 30
0.000000
  70
    32
  0
VERTEX
  8
0
  5
2048
 10
267.860
 20
79.7193
 30
0.000000
  70
    32
  0
VERTEX
  8
0
  5
2049
 10
267.906
 20
79.9473
 30
0.000000
  70
    32
  0
VERTEX
  8
0
  5
204A
 10
267.950
 20
80.1795
 30
0.000000
  70
    32
  0
VERTEX
  8
0
  5
204B
 10
267.991
 20
80.4158
 30
0.000000
  70
    32
  0
VERTEX
  8
0
  5
204C
 10
268.030
 20
80.6559
 30
0.000000
  70
    32
  0
VERTEX
  8
0
  5
204D
 10
268.065
 20
80.8995
 30
0.000000
  70
    32
  0
VERTEX
  8
0
  5
204E
 10
268.099
 20
81.1463
 30
0.000000
  70
    32
  0
VERTEX
  8
0
  5
204F
 10
268.129
 20
81.3962
 30
0.000000
  70
    32
  0
VERTEX
  8
0
  5
2050
 10
268.156
 20
81.6488
 30
0.000000
  70
    32
  0
VERTEX
  8
0
  5
2051
 10
268.181
 20
81.9038
 30
0.000000
  70
    32
  0
VERTEX
  8
0
  5
2052
 10
268.203
 20
82.1611
 30
0.000000
  70
    32
  0
VERTEX
  8
0
  5
2053
 10
268.222
 20
82.4204
 30
0.000000
  70
    32
  0
VERTEX
  8
0
  5
2054
 10
268.238
 20
82.6812
 30
0.000000
  70
    32
  0
VERTEX
  8
0
  5
2055
 10
268.251
 20
82.9435
 30
0.000000
  70
    32
  0
VERTEX
  8
0
  5
2056
 10
268.261
 20
83.2069
 30
0.000000
  70
    32
  0
VERTEX
  8
0
  5
2057
 10
268.269
 20
83.4712
 30
0.000000
  70
    32
  0
VERTEX
  8
0
  5
2058
 10
268.273
 20
83.7359
 30
0.000000
  70
    32
  0
VERTEX
  8
0
  5
2059
 10
268.275
 20
84.0010
 30
0.000000
  70
    32
  0
VERTEX
  8
0
  5
205A
 10
268.273
 20
84.2661
 30
0.000000
  70
    32
  0
VERTEX
  8
0
  5
205B
 10
268.269
 20
84.5309
 30
0.000000
  70
    32
  0
VERTEX
  8
0
  5
205C
 10
268.261
 20
84.7951
 30
0.000000
  70
    32
  0
VERTEX
  8
0
  5
205D
 10
268.251
 20
85.0585
 30
0.000000
  70
    32
  0
VERTEX
  8
0
  5
205E
 10
268.238
 20
85.3207
 30
0.000000
  70
    32
  0
VERTEX
  8
0
  5
205F
 10
268.222
 20
85.5816
 30
0.000000
  70
    32
  0
VERTEX
  8
0
  5
2060
 10
268.203
 20
85.8408
 30
0.000000
  70
    32
  0
VERTEX
  8
0
  5
2061
 10
268.181
 20
86.0981
 30
0.000000
  70
    32
  0
VERTEX
  8
0
  5
2062
 10
268.156
 20
86.3532
 30
0.000000
  70
    32
  0
VERTEX
  8
0
  5
2063
 10
268.129
 20
86.6057
 30
0.000000
  70
    32
  0
VERTEX
  8
0
  5
2064
 10
268.098
 20
86.8556
 30
0.000000
  70
    32
  0
VERTEX
  8
0
  5
2065
 10
268.065
 20
87.1024
 30
0.000000
  70
    32
  0
VERTEX
  8
0
  5
2066
 10
268.029
 20
87.3460
 30
0.000000
  70
    32
  0
VERTEX
  8
0
  5
2067
 10
267.991
 20
87.5860
 30
0.000000
  70
    32
  0
VERTEX
  8
0
  5
2068
 10
267.950
 20
87.8222
 30
0.000000
  70
    32
  0
VERTEX
  8
0
  5
2069
 10
267.906
 20
88.0545
 30
0.000000
  70
    32
  0
VERTEX
  8
0
  5
206A
 10
267.860
 20
88.2824
 30
0.000000
  70
    32
  0
VERTEX
  8
0
  5
206B
 10
267.811
 20
88.5059
 30
0.000000
  70
    32
  0
VERTEX
  8
0
  5
206C
 10
267.760
 20
88.7245
 30
0.000000
  70
    32
  0
VERTEX
  8
0
  5
206D
 10
267.706
 20
88.9383
 30
0.000000
  70
    32
  0
VERTEX
  8
0
  5
206E
 10
267.650
 20
89.1468
 30
0.000000
  70
    32
  0
VERTEX
  8
0
  5
206F
 10
267.592
 20
89.3498
 30
0.000000
  70
    32
  0
VERTEX
  8
0
  5
2070
 10
267.531
 20
89.5473
 30
0.000000
  70
    32
  0
VERTEX
  8
0
  5
2071
 10
267.469
 20
89.7389
 30
0.000000
  70
    32
  0
VERTEX
  8
0
  5
2072
 10
267.404
 20
89.9244
 30
0.000000
  70
    32
  0
VERTEX
  8
0
  5
2073
 10
267.337
 20
90.1038
 30
0.000000
  70
    32
  0
VERTEX
  8
0
  5
2074
 10
267.268
 20
90.2766
 30
0.000000
  70
    32
  0
VERTEX
  8
0
  5
2075
 10
267.198
 20
90.4429
 30
0.000000
  70
    32
  0
VERTEX
  8
0
  5
2076
 10
267.125
 20
90.6024
 30
0.000000
  70
    32
  0
VERTEX
  8
0
  5
2077
 10
267.051
 20
90.7549
 30
0.000000
  70
    32
  0
VERTEX
  8
0
  5
2078
 10
266.975
 20
90.9003
 30
0.000000
  70
    32
  0
VERTEX
  8
0
  5
2079
 10
266.898
 20
91.0384
 30
0.000000
  70
    32
  0
VERTEX
  8
0
  5
207A
 10
266.819
 20
91.1691
 30
0.000000
  70
    32
  0
VERTEX
  8
0
  5
207B
 10
266.739
 20
91.2923
 30
0.000000
  70
    32
  0
VERTEX
  8
0
  5
207C
 10
266.657
 20
91.4077
 30
0.000000
  70
    32
  0
VERTEX
  8
0
  5
207D
 10
266.574
 20
91.5154
 30
0.000000
  70
    32
  0
VERTEX
  8
0
  5
207E
 10
266.490
 20
91.6151
 30
0.000000
  70
    32
  0
VERTEX
  8
0
  5
207F
 10
266.405
 20
91.7068
 30
0.000000
  70
    32
  0
VERTEX
  8
0
  5
2080
 10
266.319
 20
91.7904
 30
0.000000
  70
    32
  0
VERTEX
  8
0
  5
2081
 10
266.232
 20
91.8658
 30
0.000000
  70
    32
  0
VERTEX
  8
0
  5
2082
 10
266.145
 20
91.9329
 30
0.000000
  70
    32
  0
VERTEX
  8
0
  5
2083
 10
266.056
 20
91.9917
 30
0.000000
  70
    32
  0
VERTEX
  8
0
  5
2084
 10
265.967
 20
92.0420
 30
0.000000
  70
    32
  0
VERTEX
  8
0
  5
2085
 10
265.878
 20
92.0838
 30
0.000000
  70
    32
  0
VERTEX
  8
0
  5
2086
 10
265.788
 20
92.1171
 30
0.000000
  70
    32
  0
VERTEX
  8
0
  5
2087
 10
265.697
 20
92.1419
 30
0.000000
  70
    32
  0
VERTEX
  8
0
  5
2088
 10
265.607
 20
92.1581
 30
0.000000
  70
    32
  0
VERTEX
  8
0
  5
2089
 10
265.516
 20
92.1657
 30
0.000000
  70
    32
  0
VERTEX
  8
0
  5
208A
 10
265.426
 20
92.1647
 30
0.000000
  70
    32
  0
VERTEX
  8
0
  5
208B
 10
265.335
 20
92.1550
 30
0.000000
  70
    32
  0
VERTEX
  8
0
  5
208C
 10
265.244
 20
92.1368
 30
0.000000
  70
    32
  0
VERTEX
  8
0
  5
208D
 10
265.154
 20
92.1100
 30
0.000000
  70
    32
  0
VERTEX
  8
0
  5
208E
 10
265.064
 20
92.0747
 30
0.000000
  70
    32
  0
VERTEX
  8
0
  5
208F
 10
264.975
 20
92.0309
 30
0.000000
  70
    32
  0
VERTEX
  8
0
  5
2090
 10
264.886
 20
91.9786
 30
0.000000
  70
    32
  0
VERTEX
  8
0
  5
2091
 10
264.798
 20
91.9178
 30
0.000000
  70
    32
  0
VERTEX
  8
0
  5
2092
 10
264.710
 20
91.8488
 30
0.000000
  70
    32
  0
VERTEX
  8
0
  5
2093
 10
264.624
 20
91.7714
 30
0.000000
  70
    32
  0
VERTEX
  8
0
  5
2094
 10
264.538
 20
91.6859
 30
0.000000
  70
    32
  0
VERTEX
  8
0
  5
2095
 10
264.453
 20
91.5923
 30
0.000000
  70
    32
  0
VERTEX
  8
0
  5
2096
 10
264.369
 20
91.4907
 30
0.000000
  70
    32
  0
VERTEX
  8
0
  5
2097
 10
264.287
 20
91.3812
 30
0.000000
  70
    32
  0
VERTEX
  8
0
  5
2098
 10
264.205
 20
91.2639
 30
0.000000
  70
    32
  0
VERTEX
  8
0
  5
2099
 10
264.125
 20
91.1389
 30
0.000000
  70
    32
  0
SEQEND
  8
0
  5
209A
  0
LINE
  5
1981
  8
1
 10
153.0
 20
84.0
 30
0.0
 11
298.01914622828019
 21
84.0
 31
0.0
  0
LINE
  5
1982
  8
1
 10
172.0
 20
65.0
 30
0.0
 11
172.0
 21
103.0
 31
0.0
  0
LINE
  5
1983
  8
1
 10
278.0
 20
64.439674594508332
 30
0.0
 11
278.0
 21
103.55800145657329
 31
0.0
  0
POLYLINE
  5
1984
  8
0
 10
265.48158134236763
 20
78.000000000000043
 30
0.0
 66
     1
 70
     8
  0
VERTEX
  8
0
  5
209B
 10
265.482
 20
78.0000
 30
0.000000
  70
    32
  0
VERTEX
  8
0
  5
209C
 10
265.532
 20
78.0018
 30
0.000000
  70
    32
  0
VERTEX
  8
0
  5
209D
 10
265.582
 20
78.0072
 30
0.000000
  70
    32
  0
VERTEX
  8
0
  5
209E
 10
265.633
 20
78.0163
 30
0.000000
  70
    32
  0
VERTEX
  8
0
  5
209F
 10
265.683
 20
78.0289
 30
0.000000
  70
    32
  0
VERTEX
  8
0
  5
20A0
 10
265.733
 20
78.0451
 30
0.000000
  70
    32
  0
VERTEX
  8
0
  5
20A1
 10
265.783
 20
78.0649
 30
0.000000
  70
    32
  0
VERTEX
  8
0
  5
20A2
 10
265.832
 20
78.0883
 30
0.000000
  70
    32
  0
VERTEX
  8
0
  5
20A3
 10
265.882
 20
78.1153
 30
0.000000
  70
    32
  0
VERTEX
  8
0
  5
20A4
 10
265.931
 20
78.1458
 30
0.000000
  70
    32
  0
VERTEX
  8
0
  5
20A5
 10
265.980
 20
78.1798
 30
0.000000
  70
    32
  0
VERTEX
  8
0
  5
20A6
 10
266.029
 20
78.2173
 30
0.000000
  70
    32
  0
VERTEX
  8
0
  5
20A7
 10
266.077
 20
78.2584
 30
0.000000
  70
    32
  0
VERTEX
  8
0
  5
20A8
 10
266.125
 20
78.3028
 30
0.000000
  70
    32
  0
VERTEX
  8
0
  5
20A9
 10
266.173
 20
78.3507
 30
0.000000
  70
    32
  0
VERTEX
  8
0
  5
20AA
 10
266.220
 20
78.4020
 30
0.000000
  70
    32
  0
VERTEX
  8
0
  5
20AB
 10
266.267
 20
78.4567
 30
0.000000
  70
    32
  0
VERTEX
  8
0
  5
20AC
 10
266.313
 20
78.5147
 30
0.000000
  70
    32
  0
VERTEX
  8
0
  5
20AD
 10
266.359
 20
78.5761
 30
0.000000
  70
    32
  0
VERTEX
  8
0
  5
20AE
 10
266.404
 20
78.6407
 30
0.000000
  70
    32
  0
VERTEX
  8
0
  5
20AF
 10
266.449
 20
78.7085
 30
0.000000
  70
    32
  0
VERTEX
  8
0
  5
20B0
 10
266.493
 20
78.7795
 30
0.000000
  70
    32
  0
VERTEX
  8
0
  5
20B1
 10
266.537
 20
78.8536
 30
0.000000
  70
    32
  0
VERTEX
  8
0
  5
20B2
 10
266.579
 20
78.9309
 30
0.000000
  70
    32
  0
VERTEX
  8
0
  5
20B3
 10
266.622
 20
79.0112
 30
0.000000
  70
    32
  0
VERTEX
  8
0
  5
20B4
 10
266.663
 20
79.0945
 30
0.000000
  70
    32
  0
VERTEX
  8
0
  5
20B5
 10
266.704
 20
79.1808
 30
0.000000
  70
    32
  0
VERTEX
  8
0
  5
20B6
 10
266.744
 20
79.2699
 30
0.000000
  70
    32
  0
VERTEX
  8
0
  5
20B7
 10
266.783
 20
79.3619
 30
0.000000
  70
    32
  0
VERTEX
  8
0
  5
20B8
 10
266.822
 20
79.4567
 30
0.000000
  70
    32
  0
VERTEX
  8
0
  5
20B9
 10
266.860
 20
79.5543
 30
0.000000
  70
    32
  0
VERTEX
  8
0
  5
20BA
 10
266.897
 20
79.6545
 30
0.000000
  70
    32
  0
VERTEX
  8
0
  5
20BB
 10
266.933
 20
79.7574
 30
0.000000
  70
    32
  0
VERTEX
  8
0
  5
20BC
 10
266.968
 20
79.8628
 30
0.000000
  70
    32
  0
VERTEX
  8
0
  5
20BD
 10
267.002
 20
79.9706
 30
0.000000
  70
    32
  0
VERTEX
  8
0
  5
20BE
 10
267.035
 20
80.0810
 30
0.000000
  70
    32
  0
VERTEX
  8
0
  5
20BF
 10
267.068
 20
80.1936
 30
0.000000
  70
    32
  0
VERTEX
  8
0
  5
20C0
 10
267.099
 20
80.3086
 30
0.000000
  70
    32
  0
VERTEX
  8
0
  5
20C1
 10
267.130
 20
80.4258
 30
0.000000
  70
    32
  0
VERTEX
  8
0
  5
20C2
 10
267.159
 20
80.5452
 30
0.000000
  70
    32
  0
VERTEX
  8
0
  5
20C3
 10
267.188
 20
80.6666
 30
0.000000
  70
    32
  0
VERTEX
  8
0
  5
20C4
 10
267.215
 20
80.7900
 30
0.000000
  70
    32
  0
VERTEX
  8
0
  5
20C5
 10
267.242
 20
80.9154
 30
0.000000
  70
    32
  0
VERTEX
  8
0
  5
20C6
 10
267.267
 20
81.0426
 30
0.000000
  70
    32
  0
VERTEX
  8
0
  5
20C7
 10
267.291
 20
81.1716
 30
0.000000
  70
    32
  0
VERTEX
  8
0
  5
20C8
 10
267.315
 20
81.3023
 30
0.000000
  70
    32
  0
VERTEX
  8
0
  5
20C9
 10
267.337
 20
81.4347
 30
0.000000
  70
    32
  0
VERTEX
  8
0
  5
20CA
 10
267.358
 20
81.5686
 30
0.000000
  70
    32
  0
VERTEX
  8
0
  5
20CB
 10
267.377
 20
81.7039
 30
0.000000
  70
    32
  0
VERTEX
  8
0
  5
20CC
 10
267.396
 20
81.8406
 30
0.000000
  70
    32
  0
VERTEX
  8
0
  5
20CD
 10
267.414
 20
81.9787
 30
0.000000
  70
    32
  0
VERTEX
  8
0
  5
20CE
 10
267.430
 20
82.1179
 30
0.000000
  70
    32
  0
VERTEX
  8
0
  5
20CF
 10
267.445
 20
82.2583
 30
0.000000
  70
    32
  0
VERTEX
  8
0
  5
20D0
 10
267.459
 20
82.3997
 30
0.000000
  70
    32
  0
VERTEX
  8
0
  5
20D1
 10
267.472
 20
82.5421
 30
0.000000
  70
    32
  0
VERTEX
  8
0
  5
20D2
 10
267.484
 20
82.6854
 30
0.000000
  70
    32
  0
VERTEX
  8
0
  5
20D3
 10
267.494
 20
82.8295
 30
0.000000
  70
    32
  0
VERTEX
  8
0
  5
20D4
 10
267.503
 20
82.9742
 30
0.000000
  70
    32
  0
VERTEX
  8
0
  5
20D5
 10
267.511
 20
83.1196
 30
0.000000
  70
    32
  0
VERTEX
  8
0
  5
20D6
 10
267.518
 20
83.2655
 30
0.000000
  70
    32
  0
VERTEX
  8
0
  5
20D7
 10
267.524
 20
83.4119
 30
0.000000
  70
    32
  0
VERTEX
  8
0
  5
20D8
 10
267.528
 20
83.5586
 30
0.000000
  70
    32
  0
VERTEX
  8
0
  5
20D9
 10
267.531
 20
83.7056
 30
0.000000
  70
    32
  0
VERTEX
  8
0
  5
20DA
 10
267.533
 20
83.8528
 30
0.000000
  70
    32
  0
VERTEX
  8
0
  5
20DB
 10
267.534
 20
84.0000
 30
0.000000
  70
    32
  0
VERTEX
  8
0
  5
20DC
 10
267.533
 20
84.1472
 30
0.000000
  70
    32
  0
VERTEX
  8
0
  5
20DD
 10
267.531
 20
84.2944
 30
0.000000
  70
    32
  0
VERTEX
  8
0
  5
20DE
 10
267.528
 20
84.4414
 30
0.000000
  70
    32
  0
VERTEX
  8
0
  5
20DF
 10
267.524
 20
84.5881
 30
0.000000
  70
    32
  0
VERTEX
  8
0
  5
20E0
 10
267.518
 20
84.7345
 30
0.000000
  70
    32
  0
VERTEX
  8
0
  5
20E1
 10
267.511
 20
84.8804
 30
0.000000
  70
    32
  0
VERTEX
  8
0
  5
20E2
 10
267.503
 20
85.0258
 30
0.000000
  70
    32
  0
VERTEX
  8
0
  5
20E3
 10
267.494
 20
85.1705
 30
0.000000
  70
    32
  0
VERTEX
  8
0
  5
20E4
 10
267.484
 20
85.3146
 30
0.000000
  70
    32
  0
VERTEX
  8
0
  5
20E5
 10
267.472
 20
85.4579
 30
0.000000
  70
    32
  0
VERTEX
  8
0
  5
20E6
 10
267.459
 20
85.6003
 30
0.000000
  70
    32
  0
VERTEX
  8
0
  5
20E7
 10
267.445
 20
85.7417
 30
0.000000
  70
    32
  0
VERTEX
  8
0
  5
20E8
 10
267.430
 20
85.8821
 30
0.000000
  70
    32
  0
VERTEX
  8
0
  5
20E9
 10
267.414
 20
86.0213
 30
0.000000
  70
    32
  0
VERTEX
  8
0
  5
20EA
 10
267.396
 20
86.1594
 30
0.000000
  70
    32
  0
VERTEX
  8
0
  5
20EB
 10
267.377
 20
86.2961
 30
0.000000
  70
    32
  0
VERTEX
  8
0
  5
20EC
 10
267.358
 20
86.4314
 30
0.000000
  70
    32
  0
VERTEX
  8
0
  5
20ED
 10
267.337
 20
86.5653
 30
0.000000
  70
    32
  0
VERTEX
  8
0
  5
20EE
 10
267.315
 20
86.6977
 30
0.000000
  70
    32
  0
VERTEX
  8
0
  5
20EF
 10
267.291
 20
86.8284
 30
0.000000
  70
    32
  0
VERTEX
  8
0
  5
20F0
 10
267.267
 20
86.9574
 30
0.000000
  70
    32
  0
VERTEX
  8
0
  5
20F1
 10
267.242
 20
87.0846
 30
0.000000
  70
    32
  0
VERTEX
  8
0
  5
20F2
 10
267.215
 20
87.2100
 30
0.000000
  70
    32
  0
VERTEX
  8
0
  5
20F3
 10
267.188
 20
87.3334
 30
0.000000
  70
    32
  0
VERTEX
  8
0
  5
20F4
 10
267.159
 20
87.4548
 30
0.000000
  70
    32
  0
VERTEX
  8
0
  5
20F5
 10
267.130
 20
87.5742
 30
0.000000
  70
    32
  0
VERTEX
  8
0
  5
20F6
 10
267.099
 20
87.6914
 30
0.000000
  70
    32
  0
VERTEX
  8
0
  5
20F7
 10
267.068
 20
87.8064
 30
0.000000
  70
    32
  0
VERTEX
  8
0
  5
20F8
 10
267.035
 20
87.9190
 30
0.000000
  70
    32
  0
VERTEX
  8
0
  5
20F9
 10
267.002
 20
88.0294
 30
0.000000
  70
    32
  0
VERTEX
  8
0
  5
20FA
 10
266.968
 20
88.1372
 30
0.000000
  70
    32
  0
VERTEX
  8
0
  5
20FB
 10
266.933
 20
88.2426
 30
0.000000
  70
    32
  0
VERTEX
  8
0
  5
20FC
 10
266.897
 20
88.3455
 30
0.000000
  70
    32
  0
VERTEX
  8
0
  5
20FD
 10
266.860
 20
88.4457
 30
0.000000
  70
    32
  0
VERTEX
  8
0
  5
20FE
 10
266.822
 20
88.5433
 30
0.000000
  70
    32
  0
VERTEX
  8
0
  5
20FF
 10
266.783
 20
88.6381
 30
0.000000
  70
    32
  0
VERTEX
  8
0
  5
2100
 10
266.744
 20
88.7301
 30
0.000000
  70
    32
  0
VERTEX
  8
0
  5
2101
 10
266.704
 20
88.8192
 30
0.000000
  70
    32
  0
VERTEX
  8
0
  5
2102
 10
266.663
 20
88.9055
 30
0.000000
  70
    32
  0
VERTEX
  8
0
  5
2103
 10
266.622
 20
88.9888
 30
0.000000
  70
    32
  0
VERTEX
  8
0
  5
2104
 10
266.579
 20
89.0691
 30
0.000000
  70
    32
  0
VERTEX
  8
0
  5
2105
 10
266.537
 20
89.1464
 30
0.000000
  70
    32
  0
VERTEX
  8
0
  5
2106
 10
266.493
 20
89.2205
 30
0.000000
  70
    32
  0
VERTEX
  8
0
  5
2107
 10
266.449
 20
89.2915
 30
0.000000
  70
    32
  0
VERTEX
  8
0
  5
2108
 10
266.404
 20
89.3593
 30
0.000000
  70
    32
  0
VERTEX
  8
0
  5
2109
 10
266.359
 20
89.4239
 30
0.000000
  70
    32
  0
VERTEX
  8
0
  5
210A
 10
266.313
 20
89.4853
 30
0.000000
  70
    32
  0
VERTEX
  8
0
  5
210B
 10
266.267
 20
89.5433
 30
0.000000
  70
    32
  0
VERTEX
  8
0
  5
210C
 10
266.220
 20
89.5980
 30
0.000000
  70
    32
  0
VERTEX
  8
0
  5
210D
 10
266.173
 20
89.6493
 30
0.000000
  70
    32
  0
VERTEX
  8
0
  5
210E
 10
266.125
 20
89.6972
 30
0.000000
  70
    32
  0
VERTEX
  8
0
  5
210F
 10
266.077
 20
89.7416
 30
0.000000
  70
    32
  0
VERTEX
  8
0
  5
2110
 10
266.029
 20
89.7827
 30
0.000000
  70
    32
  0
VERTEX
  8
0
  5
2111
 10
265.980
 20
89.8202
 30
0.000000
  70
    32
  0
VERTEX
  8
0
  5
2112
 10
265.931
 20
89.8542
 30
0.000000
  70
    32
  0
VERTEX
  8
0
  5
2113
 10
265.882
 20
89.8847
 30
0.000000
  70
    32
  0
VERTEX
  8
0
  5
2114
 10
265.832
 20
89.9117
 30
0.000000
  70
    32
  0
VERTEX
  8
0
  5
2115
 10
265.783
 20
89.9351
 30
0.000000
  70
    32
  0
VERTEX
  8
0
  5
2116
 10
265.733
 20
89.9549
 30
0.000000
  70
    32
  0
VERTEX
  8
0
  5
2117
 10
265.683
 20
89.9711
 30
0.000000
  70
    32
  0
VERTEX
  8
0
  5
2118
 10
265.633
 20
89.9837
 30
0.000000
  70
    32
  0
VERTEX
  8
0
  5
2119
 10
265.582
 20
89.9928
 30
0.000000
  70
    32
  0
VERTEX
  8
0
  5
211A
 10
265.532
 20
89.9982
 30
0.000000
  70
    32
  0
VERTEX
  8
0
  5
211B
 10
265.482
 20
90.0000
 30
0.000000
  70
    32
  0
SEQEND
  8
0
  5
211C
  0
LINE
  5
198D
  8
0
 10
93.499999999999986
 20
198.0
 30
0.0
 11
74.5
 21
198.0
 31
0.0
  0
LINE
  5
198E
  8
0
 10
74.5
 20
203.5
 30
0.0
 11
74.5
 21
198.0
 31
0.0
  0
LINE
  5
198F
  8
0
 10
93.499999999999986
 20
198.0
 30
0.0
 11
93.499999999999986
 21
203.5
 31
0.0
  0
LINE
  5
1990
  8
0
 10
95.424999999999955
 20
249.5
 30
0.0
 11
72.575000000000045
 21
249.5
 31
0.0
  0
LINE
  5
1991
  8
0
 10
72.575000000000045
 20
249.5
 30
0.0
 11
70.0
 21
246.92500000000001
 31
0.0
  0
LINE
  5
1992
  8
0
 10
98.0
 20
246.92500000000001
 30
0.0
 11
95.424999999999955
 21
249.5
 31
0.0
  0
LINE
  5
1993
  8
0
 10
97.450000000000045
 20
203.5
 30
0.0
 11
70.549999999999955
 21
203.5
 31
0.0
  0
LINE
  5
1994
  8
0
 10
97.450000000000045
 20
203.5
 30
0.0
 11
98.0
 21
204.05000000000001
 31
0.0
  0
LINE
  5
1995
  8
0
 10
70.0
 20
204.05000000000001
 30
0.0
 11
70.549999999999955
 21
203.5
 31
0.0
  0
LINE
  5
1996
  8
0
 10
98.0
 20
204.05000000000001
 30
0.0
 11
70.0
 21
204.05000000000001
 31
0.0
  0
LINE
  5
1997
  8
0
 10
98.0
 20
246.92500000000001
 30
0.0
 11
70.0
 21
246.92500000000001
 31
0.0
  0
LINE
  5
1998
  8
0
 10
70.0
 20
246.92500000000001
 30
0.0
 11
70.0
 21
204.05000000000001
 31
0.0
  0
LINE
  5
1999
  8
0
 10
98.0
 20
204.05000000000001
 30
0.0
 11
98.0
 21
246.92500000000001
 31
0.0
  0
POLYLINE
  5
199A
  8
0
 10
84.000000000000014
 20
269.10753199175224
 30
0.0
 66
     1
 70
     8
  0
VERTEX
  8
0
  5
211D
 10
84.0000
 20
269.108
 30
0.000000
  70
    32
  0
VERTEX
  8
0
  5
211E
 10
83.9264
 20
269.107
 30
0.000000
  70
    32
  0
VERTEX
  8
0
  5
211F
 10
83.8528
 20
269.106
 30
0.000000
  70
    32
  0
VERTEX
  8
0
  5
2120
 10
83.7792
 20
269.104
 30
0.000000
  70
    32
  0
VERTEX
  8
0
  5
2121
 10
83.7056
 20
269.101
 30
0.000000
  70
    32
  0
VERTEX
  8
0
  5
2122
 10
83.6321
 20
269.097
 30
0.000000
  70
    32
  0
VERTEX
  8
0
  5
2123
 10
83.5586
 20
269.092
 30
0.000000
  70
    32
  0
VERTEX
  8
0
  5
2124
 10
83.4852
 20
269.087
 30
0.000000
  70
    32
  0
VERTEX
  8
0
  5
2125
 10
83.4119
 20
269.080
 30
0.000000
  70
    32
  0
VERTEX
  8
0
  5
2126
 10
83.3387
 20
269.073
 30
0.000000
  70
    32
  0
VERTEX
  8
0
  5
2127
 10
83.2655
 20
269.065
 30
0.000000
  70
    32
  0
VERTEX
  8
0
  5
2128
 10
83.1925
 20
269.056
 30
0.000000
  70
    32
  0
VERTEX
  8
0
  5
2129
 10
83.1196
 20
269.047
 30
0.000000
  70
    32
  0
VERTEX
  8
0
  5
212A
 10
83.0469
 20
269.036
 30
0.000000
  70
    32
  0
VERTEX
  8
0
  5
212B
 10
82.9742
 20
269.025
 30
0.000000
  70
    32
  0
VERTEX
  8
0
  5
212C
 10
82.9018
 20
269.012
 30
0.000000
  70
    32
  0
VERTEX
  8
0
  5
212D
 10
82.8295
 20
268.999
 30
0.000000
  70
    32
  0
VERTEX
  8
0
  5
212E
 10
82.7573
 20
268.985
 30
0.000000
  70
    32
  0
VERTEX
  8
0
  5
212F
 10
82.6854
 20
268.971
 30
0.000000
  70
    32
  0
VERTEX
  8
0
  5
2130
 10
82.6137
 20
268.955
 30
0.000000
  70
    32
  0
VERTEX
  8
0
  5
2131
 10
82.5421
 20
268.939
 30
0.000000
  70
    32
  0
VERTEX
  8
0
  5
2132
 10
82.4708
 20
268.921
 30
0.000000
  70
    32
  0
VERTEX
  8
0
  5
2133
 10
82.3997
 20
268.903
 30
0.000000
  70
    32
  0
VERTEX
  8
0
  5
2134
 10
82.3289
 20
268.884
 30
0.000000
  70
    32
  0
VERTEX
  8
0
  5
2135
 10
82.2583
 20
268.865
 30
0.000000
  70
    32
  0
VERTEX
  8
0
  5
2136
 10
82.1880
 20
268.844
 30
0.000000
  70
    32
  0
VERTEX
  8
0
  5
2137
 10
82.1179
 20
268.823
 30
0.000000
  70
    32
  0
VERTEX
  8
0
  5
2138
 10
82.0481
 20
268.801
 30
0.000000
  70
    32
  0
VERTEX
  8
0
  5
2139
 10
81.9787
 20
268.778
 30
0.000000
  70
    32
  0
VERTEX
  8
0
  5
213A
 10
81.9095
 20
268.754
 30
0.000000
  70
    32
  0
VERTEX
  8
0
  5
213B
 10
81.8406
 20
268.730
 30
0.000000
  70
    32
  0
VERTEX
  8
0
  5
213C
 10
81.7721
 20
268.704
 30
0.000000
  70
    32
  0
VERTEX
  8
0
  5
213D
 10
81.7039
 20
268.678
 30
0.000000
  70
    32
  0
VERTEX
  8
0
  5
213E
 10
81.6360
 20
268.651
 30
0.000000
  70
    32
  0
VERTEX
  8
0
  5
213F
 10
81.5686
 20
268.624
 30
0.000000
  70
    32
  0
VERTEX
  8
0
  5
2140
 10
81.5014
 20
268.595
 30
0.000000
  70
    32
  0
VERTEX
  8
0
  5
2141
 10
81.4347
 20
268.566
 30
0.000000
  70
    32
  0
VERTEX
  8
0
  5
2142
 10
81.3683
 20
268.536
 30
0.000000
  70
    32
  0
VERTEX
  8
0
  5
2143
 10
81.3023
 20
268.506
 30
0.000000
  70
    32
  0
VERTEX
  8
0
  5
2144
 10
81.2368
 20
268.474
 30
0.000000
  70
    32
  0
VERTEX
  8
0
  5
2145
 10
81.1716
 20
268.442
 30
0.000000
  70
    32
  0
VERTEX
  8
0
  5
2146
 10
81.1069
 20
268.409
 30
0.000000
  70
    32
  0
VERTEX
  8
0
  5
2147
 10
81.0426
 20
268.375
 30
0.000000
  70
    32
  0
VERTEX
  8
0
  5
2148
 10
80.9788
 20
268.341
 30
0.000000
  70
    32
  0
VERTEX
  8
0
  5
2149
 10
80.9154
 20
268.305
 30
0.000000
  70
    32
  0
VERTEX
  8
0
  5
214A
 10
80.8525
 20
268.269
 30
0.000000
  70
    32
  0
VERTEX
  8
0
  5
214B
 10
80.7900
 20
268.233
 30
0.000000
  70
    32
  0
VERTEX
  8
0
  5
214C
 10
80.7281
 20
268.195
 30
0.000000
  70
    32
  0
VERTEX
  8
0
  5
214D
 10
80.6666
 20
268.157
 30
0.000000
  70
    32
  0
VERTEX
  8
0
  5
214E
 10
80.6056
 20
268.119
 30
0.000000
  70
    32
  0
VERTEX
  8
0
  5
214F
 10
80.5452
 20
268.079
 30
0.000000
  70
    32
  0
VERTEX
  8
0
  5
2150
 10
80.4852
 20
268.039
 30
0.000000
  70
    32
  0
VERTEX
  8
0
  5
2151
 10
80.4258
 20
267.998
 30
0.000000
  70
    32
  0
VERTEX
  8
0
  5
2152
 10
80.3669
 20
267.956
 30
0.000000
  70
    32
  0
VERTEX
  8
0
  5
2153
 10
80.3086
 20
267.914
 30
0.000000
  70
    32
  0
VERTEX
  8
0
  5
2154
 10
80.2508
 20
267.871
 30
0.000000
  70
    32
  0
VERTEX
  8
0
  5
2155
 10
80.1936
 20
267.828
 30
0.000000
  70
    32
  0
VERTEX
  8
0
  5
2156
 10
80.1370
 20
267.784
 30
0.000000
  70
    32
  0
VERTEX
  8
0
  5
2157
 10
80.0810
 20
267.739
 30
0.000000
  70
    32
  0
VERTEX
  8
0
  5
2158
 10
80.0255
 20
267.693
 30
0.000000
  70
    32
  0
VERTEX
  8
0
  5
2159
 10
79.9706
 20
267.647
 30
0.000000
  70
    32
  0
VERTEX
  8
0
  5
215A
 10
79.9164
 20
267.600
 30
0.000000
  70
    32
  0
VERTEX
  8
0
  5
215B
 10
79.8628
 20
267.553
 30
0.000000
  70
    32
  0
VERTEX
  8
0
  5
215C
 10
79.8097
 20
267.505
 30
0.000000
  70
    32
  0
VERTEX
  8
0
  5
215D
 10
79.7574
 20
267.456
 30
0.000000
  70
    32
  0
VERTEX
  8
0
  5
215E
 10
79.7056
 20
267.407
 30
0.000000
  70
    32
  0
VERTEX
  8
0
  5
215F
 10
79.6545
 20
267.357
 30
0.000000
  70
    32
  0
VERTEX
  8
0
  5
2160
 10
79.6041
 20
267.307
 30
0.000000
  70
    32
  0
VERTEX
  8
0
  5
2161
 10
79.5543
 20
267.256
 30
0.000000
  70
    32
  0
VERTEX
  8
0
  5
2162
 10
79.5052
 20
267.204
 30
0.000000
  70
    32
  0
VERTEX
  8
0
  5
2163
 10
79.4567
 20
267.152
 30
0.000000
  70
    32
  0
VERTEX
  8
0
  5
2164
 10
79.4090
 20
267.099
 30
0.000000
  70
    32
  0
VERTEX
  8
0
  5
2165
 10
79.3619
 20
267.046
 30
0.000000
  70
    32
  0
VERTEX
  8
0
  5
2166
 10
79.3156
 20
266.992
 30
0.000000
  70
    32
  0
VERTEX
  8
0
  5
2167
 10
79.2699
 20
266.938
 30
0.000000
  70
    32
  0
VERTEX
  8
0
  5
2168
 10
79.2250
 20
266.883
 30
0.000000
  70
    32
  0
VERTEX
  8
0
  5
2169
 10
79.1808
 20
266.828
 30
0.000000
  70
    32
  0
VERTEX
  8
0
  5
216A
 10
79.1373
 20
266.772
 30
0.000000
  70
    32
  0
VERTEX
  8
0
  5
216B
 10
79.0945
 20
266.716
 30
0.000000
  70
    32
  0
VERTEX
  8
0
  5
216C
 10
79.0525
 20
266.659
 30
0.000000
  70
    32
  0
VERTEX
  8
0
  5
216D
 10
79.0112
 20
266.602
 30
0.000000
  70
    32
  0
VERTEX
  8
0
  5
216E
 10
78.9707
 20
266.544
 30
0.000000
  70
    32
  0
VERTEX
  8
0
  5
216F
 10
78.9309
 20
266.486
 30
0.000000
  70
    32
  0
VERTEX
  8
0
  5
2170
 10
78.8919
 20
266.427
 30
0.000000
  70
    32
  0
VERTEX
  8
0
  5
2171
 10
78.8536
 20
266.368
 30
0.000000
  70
    32
  0
VERTEX
  8
0
  5
2172
 10
78.8162
 20
266.308
 30
0.000000
  70
    32
  0
VERTEX
  8
0
  5
2173
 10
78.7795
 20
266.248
 30
0.000000
  70
    32
  0
VERTEX
  8
0
  5
2174
 10
78.7436
 20
266.188
 30
0.000000
  70
    32
  0
VERTEX
  8
0
  5
2175
 10
78.7085
 20
266.127
 30
0.000000
  70
    32
  0
VERTEX
  8
0
  5
2176
 10
78.6742
 20
266.066
 30
0.000000
  70
    32
  0
VERTEX
  8
0
  5
2177
 10
78.6407
 20
266.004
 30
0.000000
  70
    32
  0
VERTEX
  8
0
  5
2178
 10
78.6080
 20
265.942
 30
0.000000
  70
    32
  0
VERTEX
  8
0
  5
2179
 10
78.5761
 20
265.880
 30
0.000000
  70
    32
  0
VERTEX
  8
0
  5
217A
 10
78.5450
 20
265.817
 30
0.000000
  70
    32
  0
VERTEX
  8
0
  5
217B
 10
78.5147
 20
265.754
 30
0.000000
  70
    32
  0
VERTEX
  8
0
  5
217C
 10
78.4853
 20
265.691
 30
0.000000
  70
    32
  0
VERTEX
  8
0
  5
217D
 10
78.4567
 20
265.627
 30
0.000000
  70
    32
  0
VERTEX
  8
0
  5
217E
 10
78.4290
 20
265.563
 30
0.000000
  70
    32
  0
VERTEX
  8
0
  5
217F
 10
78.4020
 20
265.499
 30
0.000000
  70
    32
  0
VERTEX
  8
0
  5
2180
 10
78.3760
 20
265.434
 30
0.000000
  70
    32
  0
VERTEX
  8
0
  5
2181
 10
78.3507
 20
265.369
 30
0.000000
  70
    32
  0
VERTEX
  8
0
  5
2182
 10
78.3264
 20
265.304
 30
0.000000
  70
    32
  0
VERTEX
  8
0
  5
2183
 10
78.3028
 20
265.238
 30
0.000000
  70
    32
  0
VERTEX
  8
0
  5
2184
 10
78.2802
 20
265.172
 30
0.000000
  70
    32
  0
VERTEX
  8
0
  5
2185
 10
78.2584
 20
265.106
 30
0.000000
  70
    32
  0
VERTEX
  8
0
  5
2186
 10
78.2374
 20
265.040
 30
0.000000
  70
    32
  0
VERTEX
  8
0
  5
2187
 10
78.2173
 20
264.973
 30
0.000000
  70
    32
  0
VERTEX
  8
0
  5
2188
 10
78.1981
 20
264.906
 30
0.000000
  70
    32
  0
VERTEX
  8
0
  5
2189
 10
78.1798
 20
264.839
 30
0.000000
  70
    32
  0
VERTEX
  8
0
  5
218A
 10
78.1624
 20
264.772
 30
0.000000
  70
    32
  0
VERTEX
  8
0
  5
218B
 10
78.1458
 20
264.705
 30
0.000000
  70
    32
  0
VERTEX
  8
0
  5
218C
 10
78.1301
 20
264.637
 30
0.000000
  70
    32
  0
VERTEX
  8
0
  5
218D
 10
78.1153
 20
264.569
 30
0.000000
  70
    32
  0
VERTEX
  8
0
  5
218E
 10
78.1014
 20
264.501
 30
0.000000
  70
    32
  0
VERTEX
  8
0
  5
218F
 10
78.0883
 20
264.433
 30
0.000000
  70
    32
  0
VERTEX
  8
0
  5
2190
 10
78.0762
 20
264.365
 30
0.000000
  70
    32
  0
VERTEX
  8
0
  5
2191
 10
78.0649
 20
264.297
 30
0.000000
  70
    32
  0
VERTEX
  8
0
  5
2192
 10
78.0546
 20
264.228
 30
0.000000
  70
    32
  0
VERTEX
  8
0
  5
2193
 10
78.0451
 20
264.160
 30
0.000000
  70
    32
  0
VERTEX
  8
0
  5
2194
 10
78.0366
 20
264.091
 30
0.000000
  70
    32
  0
VERTEX
  8
0
  5
2195
 10
78.0289
 20
264.022
 30
0.000000
  70
    32
  0
VERTEX
  8
0
  5
2196
 10
78.0221
 20
263.953
 30
0.000000
  70
    32
  0
VERTEX
  8
0
  5
2197
 10
78.0163
 20
263.884
 30
0.000000
  70
    32
  0
VERTEX
  8
0
  5
2198
 10
78.0113
 20
263.815
 30
0.000000
  70
    32
  0
VERTEX
  8
0
  5
2199
 10
78.0072
 20
263.746
 30
0.000000
  70
    32
  0
VERTEX
  8
0
  5
219A
 10
78.0041
 20
263.677
 30
0.000000
  70
    32
  0
VERTEX
  8
0
  5
219B
 10
78.0018
 20
263.608
 30
0.000000
  70
    32
  0
VERTEX
  8
0
  5
219C
 10
78.0005
 20
263.539
 30
0.000000
  70
    32
  0
VERTEX
  8
0
  5
219D
 10
78.0000
 20
263.469
 30
0.000000
  70
    32
  0
SEQEND
  8
0
  5
219E
  0
LINE
  5
199B
  8
0
 10
90.0
 20
249.5
 30
0.0
 11
90.0
 21
263.46937626703681
 31
0.0
  0
LINE
  5
199C
  8
0
 10
78.0
 20
263.46937626703681
 30
0.0
 11
78.0
 21
249.5
 31
0.0
  0
POLYLINE
  5
199D
  8
0
 10
89.999999999999986
 20
263.46937626703681
 30
0.0
 66
     1
 70
     8
  0
VERTEX
  8
0
  5
219F
 10
90.0000
 20
263.469
 30
0.000000
  70
    32
  0
VERTEX
  8
0
  5
21A0
 10
89.9995
 20
263.539
 30
0.000000
  70
    32
  0
VERTEX
  8
0
  5
21A1
 10
89.9982
 20
263.608
 30
0.000000
  70
    32
  0
VERTEX
  8
0
  5
21A2
 10
89.9959
 20
263.677
 30
0.000000
  70
    32
  0
VERTEX
  8
0
  5
21A3
 10
89.9928
 20
263.746
 30
0.000000
  70
    32
  0
VERTEX
  8
0
  5
21A4
 10
89.9887
 20
263.815
 30
0.000000
  70
    32
  0
VERTEX
  8
0
  5
21A5
 10
89.9837
 20
263.884
 30
0.000000
  70
    32
  0
VERTEX
  8
0
  5
21A6
 10
89.9779
 20
263.953
 30
0.000000
  70
    32
  0
VERTEX
  8
0
  5
21A7
 10
89.9711
 20
264.022
 30
0.000000
  70
    32
  0
VERTEX
  8
0
  5
21A8
 10
89.9634
 20
264.091
 30
0.000000
  70
    32
  0
VERTEX
  8
0
  5
21A9
 10
89.9549
 20
264.160
 30
0.000000
  70
    32
  0
VERTEX
  8
0
  5
21AA
 10
89.9454
 20
264.228
 30
0.000000
  70
    32
  0
VERTEX
  8
0
  5
21AB
 10
89.9351
 20
264.297
 30
0.000000
  70
    32
  0
VERTEX
  8
0
  5
21AC
 10
89.9238
 20
264.365
 30
0.000000
  70
    32
  0
VERTEX
  8
0
  5
21AD
 10
89.9117
 20
264.433
 30
0.000000
  70
    32
  0
VERTEX
  8
0
  5
21AE
 10
89.8986
 20
264.501
 30
0.000000
  70
    32
  0
VERTEX
  8
0
  5
21AF
 10
89.8847
 20
264.569
 30
0.000000
  70
    32
  0
VERTEX
  8
0
  5
21B0
 10
89.8699
 20
264.637
 30
0.000000
  70
    32
  0
VERTEX
  8
0
  5
21B1
 10
89.8542
 20
264.705
 30
0.000000
  70
    32
  0
VERTEX
  8
0
  5
21B2
 10
89.8376
 20
264.772
 30
0.000000
  70
    32
  0
VERTEX
  8
0
  5
21B3
 10
89.8202
 20
264.839
 30
0.000000
  70
    32
  0
VERTEX
  8
0
  5
21B4
 10
89.8019
 20
264.906
 30
0.000000
  70
    32
  0
VERTEX
  8
0
  5
21B5
 10
89.7827
 20
264.973
 30
0.000000
  70
    32
  0
VERTEX
  8
0
  5
21B6
 10
89.7626
 20
265.040
 30
0.000000
  70
    32
  0
VERTEX
  8
0
  5
21B7
 10
89.7416
 20
265.106
 30
0.000000
  70
    32
  0
VERTEX
  8
0
  5
21B8
 10
89.7198
 20
265.172
 30
0.000000
  70
    32
  0
VERTEX
  8
0
  5
21B9
 10
89.6972
 20
265.238
 30
0.000000
  70
    32
  0
VERTEX
  8
0
  5
21BA
 10
89.6736
 20
265.304
 30
0.000000
  70
    32
  0
VERTEX
  8
0
  5
21BB
 10
89.6493
 20
265.369
 30
0.000000
  70
    32
  0
VERTEX
  8
0
  5
21BC
 10
89.6240
 20
265.434
 30
0.000000
  70
    32
  0
VERTEX
  8
0
  5
21BD
 10
89.5980
 20
265.499
 30
0.000000
  70
    32
  0
VERTEX
  8
0
  5
21BE
 10
89.5710
 20
265.563
 30
0.000000
  70
    32
  0
VERTEX
  8
0
  5
21BF
 10
89.5433
 20
265.627
 30
0.000000
  70
    32
  0
VERTEX
  8
0
  5
21C0
 10
89.5147
 20
265.691
 30
0.000000
  70
    32
  0
VERTEX
  8
0
  5
21C1
 10
89.4853
 20
265.754
 30
0.000000
  70
    32
  0
VERTEX
  8
0
  5
21C2
 10
89.4550
 20
265.817
 30
0.000000
  70
    32
  0
VERTEX
  8
0
  5
21C3
 10
89.4239
 20
265.880
 30
0.000000
  70
    32
  0
VERTEX
  8
0
  5
21C4
 10
89.3920
 20
265.942
 30
0.000000
  70
    32
  0
VERTEX
  8
0
  5
21C5
 10
89.3593
 20
266.004
 30
0.000000
  70
    32
  0
VERTEX
  8
0
  5
21C6
 10
89.3258
 20
266.066
 30
0.000000
  70
    32
  0
VERTEX
  8
0
  5
21C7
 10
89.2915
 20
266.127
 30
0.000000
  70
    32
  0
VERTEX
  8
0
  5
21C8
 10
89.2564
 20
266.188
 30
0.000000
  70
    32
  0
VERTEX
  8
0
  5
21C9
 10
89.2205
 20
266.248
 30
0.000000
  70
    32
  0
VERTEX
  8
0
  5
21CA
 10
89.1838
 20
266.308
 30
0.000000
  70
    32
  0
VERTEX
  8
0
  5
21CB
 10
89.1464
 20
266.368
 30
0.000000
  70
    32
  0
VERTEX
  8
0
  5
21CC
 10
89.1081
 20
266.427
 30
0.000000
  70
    32
  0
VERTEX
  8
0
  5
21CD
 10
89.0691
 20
266.486
 30
0.000000
  70
    32
  0
VERTEX
  8
0
  5
21CE
 10
89.0293
 20
266.544
 30
0.000000
  70
    32
  0
VERTEX
  8
0
  5
21CF
 10
88.9888
 20
266.602
 30
0.000000
  70
    32
  0
VERTEX
  8
0
  5
21D0
 10
88.9475
 20
266.659
 30
0.000000
  70
    32
  0
VERTEX
  8
0
  5
21D1
 10
88.9055
 20
266.716
 30
0.000000
  70
    32
  0
VERTEX
  8
0
  5
21D2
 10
88.8627
 20
266.772
 30
0.000000
  70
    32
  0
VERTEX
  8
0
  5
21D3
 10
88.8192
 20
266.828
 30
0.000000
  70
    32
  0
VERTEX
  8
0
  5
21D4
 10
88.7750
 20
266.883
 30
0.000000
  70
    32
  0
VERTEX
  8
0
  5
21D5
 10
88.7301
 20
266.938
 30
0.000000
  70
    32
  0
VERTEX
  8
0
  5
21D6
 10
88.6844
 20
266.992
 30
0.000000
  70
    32
  0
VERTEX
  8
0
  5
21D7
 10
88.6381
 20
267.046
 30
0.000000
  70
    32
  0
VERTEX
  8
0
  5
21D8
 10
88.5910
 20
267.099
 30
0.000000
  70
    32
  0
VERTEX
  8
0
  5
21D9
 10
88.5433
 20
267.152
 30
0.000000
  70
    32
  0
VERTEX
  8
0
  5
21DA
 10
88.4948
 20
267.204
 30
0.000000
  70
    32
  0
VERTEX
  8
0
  5
21DB
 10
88.4457
 20
267.256
 30
0.000000
  70
    32
  0
VERTEX
  8
0
  5
21DC
 10
88.3959
 20
267.307
 30
0.000000
  70
    32
  0
VERTEX
  8
0
  5
21DD
 10
88.3455
 20
267.357
 30
0.000000
  70
    32
  0
VERTEX
  8
0
  5
21DE
 10
88.2944
 20
267.407
 30
0.000000
  70
    32
  0
VERTEX
  8
0
  5
21DF
 10
88.2426
 20
267.456
 30
0.000000
  70
    32
  0
VERTEX
  8
0
  5
21E0
 10
88.1903
 20
267.505
 30
0.000000
  70
    32
  0
VERTEX
  8
0
  5
21E1
 10
88.1372
 20
267.553
 30
0.000000
  70
    32
  0
VERTEX
  8
0
  5
21E2
 10
88.0836
 20
267.600
 30
0.000000
  70
    32
  0
VERTEX
  8
0
  5
21E3
 10
88.0294
 20
267.647
 30
0.000000
  70
    32
  0
VERTEX
  8
0
  5
21E4
 10
87.9745
 20
267.693
 30
0.000000
  70
    32
  0
VERTEX
  8
0
  5
21E5
 10
87.9190
 20
267.739
 30
0.000000
  70
    32
  0
VERTEX
  8
0
  5
21E6
 10
87.8630
 20
267.784
 30
0.000000
  70
    32
  0
VERTEX
  8
0
  5
21E7
 10
87.8064
 20
267.828
 30
0.000000
  70
    32
  0
VERTEX
  8
0
  5
21E8
 10
87.7492
 20
267.871
 30
0.000000
  70
    32
  0
VERTEX
  8
0
  5
21E9
 10
87.6914
 20
267.914
 30
0.000000
  70
    32
  0
VERTEX
  8
0
  5
21EA
 10
87.6331
 20
267.956
 30
0.000000
  70
    32
  0
VERTEX
  8
0
  5
21EB
 10
87.5742
 20
267.998
 30
0.000000
  70
    32
  0
VERTEX
  8
0
  5
21EC
 10
87.5148
 20
268.039
 30
0.000000
  70
    32
  0
VERTEX
  8
0
  5
21ED
 10
87.4548
 20
268.079
 30
0.000000
  70
    32
  0
VERTEX
  8
0
  5
21EE
 10
87.3944
 20
268.119
 30
0.000000
  70
    32
  0
VERTEX
  8
0
  5
21EF
 10
87.3334
 20
268.157
 30
0.000000
  70
    32
  0
VERTEX
  8
0
  5
21F0
 10
87.2719
 20
268.195
 30
0.000000
  70
    32
  0
VERTEX
  8
0
  5
21F1
 10
87.2100
 20
268.233
 30
0.000000
  70
    32
  0
VERTEX
  8
0
  5
21F2
 10
87.1475
 20
268.269
 30
0.000000
  70
    32
  0
VERTEX
  8
0
  5
21F3
 10
87.0846
 20
268.305
 30
0.000000
  70
    32
  0
VERTEX
  8
0
  5
21F4
 10
87.0212
 20
268.341
 30
0.000000
  70
    32
  0
VERTEX
  8
0
  5
21F5
 10
86.9574
 20
268.375
 30
0.000000
  70
    32
  0
VERTEX
  8
0
  5
21F6
 10
86.8931
 20
268.409
 30
0.000000
  70
    32
  0
VERTEX
  8
0
  5
21F7
 10
86.8284
 20
268.442
 30
0.000000
  70
    32
  0
VERTEX
  8
0
  5
21F8
 10
86.7632
 20
268.474
 30
0.000000
  70
    32
  0
VERTEX
  8
0
  5
21F9
 10
86.6977
 20
268.506
 30
0.000000
  70
    32
  0
VERTEX
  8
0
  5
21FA
 10
86.6317
 20
268.536
 30
0.000000
  70
    32
  0
VERTEX
  8
0
  5
21FB
 10
86.5653
 20
268.566
 30
0.000000
  70
    32
  0
VERTEX
  8
0
  5
21FC
 10
86.4986
 20
268.595
 30
0.000000
  70
    32
  0
VERTEX
  8
0
  5
21FD
 10
86.4314
 20
268.624
 30
0.000000
  70
    32
  0
VERTEX
  8
0
  5
21FE
 10
86.3640
 20
268.651
 30
0.000000
  70
    32
  0
VERTEX
  8
0
  5
21FF
 10
86.2961
 20
268.678
 30
0.000000
  70
    32
  0
VERTEX
  8
0
  5
2200
 10
86.2279
 20
268.704
 30
0.000000
  70
    32
  0
VERTEX
  8
0
  5
2201
 10
86.1594
 20
268.730
 30
0.000000
  70
    32
  0
VERTEX
  8
0
  5
2202
 10
86.0905
 20
268.754
 30
0.000000
  70
    32
  0
VERTEX
  8
0
  5
2203
 10
86.0213
 20
268.778
 30
0.000000
  70
    32
  0
VERTEX
  8
0
  5
2204
 10
85.9519
 20
268.801
 30
0.000000
  70
    32
  0
VERTEX
  8
0
  5
2205
 10
85.8821
 20
268.823
 30
0.000000
  70
    32
  0
VERTEX
  8
0
  5
2206
 10
85.8120
 20
268.844
 30
0.000000
  70
    32
  0
VERTEX
  8
0
  5
2207
 10
85.7417
 20
268.865
 30
0.000000
  70
    32
  0
VERTEX
  8
0
  5
2208
 10
85.6711
 20
268.884
 30
0.000000
  70
    32
  0
VERTEX
  8
0
  5
2209
 10
85.6003
 20
268.903
 30
0.000000
  70
    32
  0
VERTEX
  8
0
  5
220A
 10
85.5292
 20
268.921
 30
0.000000
  70
    32
  0
VERTEX
  8
0
  5
220B
 10
85.4579
 20
268.939
 30
0.000000
  70
    32
  0
VERTEX
  8
0
  5
220C
 10
85.3863
 20
268.955
 30
0.000000
  70
    32
  0
VERTEX
  8
0
  5
220D
 10
85.3146
 20
268.971
 30
0.000000
  70
    32
  0
VERTEX
  8
0
  5
220E
 10
85.2427
 20
268.985
 30
0.000000
  70
    32
  0
VERTEX
  8
0
  5
220F
 10
85.1705
 20
268.999
 30
0.000000
  70
    32
  0
VERTEX
  8
0
  5
2210
 10
85.0982
 20
269.012
 30
0.000000
  70
    32
  0
VERTEX
  8
0
  5
2211
 10
85.0258
 20
269.025
 30
0.000000
  70
    32
  0
VERTEX
  8
0
  5
2212
 10
84.9531
 20
269.036
 30
0.000000
  70
    32
  0
VERTEX
  8
0
  5
2213
 10
84.8804
 20
269.047
 30
0.000000
  70
    32
  0
VERTEX
  8
0
  5
2214
 10
84.8075
 20
269.056
 30
0.000000
  70
    32
  0
VERTEX
  8
0
  5
2215
 10
84.7345
 20
269.065
 30
0.000000
  70
    32
  0
VERTEX
  8
0
  5
2216
 10
84.6613
 20
269.073
 30
0.000000
  70
    32
  0
VERTEX
  8
0
  5
2217
 10
84.5881
 20
269.080
 30
0.000000
  70
    32
  0
VERTEX
  8
0
  5
2218
 10
84.5148
 20
269.087
 30
0.000000
  70
    32
  0
VERTEX
  8
0
  5
2219
 10
84.4414
 20
269.092
 30
0.000000
  70
    32
  0
VERTEX
  8
0
  5
221A
 10
84.3679
 20
269.097
 30
0.000000
  70
    32
  0
VERTEX
  8
0
  5
221B
 10
84.2944
 20
269.101
 30
0.000000
  70
    32
  0
VERTEX
  8
0
  5
221C
 10
84.2208
 20
269.104
 30
0.000000
  70
    32
  0
VERTEX
  8
0
  5
221D
 10
84.1472
 20
269.106
 30
0.000000
  70
    32
  0
VERTEX
  8
0
  5
221E
 10
84.0736
 20
269.107
 30
0.000000
  70
    32
  0
VERTEX
  8
0
  5
221F
 10
84.0000
 20
269.108
 30
0.000000
  70
    32
  0
SEQEND
  8
0
  5
2220
  0
POLYLINE
  5
199E
  8
0
 10
90.000000000000057
 20
258.26374109279379
 30
0.0
 66
     1
 70
     8
  0
VERTEX
  8
0
  5
2221
 10
90.0000
 20
258.264
 30
0.000000
  70
    32
  0
VERTEX
  8
0
  5
2222
 10
90.1965
 20
258.471
 30
0.000000
  70
    32
  0
VERTEX
  8
0
  5
2223
 10
90.3849
 20
258.685
 30
0.000000
  70
    32
  0
VERTEX
  8
0
  5
2224
 10
90.5650
 20
258.905
 30
0.000000
  70
    32
  0
VERTEX
  8
0
  5
2225
 10
90.7364
 20
259.132
 30
0.000000
  70
    32
  0
VERTEX
  8
0
  5
2226
 10
90.8990
 20
259.363
 30
0.000000
  70
    32
  0
VERTEX
  8
0
  5
2227
 10
91.0526
 20
259.601
 30
0.000000
  70
    32
  0
VERTEX
  8
0
  5
2228
 10
91.1970
 20
259.843
 30
0.000000
  70
    32
  0
VERTEX
  8
0
  5
2229
 10
91.3319
 20
260.090
 30
0.000000
  70
    32
  0
VERTEX
  8
0
  5
222A
 10
91.4572
 20
260.342
 30
0.000000
  70
    32
  0
VERTEX
  8
0
  5
222B
 10
91.5728
 20
260.597
 30
0.000000
  70
    32
  0
VERTEX
  8
0
  5
222C
 10
91.6784
 20
260.857
 30
0.000000
  70
    32
  0
VERTEX
  8
0
  5
222D
 10
91.7740
 20
261.119
 30
0.000000
  70
    32
  0
VERTEX
  8
0
  5
222E
 10
91.8594
 20
261.385
 30
0.000000
  70
    32
  0
VERTEX
  8
0
  5
222F
 10
91.9345
 20
261.654
 30
0.000000
  70
    32
  0
VERTEX
  8
0
  5
2230
 10
91.9992
 20
261.925
 30
0.000000
  70
    32
  0
VERTEX
  8
0
  5
2231
 10
92.0534
 20
262.198
 30
0.000000
  70
    32
  0
VERTEX
  8
0
  5
2232
 10
92.0971
 20
262.473
 30
0.000000
  70
    32
  0
VERTEX
  8
0
  5
2233
 10
92.1302
 20
262.749
 30
0.000000
  70
    32
  0
VERTEX
  8
0
  5
2234
 10
92.1526
 20
263.026
 30
0.000000
  70
    32
  0
VERTEX
  8
0
  5
2235
 10
92.1644
 20
263.303
 30
0.000000
  70
    32
  0
VERTEX
  8
0
  5
2236
 10
92.1654
 20
263.581
 30
0.000000
  70
    32
  0
VERTEX
  8
0
  5
2237
 10
92.1558
 20
263.858
 30
0.000000
  70
    32
  0
VERTEX
  8
0
  5
2238
 10
92.1355
 20
264.135
 30
0.000000
  70
    32
  0
VERTEX
  8
0
  5
2239
 10
92.1045
 20
264.412
 30
0.000000
  70
    32
  0
VERTEX
  8
0
  5
223A
 10
92.0629
 20
264.687
 30
0.000000
  70
    32
  0
VERTEX
  8
0
  5
223B
 10
92.0108
 20
264.960
 30
0.000000
  70
    32
  0
VERTEX
  8
0
  5
223C
 10
91.9481
 20
265.231
 30
0.000000
  70
    32
  0
VERTEX
  8
0
  5
223D
 10
91.8751
 20
265.500
 30
0.000000
  70
    32
  0
VERTEX
  8
0
  5
223E
 10
91.7917
 20
265.767
 30
0.000000
  70
    32
  0
VERTEX
  8
0
  5
223F
 10
91.6981
 20
266.030
 30
0.000000
  70
    32
  0
VERTEX
  8
0
  5
2240
 10
91.5945
 20
266.290
 30
0.000000
  70
    32
  0
VERTEX
  8
0
  5
2241
 10
91.4809
 20
266.547
 30
0.000000
  70
    32
  0
VERTEX
  8
0
  5
2242
 10
91.3575
 20
266.799
 30
0.000000
  70
    32
  0
VERTEX
  8
0
  5
2243
 10
91.2245
 20
267.047
 30
0.000000
  70
    32
  0
VERTEX
  8
0
  5
2244
 10
91.0820
 20
267.290
 30
0.000000
  70
    32
  0
VERTEX
  8
0
  5
2245
 10
90.9302
 20
267.529
 30
0.000000
  70
    32
  0
VERTEX
  8
0
  5
2246
 10
90.7693
 20
267.762
 30
0.000000
  70
    32
  0
VERTEX
  8
0
  5
2247
 10
90.5996
 20
267.989
 30
0.000000
  70
    32
  0
VERTEX
  8
0
  5
2248
 10
90.4213
 20
268.210
 30
0.000000
  70
    32
  0
VERTEX
  8
0
  5
2249
 10
90.2345
 20
268.426
 30
0.000000
  70
    32
  0
VERTEX
  8
0
  5
224A
 10
90.0396
 20
268.634
 30
0.000000
  70
    32
  0
VERTEX
  8
0
  5
224B
 10
89.8367
 20
268.836
 30
0.000000
  70
    32
  0
VERTEX
  8
0
  5
224C
 10
89.6262
 20
269.031
 30
0.000000
  70
    32
  0
VERTEX
  8
0
  5
224D
 10
89.4083
 20
269.219
 30
0.000000
  70
    32
  0
VERTEX
  8
0
  5
224E
 10
89.1834
 20
269.399
 30
0.000000
  70
    32
  0
VERTEX
  8
0
  5
224F
 10
88.9517
 20
269.572
 30
0.000000
  70
    32
  0
VERTEX
  8
0
  5
2250
 10
88.7135
 20
269.736
 30
0.000000
  70
    32
  0
VERTEX
  8
0
  5
2251
 10
88.4691
 20
269.892
 30
0.000000
  70
    32
  0
VERTEX
  8
0
  5
2252
 10
88.2188
 20
270.040
 30
0.000000
  70
    32
  0
VERTEX
  8
0
  5
2253
 10
87.9630
 20
270.179
 30
0.000000
  70
    32
  0
VERTEX
  8
0
  5
2254
 10
87.7021
 20
270.309
 30
0.000000
  70
    32
  0
VERTEX
  8
0
  5
2255
 10
87.4363
 20
270.431
 30
0.000000
  70
    32
  0
VERTEX
  8
0
  5
2256
 10
87.1660
 20
270.543
 30
0.000000
  70
    32
  0
VERTEX
  8
0
  5
2257
 10
86.8915
 20
270.646
 30
0.000000
  70
    32
  0
VERTEX
  8
0
  5
2258
 10
86.6133
 20
270.740
 30
0.000000
  70
    32
  0
VERTEX
  8
0
  5
2259
 10
86.3316
 20
270.824
 30
0.000000
  70
    32
  0
VERTEX
  8
0
  5
225A
 10
86.0469
 20
270.898
 30
0.000000
  70
    32
  0
VERTEX
  8
0
  5
225B
 10
85.7595
 20
270.963
 30
0.000000
  70
    32
  0
VERTEX
  8
0
  5
225C
 10
85.4697
 20
271.018
 30
0.000000
  70
    32
  0
VERTEX
  8
0
  5
225D
 10
85.1781
 20
271.063
 30
0.000000
  70
    32
  0
VERTEX
  8
0
  5
225E
 10
84.8849
 20
271.098
 30
0.000000
  70
    32
  0
VERTEX
  8
0
  5
225F
 10
84.5906
 20
271.123
 30
0.000000
  70
    32
  0
VERTEX
  8
0
  5
2260
 10
84.2955
 20
271.138
 30
0.000000
  70
    32
  0
VERTEX
  8
0
  5
2261
 10
84.0000
 20
271.143
 30
0.000000
  70
    32
  0
VERTEX
  8
0
  5
2262
 10
83.7045
 20
271.138
 30
0.000000
  70
    32
  0
VERTEX
  8
0
  5
2263
 10
83.4094
 20
271.123
 30
0.000000
  70
    32
  0
VERTEX
  8
0
  5
2264
 10
83.1151
 20
271.098
 30
0.000000
  70
    32
  0
VERTEX
  8
0
  5
2265
 10
82.8219
 20
271.063
 30
0.000000
  70
    32
  0
VERTEX
  8
0
  5
2266
 10
82.5303
 20
271.018
 30
0.000000
  70
    32
  0
VERTEX
  8
0
  5
2267
 10
82.2405
 20
270.963
 30
0.000000
  70
    32
  0
VERTEX
  8
0
  5
2268
 10
81.9531
 20
270.898
 30
0.000000
  70
    32
  0
VERTEX
  8
0
  5
2269
 10
81.6684
 20
270.824
 30
0.000000
  70
    32
  0
VERTEX
  8
0
  5
226A
 10
81.3867
 20
270.740
 30
0.000000
  70
    32
  0
VERTEX
  8
0
  5
226B
 10
81.1085
 20
270.646
 30
0.000000
  70
    32
  0
VERTEX
  8
0
  5
226C
 10
80.8340
 20
270.543
 30
0.000000
  70
    32
  0
VERTEX
  8
0
  5
226D
 10
80.5637
 20
270.431
 30
0.000000
  70
    32
  0
VERTEX
  8
0
  5
226E
 10
80.2979
 20
270.309
 30
0.000000
  70
    32
  0
VERTEX
  8
0
  5
226F
 10
80.0370
 20
270.179
 30
0.000000
  70
    32
  0
VERTEX
  8
0
  5
2270
 10
79.7812
 20
270.040
 30
0.000000
  70
    32
  0
VERTEX
  8
0
  5
2271
 10
79.5309
 20
269.892
 30
0.000000
  70
    32
  0
VERTEX
  8
0
  5
2272
 10
79.2865
 20
269.736
 30
0.000000
  70
    32
  0
VERTEX
  8
0
  5
2273
 10
79.0483
 20
269.572
 30
0.000000
  70
    32
  0
VERTEX
  8
0
  5
2274
 10
78.8166
 20
269.399
 30
0.000000
  70
    32
  0
VERTEX
  8
0
  5
2275
 10
78.5917
 20
269.219
 30
0.000000
  70
    32
  0
VERTEX
  8
0
  5
2276
 10
78.3738
 20
269.031
 30
0.000000
  70
    32
  0
VERTEX
  8
0
  5
2277
 10
78.1633
 20
268.836
 30
0.000000
  70
    32
  0
VERTEX
  8
0
  5
2278
 10
77.9604
 20
268.634
 30
0.000000
  70
    32
  0
VERTEX
  8
0
  5
2279
 10
77.7655
 20
268.426
 30
0.000000
  70
    32
  0
VERTEX
  8
0
  5
227A
 10
77.5787
 20
268.210
 30
0.000000
  70
    32
  0
VERTEX
  8
0
  5
227B
 10
77.4004
 20
267.989
 30
0.000000
  70
    32
  0
VERTEX
  8
0
  5
227C
 10
77.2307
 20
267.762
 30
0.000000
  70
    32
  0
VERTEX
  8
0
  5
227D
 10
77.0698
 20
267.529
 30
0.000000
  70
    32
  0
VERTEX
  8
0
  5
227E
 10
76.9180
 20
267.290
 30
0.000000
  70
    32
  0
VERTEX
  8
0
  5
227F
 10
76.7755
 20
267.047
 30
0.000000
  70
    32
  0
VERTEX
  8
0
  5
2280
 10
76.6425
 20
266.799
 30
0.000000
  70
    32
  0
VERTEX
  8
0
  5
2281
 10
76.5191
 20
266.547
 30
0.000000
  70
    32
  0
VERTEX
  8
0
  5
2282
 10
76.4055
 20
266.290
 30
0.000000
  70
    32
  0
VERTEX
  8
0
  5
2283
 10
76.3019
 20
266.030
 30
0.000000
  70
    32
  0
VERTEX
  8
0
  5
2284
 10
76.2083
 20
265.767
 30
0.000000
  70
    32
  0
VERTEX
  8
0
  5
2285
 10
76.1249
 20
265.500
 30
0.000000
  70
    32
  0
VERTEX
  8
0
  5
2286
 10
76.0519
 20
265.231
 30
0.000000
  70
    32
  0
VERTEX
  8
0
  5
2287
 10
75.9892
 20
264.960
 30
0.000000
  70
    32
  0
VERTEX
  8
0
  5
2288
 10
75.9371
 20
264.687
 30
0.000000
  70
    32
  0
VERTEX
  8
0
  5
2289
 10
75.8955
 20
264.412
 30
0.000000
  70
    32
  0
VERTEX
  8
0
  5
228A
 10
75.8645
 20
264.135
 30
0.000000
  70
    32
  0
VERTEX
  8
0
  5
228B
 10
75.8442
 20
263.858
 30
0.000000
  70
    32
  0
VERTEX
  8
0
  5
228C
 10
75.8346
 20
263.581
 30
0.000000
  70
    32
  0
VERTEX
  8
0
  5
228D
 10
75.8356
 20
263.303
 30
0.000000
  70
    32
  0
VERTEX
  8
0
  5
228E
 10
75.8474
 20
263.026
 30
0.000000
  70
    32
  0
VERTEX
  8
0
  5
228F
 10
75.8698
 20
262.749
 30
0.000000
  70
    32
  0
VERTEX
  8
0
  5
2290
 10
75.9029
 20
262.473
 30
0.000000
  70
    32
  0
VERTEX
  8
0
  5
2291
 10
75.9466
 20
262.198
 30
0.000000
  70
    32
  0
VERTEX
  8
0
  5
2292
 10
76.0008
 20
261.925
 30
0.000000
  70
    32
  0
VERTEX
  8
0
  5
2293
 10
76.0655
 20
261.654
 30
0.000000
  70
    32
  0
VERTEX
  8
0
  5
2294
 10
76.1406
 20
261.385
 30
0.000000
  70
    32
  0
VERTEX
  8
0
  5
2295
 10
76.2260
 20
261.119
 30
0.000000
  70
    32
  0
VERTEX
  8
0
  5
2296
 10
76.3216
 20
260.857
 30
0.000000
  70
    32
  0
VERTEX
  8
0
  5
2297
 10
76.4272
 20
260.597
 30
0.000000
  70
    32
  0
VERTEX
  8
0
  5
2298
 10
76.5428
 20
260.342
 30
0.000000
  70
    32
  0
VERTEX
  8
0
  5
2299
 10
76.6681
 20
260.090
 30
0.000000
  70
    32
  0
VERTEX
  8
0
  5
229A
 10
76.8030
 20
259.843
 30
0.000000
  70
    32
  0
VERTEX
  8
0
  5
229B
 10
76.9474
 20
259.601
 30
0.000000
  70
    32
  0
VERTEX
  8
0
  5
229C
 10
77.1010
 20
259.363
 30
0.000000
  70
    32
  0
VERTEX
  8
0
  5
229D
 10
77.2636
 20
259.132
 30
0.000000
  70
    32
  0
VERTEX
  8
0
  5
229E
 10
77.4350
 20
258.905
 30
0.000000
  70
    32
  0
VERTEX
  8
0
  5
229F
 10
77.6151
 20
258.685
 30
0.000000
  70
    32
  0
VERTEX
  8
0
  5
22A0
 10
77.8035
 20
258.471
 30
0.000000
  70
    32
  0
VERTEX
  8
0
  5
22A1
 10
78.0000
 20
258.264
 30
0.000000
  70
    32
  0
SEQEND
  8
0
  5
22A2
  0
POLYLINE
  5
199F
  8
0
 66
     1
 10
0.0
 20
0.0
 30
0.0
  0
VERTEX
  5
1C79
  8
0
 10
84.0
 20
282.5
 30
0.0
  0
VERTEX
  5
1C7A
  8
0
 10
83.477556786879859
 20
282.49056829077603
 30
0.0
  0
VERTEX
  5
1C7B
  8
0
 10
82.926601748246867
 20
282.46014485299378
 30
0.0
  0
VERTEX
  5
1C7C
  8
0
 10
82.376944704796415
 20
282.40871660918708
 30
0.0
  0
VERTEX
  5
1C7D
  8
0
 10
81.829377826356222
 20
282.33632998907069
 30
0.0
  0
VERTEX
  5
1C7E
  8
0
 10
81.284688698747459
 20
282.24306123123182
 30
0.0
  0
VERTEX
  5
1C7F
  8
0
 10
80.743664436100062
 20
282.12901691183691
 30
0.0
  0
VERTEX
  5
1C80
  8
0
 10
80.207090519719486
 20
281.99433424183042
 30
0.0
  0
VERTEX
  5
1C81
  8
0
 10
79.675749568749325
 20
281.83918130946819
 30
0.0
  0
VERTEX
  5
1C82
  8
0
 10
79.150420048179512
 20
281.6637572580039
 30
0.0
  0
VERTEX
  5
1C83
  8
0
 10
78.631874919815687
 20
281.46829238883657
 30
0.0
  0
VERTEX
  5
1C84
  8
0
 10
78.120880243684496
 20
281.25304818142882
 30
0.0
  0
VERTEX
  5
1C85
  8
0
 10
77.618193738980835
 20
281.01831722261443
 30
0.0
  0
VERTEX
  5
1C86
  8
0
 10
77.124563314976399
 20
280.7644230394838
 30
0.0
  0
VERTEX
  5
1C87
  8
0
 10
76.640725583241064
 20
280.49171983174898
 30
0.0
  0
VERTEX
  5
1C88
  8
0
 10
76.167404363098171
 20
280.20059210131592
 30
0.0
  0
VERTEX
  5
1C89
  8
0
 10
75.70530919238854
 20
279.89145417858759
 30
0.0
  0
VERTEX
  5
1C8A
  8
0
 10
75.25513385543195
 20
279.56474964676642
 30
0.0
  0
VERTEX
  5
1C8B
  8
0
 10
74.817554939541523
 20
279.22095066701092
 30
0.0
  0
VERTEX
  5
1C8C
  8
0
 10
74.393230430658264
 20
278.8605572087169
 30
0.0
  0
VERTEX
  5
1C8D
  8
0
 10
73.98279835765311
 20
278.48409619035812
 30
0.0
  0
VERTEX
  5
1C8E
  8
0
 10
73.5868754937012
 20
278.09212053728407
 30
0.0
  0
VERTEX
  5
1C8F
  8
0
 10
73.206056121872052
 20
277.68520816354459
 30
0.0
  0
VERTEX
  5
1C90
  8
0
 10
72.840910870818107
 20
277.26396088528668
 30
0.0
  0
VERTEX
  5
1C91
  8
0
 10
72.491985625182565
 20
276.82900327350399
 30
0.0
  0
VERTEX
  5
1C92
  8
0
 10
72.159800514146809
 20
276.38098145396611
 30
0.0
  0
VERTEX
  5
1C93
  8
0
 10
71.84484898042956
 20
275.92056186204269
 30
0.0
  0
VERTEX
  5
1C94
  8
0
 10
71.547596931050066
 20
275.44842995989399
 30
0.0
  0
VERTEX
  5
1C95
  8
0
 10
71.268481970277662
 20
274.96528892313989
 30
0.0
  0
VERTEX
  5
1C96
  8
0
 10
71.00791271443984
 20
274.47185830370779
 30
0.0
  0
VERTEX
  5
1C97
  8
0
 10
70.766268187625315
 20
273.9688726750818
 30
0.0
  0
VERTEX
  5
1C98
  8
0
 10
70.543897296799173
 20
273.45708026568332
 30
0.0
  0
VERTEX
  5
1C99
  8
0
 10
70.341118384448237
 20
272.93724158560991
 30
0.0
  0
VERTEX
  5
1C9A
  8
0
 10
70.158218856557369
 20
272.41012805146272
 30
0.0
  0
VERTEX
  5
1C9B
  8
0
 10
69.995454883501907
 20
271.8765206135173
 30
0.0
  0
VERTEX
  5
1C9C
  8
0
 10
69.853051171286779
 20
271.33720838904839
 30
0.0
  0
VERTEX
  5
1C9D
  8
0
 10
69.731200800478746
 20
270.79298730519957
 30
0.0
  0
VERTEX
  5
1C9E
  8
0
 10
69.630065130135094
 20
270.24465875441177
 30
0.0
  0
VERTEX
  5
1C9F
  8
0
 10
69.549773764036104
 20
269.6930282650855
 30
0.0
  0
VERTEX
  5
1CA0
  8
0
 10
69.490424576556279
 20
269.13890418984579
 30
0.0
  0
VERTEX
  5
1CA1
  8
0
 10
69.452083795558565
 20
268.58309641351531
 30
0.0
  0
VERTEX
  5
1CA2
  8
0
 10
69.434786139763446
 20
268.02641508266549
 30
0.0
  0
VERTEX
  5
1CA3
  8
0
 10
69.438535008112694
 20
267.46966935841812
 30
0.0
  0
VERTEX
  5
1CA4
  8
0
 10
69.46330267127621
 20
266.91366694129988
 30
0.0
  0
VERTEX
  5
1CA5
  8
0
 10
69.509030220258296
 20
266.3592148008575
 30
0.0
  0
VERTEX
  5
1CA6
  8
0
 10
69.575628247362943
 20
265.80711182813769
 30
0.0
  0
VERTEX
  5
1CA7
  8
0
 10
69.662977266535563
 20
265.25815115427349
 30
0.0
  0
VERTEX
  5
1CA8
  8
0
 10
69.77092813210254
 20
264.7131190409101
 30
0.0
  0
VERTEX
  5
1CA9
  8
0
 10
69.899302495949314
 20
264.1727938008766
 30
0.0
  0
VERTEX
  5
1CAA
  8
0
 10
70.047893301022668
 20
263.63794475039759
 30
0.0
  0
VERTEX
  5
1CAB
  8
0
 10
70.2164653090706
 20
263.10933119365808
 30
0.0
  0
VERTEX
  5
1CAC
  8
0
 10
70.40475566051623
 20
262.58770144047662
 30
0.0
  0
VERTEX
  5
1CAD
  8
0
 10
70.612474464352303
 20
262.07379185777188
 30
0.0
  0
VERTEX
  5
1CAE
  8
0
 10
70.839305415900981
 20
261.56832595544068
 30
0.0
  0
VERTEX
  5
1CAF
  8
0
 10
71.084906440246868
 20
261.07201350718168
 30
0.0
  0
VERTEX
  5
1CB0
  8
0
 10
71.348910359090837
 20
260.58554970670951
 30
0.0
  0
VERTEX
  5
1CB1
  8
0
 10
71.63092557871596
 20
260.10961435969881
 30
0.0
  0
VERTEX
  5
1CB2
  8
0
 10
71.930536796688102
 20
259.64487111167739
 30
0.0
  0
VERTEX
  5
1CB3
  8
0
 10
72.247305724844182
 20
259.191966711943
 30
0.0
  0
VERTEX
  5
1CB4
  8
0
 10
72.580771826056662
 20
258.75153031342631
 30
0.0
  0
VERTEX
  5
1CB5
  8
0
 10
72.930453062204023
 20
258.32417280822722
 30
0.0
  0
VERTEX
  5
1CB6
  8
0
 10
73.295846650719895
 20
257.91048619836232
 30
0.0
  0
VERTEX
  5
1CB7
  8
0
 10
73.676429827070592
 20
257.51104300101258
 30
0.0
  0
VERTEX
  5
1CB8
  8
0
 10
74.071660610489175
 20
257.12639568732749
 30
0.0
  0
VERTEX
  5
1CB9
  8
0
 10
74.480978570322904
 20
256.75707615354531
 30
0.0
  0
VERTEX
  5
1CBA
  8
0
 10
74.903805590396132
 20
256.40359522290822
 30
0.0
  0
VERTEX
  5
1CBB
  8
0
 10
75.339546628901871
 20
256.06644217652678
 30
0.0
  0
VERTEX
  5
1CBC
  8
0
 10
75.787590471482531
 20
255.7460843110226
 30
0.0
  0
VERTEX
  5
1CBD
  8
0
 10
76.24731047539035
 20
255.44296652044099
 30
0.0
  0
VERTEX
  5
1CBE
  8
0
 10
76.718065302903597
 20
255.1575108995975
 30
0.0
  0
VERTEX
  5
1CBF
  8
0
 10
77.199199642564849
 20
254.89011636569529
 30
0.0
  0
VERTEX
  5
1CC0
  8
0
 10
77.690044917276282
 20
254.64115829476569
 30
0.0
  0
VERTEX
  5
1CC1
  8
0
 10
78.0
 20
254.4984378316303
 30
0.0
  0
SEQEND
  5
1CC2
  8
0
  0
POLYLINE
  5
19A0
  8
0
 66
     1
 10
0.0
 20
0.0
 30
0.0
  0
VERTEX
  5
1CC3
  8
0
 10
90.0
 20
254.49622004562801
 30
0.0
  0
VERTEX
  5
1CC4
  8
0
 10
90.479355285695533
 20
254.72444531348
 30
0.0
  0
VERTEX
  5
1CC5
  8
0
 10
90.971122832169854
 20
254.98205724099779
 30
0.0
  0
VERTEX
  5
1CC6
  8
0
 10
91.452954674072075
 20
255.2584051590768
 30
0.0
  0
VERTEX
  5
1CC7
  8
0
 10
91.924129675972608
 20
255.5530986752093
 30
0.0
  0
VERTEX
  5
1CC8
  8
0
 10
92.383941274344579
 20
255.86571767332509
 30
0.0
  0
VERTEX
  5
1CC9
  8
0
 10
92.831698944878212
 20
256.19581290920621
 30
0.0
  0
VERTEX
  5
1CCA
  8
0
 10
93.266729639095857
 20
256.54290670431351
 30
0.0
  0
VERTEX
  5
1CCB
  8
0
 10
93.688379179892664
 20
256.90649373351062
 30
0.0
  0
VERTEX
  5
1CCC
  8
0
 10
94.096013606663519
 20
257.28604190103613
 30
0.0
  0
VERTEX
  5
1CCD
  8
0
 10
94.489020461860378
 20
257.68099329818398
 30
0.0
  0
VERTEX
  5
1CCE
  8
0
 10
94.866810012075575
 20
258.09076523550209
 30
0.0
  0
VERTEX
  5
1CCF
  8
0
 10
95.228816398026083
 20
258.5147513419081
 30
0.0
  0
VERTEX
  5
1CD0
  8
0
 10
95.574498709053614
 20
258.95232272291503
 30
0.0
  0
VERTEX
  5
1CD1
  8
0
 10
95.903341978948674
 20
259.40282917014952
 30
0.0
  0
VERTEX
  5
1CD2
  8
0
 10
96.21485810098784
 20
259.86560041448791
 30
0.0
  0
VERTEX
  5
1CD3
  8
0
 10
96.508586661062054
 20
260.33994741539959
 30
0.0
  0
VERTEX
  5
1CD4
  8
0
 10
96.784095688623765
 20
260.82516367946528
 30
0.0
  0
VERTEX
  5
1CD5
  8
0
 10
97.040982325920154
 20
261.32052660145348
 30
0.0
  0
VERTEX
  5
1CD6
  8
0
 10
97.278873416584815
 20
261.8252988218369
 30
0.0
  0
VERTEX
  5
1CD7
  8
0
 10
97.497426015156975
 20
262.33872959510859
 30
0.0
  0
VERTEX
  5
1CD8
  8
0
 10
97.696327819481681
 20
262.86005616377798
 30
0.0
  0
VERTEX
  5
1CD9
  8
0
 10
97.875297528235933
 20
263.3885051334031
 30
0.0
  0
VERTEX
  5
1CDA
  8
0
 10
98.034085126034824
 20
263.92329384450011
 30
0.0
  0
VERTEX
  5
1CDB
  8
0
 10
98.172472098703807
 20
264.4636317376017
 30
0.0
  0
VERTEX
  5
1CDC
  8
0
 10
98.290271581387415
 20
265.00872170815012
 30
0.0
  0
VERTEX
  5
1CDD
  8
0
 10
98.387328442189315
 20
265.55776144828269
 30
0.0
  0
VERTEX
  5
1CDE
  8
0
 10
98.463519304033866
 20
266.10994477289438
 30
0.0
  0
VERTEX
  5
1CDF
  8
0
 10
98.518752507408735
 20
266.6644629276658
 30
0.0
  0
VERTEX
  5
1CE0
  8
0
 10
98.552968016586647
 20
267.22050587699988
 30
0.0
  0
VERTEX
  5
1CE1
  8
0
 10
98.566137271866296
 20
267.7772635700353
 30
0.0
  0
VERTEX
  5
1CE2
  8
0
 10
98.558262990296512
 20
268.33392718310552
 30
0.0
  0
VERTEX
  5
1CE3
  8
0
 10
98.529379028540461
 20
268.88968876848861
 30
0.0
  0
VERTEX
  5
1CE4
  8
0
 10
98.479550326193703
 20
269.44374299677452
 30
0.0
  0
VERTEX
  5
1CE5
  8
0
 10
98.408872221089268
 20
269.99529201775061
 30
0.0
  0
VERTEX
  5
1CE6
  8
0
 10
98.317470050425086
 20
270.54354396099149
 30
0.0
  0
VERTEX
  5
1CE7
  8
0
 10
98.205498724318431
 20
271.08771403968461
 30
0.0
  0
VERTEX
  5
1CE8
  8
0
 10
98.073142261339058
 20
271.62702562384032
 30
0.0
  0
VERTEX
  5
1CE9
  8
0
 10
97.920613288126674
 20
272.16071128179652
 30
0.0
  0
VERTEX
  5
1CEA
  8
0
 10
97.748152505183839
 20
272.68801378921978
 30
0.0
  0
VERTEX
  5
1CEB
  8
0
 10
97.556028120945825
 20
273.20818710485543
 30
0.0
  0
VERTEX
  5
1CEC
  8
0
 10
97.344535256250538
 20
273.72049731235808
 30
0.0
  0
VERTEX
  5
1CED
  8
0
 10
97.113995321369075
 20
274.22422352760009
 30
0.0
  0
VERTEX
  5
1CEE
  8
0
 10
96.864755367800626
 20
274.71865877093842
 30
0.0
  0
VERTEX
  5
1CEF
  8
0
 10
96.597187417092755
 20
275.20311080401751
 30
0.0
  0
VERTEX
  5
1CF0
  8
0
 10
96.311687769012792
 20
275.6769029307859
 30
0.0
  0
VERTEX
  5
1CF1
  8
0
 10
96.008676291457746
 20
276.13937476254119
 30
0.0
  0
VERTEX
  5
1CF2
  8
0
 10
95.688595694563546
 20
276.58988294695121
 30
0.0
  0
VERTEX
  5
1CF3
  8
0
 10
95.351910791538558
 20
277.02780186116672
 30
0.0
  0
VERTEX
  5
1CF4
  8
0
 10
94.999107748803667
 20
277.45252426933592
 30
0.0
  0
VERTEX
  5
1CF5
  8
0
 10
94.630693328068446
 20
277.86346194502869
 30
0.0
  0
VERTEX
  5
1CF6
  8
0
 10
94.247194123006466
 20
278.26004625932268
 30
0.0
  0
VERTEX
  5
1CF7
  8
0
 10
93.849155793192494
 20
278.64172873555651
 30
0.0
  0
VERTEX
  5
1CF8
  8
0
 10
93.437142297943424
 20
279.00798157203832
 30
0.0
  0
VERTEX
  5
1CF9
  8
0
 10
93.011735132637341
 20
279.35829813430018
 30
0.0
  0
VERTEX
  5
1CFA
  8
0
 10
92.573532569983627
 20
279.69219341879688
 30
0.0
  0
VERTEX
  5
1CFB
  8
0
 10
92.123148908529515
 20
280.00920449029809
 30
0.0
  0
VERTEX
  5
1CFC
  8
0
 10
91.661213730476334
 20
280.30889089553568
 30
0.0
  0
VERTEX
  5
1CFD
  8
0
 10
91.188371170550454
 20
280.59083505601728
 30
0.0
  0
VERTEX
  5
1CFE
  8
0
 10
90.705279197284526
 20
280.85464264321951
 30
0.0
  0
VERTEX
  5
1CFF
  8
0
 10
90.212608907566391
 20
281.0999429396677
 30
0.0
  0
VERTEX
  5
1D00
  8
0
 10
89.711043834733346
 20
281.32638918962948
 30
0.0
  0
VERTEX
  5
1D01
  8
0
 10
89.201279269778524
 20
281.53365894332472
 30
0.0
  0
VERTEX
  5
1D02
  8
0
 10
88.684021594460887
 20
281.72145439860259
 30
0.0
  0
VERTEX
  5
1D03
  8
0
 10
88.159987624220875
 20
281.8895027439915
 30
0.0
  0
VERTEX
  5
1D04
  8
0
 10
87.629903957859142
 20
282.0375565068087
 30
0.0
  0
VERTEX
  5
1D05
  8
0
 10
87.094506329945716
 20
282.16539390964499
 30
0.0
  0
VERTEX
  5
1D06
  8
0
 10
86.554538960940349
 20
282.27281923795499
 30
0.0
  0
VERTEX
  5
1D07
  8
0
 10
86.010753899059182
 20
282.35966322071062
 30
0.0
  0
VERTEX
  5
1D08
  8
0
 10
85.463910347088799
 20
282.42578342508091
 30
0.0
  0
VERTEX
  5
1D09
  8
0
 10
84.914773966669145
 20
282.47106466492261
 30
0.0
  0
VERTEX
  5
1D0A
  8
0
 10
84.364116152136035
 20
282.49541942150518
 30
0.0
  0
VERTEX
  5
1D0B
  8
0
 10
84.0
 20
282.5
 30
0.0
  0
SEQEND
  5
1D0C
  8
0
  0
LINE
  5
19A4
  8
1
 10
84.0
 20
287.50081471788479
 30
0.0
 11
84.000000000000114
 21
153.0
 31
0.0
  0
LINE
  5
19A5
  8
1
 10
278.0
 20
376.05800145657332
 30
0.0
 11
278.0
 21
336.93967459450829
 31
0.0
  0
LINE
  5
19A6
  8
1
 10
271.31014786756208
 20
286.40592571186068
 30
0.0
 11
284.68985213243769
 21
249.64549036513441
 31
0.0
  0
CIRCLE
  5
19A7
  8
0
 10
172.0
 20
84.0
 30
0.0
 40
6.0
  0
LINE
  5
19A8
  8
1
 10
386.58241689153601
 20
268.02570803849761
 30
0.0
 11
347.45397132748519
 21
268.02570803849761
 31
0.0
  0
LINE
  5
19A9
  8
1
 10
103.5631231146814
 20
268.02570803849761
 30
0.0
 11
64.434677550630454
 21
268.02570803849761
 31
0.0
  0
LINE
  5
19AB
  8
0
 10
80.000000000000114
 20
158.0
 30
0.0
 11
88.000000000000114
 21
158.0
 31
0.0
  0
LINE
  5
19AC
  8
0
 10
78.000000000000114
 20
160.0
 30
0.0
 11
90.000000000000114
 21
160.0
 31
0.0
  0
LINE
  5
19AD
  8
0
 10
78.000000000000114
 20
195.75974788528401
 30
0.0
 11
90.000000000000114
 21
195.75974788528401
 31
0.0
  0
LINE
  5
19AE
  8
0
 10
80.000000000000114
 20
158.0
 30
0.0
 11
78.000000000000114
 21
160.0
 31
0.0
  0
LINE
  5
19AF
  8
0
 10
78.000000000000114
 20
160.0
 30
0.0
 11
78.000000000000114
 21
197.40000000000001
 31
0.0
  0
ARC
  5
19B0
  8
0
 10
77.400000000000205
 20
197.40000000000001
 30
0.0
 40
0.6
 50
0.0
 51
90.0
  0
LINE
  5
19B1
  8
3
 10
78.000000000000341
 20
197.40000000004611
 30
0.0
 11
78.947000000000116
 21
195.7597478852787
 31
0.0
  0
LINE
  5
19B2
  8
3
 10
78.947000000000116
 20
195.7597478852787
 30
0.0
 11
78.947000000000116
 21
159.053
 31
0.0
  0
LINE
  5
19B3
  8
3
 10
89.053000000000225
 20
195.7597478852787
 30
0.0
 11
89.053000000000225
 21
159.053
 31
0.0
  0
LINE
  5
19B4
  8
3
 10
90.0
 20
197.40000000004611
 30
0.0
 11
89.053000000000225
 21
195.7597478852787
 31
0.0
  0
ARC
  5
19B5
  8
0
 10
90.600000000000136
 20
197.40000000000001
 30
0.0
 40
0.6
 50
90.0
 51
180.0
  0
LINE
  5
19B6
  8
0
 10
90.000000000000114
 20
160.0
 30
0.0
 11
90.000000000000114
 21
197.40000000000001
 31
0.0
  0
LINE
  5
19B7
  8
0
 10
88.000000000000114
 20
158.0
 30
0.0
 11
90.000000000000114
 21
160.0
 31
0.0
  0
LINE
  5
19B8
  8
0
 10
168.0
 20
158.0
 30
0.0
 11
176.0
 21
158.0
 31
0.0
  0
LINE
  5
19B9
  8
0
 10
166.0
 20
160.0
 30
0.0
 11
178.0
 21
160.0
 31
0.0
  0
LINE
  5
19BA
  8
0
 10
166.0
 20
195.75974788528401
 30
0.0
 11
178.0
 21
195.75974788528401
 31
0.0
  0
LINE
  5
19BB
  8
0
 10
168.0
 20
158.0
 30
0.0
 11
166.0
 21
160.0
 31
0.0
  0
LINE
  5
19BC
  8
0
 10
166.0
 20
160.0
 30
0.0
 11
166.0
 21
197.40000000000001
 31
0.0
  0
ARC
  5
19BD
  8
0
 10
165.40000000000009
 20
197.40000000000001
 30
0.0
 40
0.6
 50
0.0
 51
90.0
  0
LINE
  5
19BE
  8
3
 10
166.0000000000002
 20
197.40000000004611
 30
0.0
 11
166.947
 21
195.7597478852787
 31
0.0
  0
LINE
  5
19BF
  8
3
 10
166.947
 20
195.7597478852787
 30
0.0
 11
166.947
 21
159.053
 31
0.0
  0
LINE
  5
19C0
  8
3
 10
177.05300000000011
 20
195.7597478852787
 30
0.0
 11
177.05300000000011
 21
159.053
 31
0.0
  0
LINE
  5
19C1
  8
3
 10
177.99999999999989
 20
197.40000000004611
 30
0.0
 11
177.05300000000011
 21
195.7597478852787
 31
0.0
  0
ARC
  5
19C2
  8
0
 10
178.59999999999999
 20
197.40000000000001
 30
0.0
 40
0.6
 50
90.0
 51
180.0
  0
LINE
  5
19C3
  8
0
 10
178.0
 20
160.0
 30
0.0
 11
178.0
 21
197.40000000000001
 31
0.0
  0
LINE
  5
19C4
  8
0
 10
176.0
 20
158.0
 30
0.0
 11
178.0
 21
160.0
 31
0.0
  0
LINE
  5
19C5
  8
0
 10
363.01929377685468
 20
158.0
 30
0.0
 11
371.01929377685468
 21
158.0
 31
0.0
  0
LINE
  5
19C6
  8
0
 10
361.01929377685468
 20
160.0
 30
0.0
 11
373.01929377685468
 21
160.0
 31
0.0
  0
LINE
  5
19C7
  8
0
 10
361.01929377685468
 20
195.75974788528401
 30
0.0
 11
373.01929377685468
 21
195.75974788528401
 31
0.0
  0
LINE
  5
19C8
  8
0
 10
363.01929377685468
 20
158.0
 30
0.0
 11
361.01929377685468
 21
160.0
 31
0.0
  0
LINE
  5
19C9
  8
0
 10
361.01929377685468
 20
160.0
 30
0.0
 11
361.01929377685468
 21
197.40000000000001
 31
0.0
  0
ARC
  5
19CA
  8
0
 10
360.41929377685477
 20
197.40000000000001
 30
0.0
 40
0.6
 50
0.0
 51
90.0
  0
LINE
  5
19CB
  8
3
 10
361.01929377685491
 20
197.40000000004611
 30
0.0
 11
361.9662937768548
 21
195.7597478852787
 31
0.0
  0
LINE
  5
19CC
  8
3
 10
361.9662937768548
 20
195.7597478852787
 30
0.0
 11
361.9662937768548
 21
159.053
 31
0.0
  0
LINE
  5
19CD
  8
3
 10
372.07229377685479
 20
195.7597478852787
 30
0.0
 11
372.07229377685479
 21
159.053
 31
0.0
  0
LINE
  5
19CE
  8
3
 10
373.01929377685462
 20
197.40000000004611
 30
0.0
 11
372.07229377685479
 21
195.7597478852787
 31
0.0
  0
ARC
  5
19CF
  8
0
 10
373.61929377685482
 20
197.40000000000001
 30
0.0
 40
0.6
 50
90.0
 51
180.0
  0
LINE
  5
19D0
  8
0
 10
373.01929377685468
 20
160.0
 30
0.0
 11
373.01929377685468
 21
197.40000000000001
 31
0.0
  0
LINE
  5
19D1
  8
0
 10
371.01929377685468
 20
158.0
 30
0.0
 11
373.01929377685468
 21
160.0
 31
0.0
  0
ENDSEC
  0
EOF
