  0
SECTION
  2
HEADER
  9
$ACADVER
  1
AC1009
  9
$INSBASE
 10
0.0
 20
0.0
 30
0.0
  9
$EXTMIN
 10
0.0
 20
-2.960436562073669
 30
0.0
  9
$EXTMAX
 10
300.0
 20
225.0
 30
0.0
  9
$LIMMIN
 10
0.0
 20
0.0
  9
$LIMMAX
 10
375.0
 20
270.0
  9
$ORTHOMODE
 70
     1
  9
$REGENMODE
 70
     1
  9
$FILLMODE
 70
     1
  9
$QTEXTMODE
 70
     0
  9
$MIRRTEXT
 70
     0
  9
$DRAGMODE
 70
     2
  9
$LTSCALE
 40
10.0
  9
$OSMODE
 70
    55
  9
$ATTMODE
 70
     2
  9
$TEXTSIZE
 40
0.2
  9
$TRACEWID
 40
0.05
  9
$TEXTSTYLE
  7
STANDARD
  9
$CLAYER
  8
0
  9
$CELTYPE
  6
BYLAYER
  9
$CECOLOR
 62
   256
  9
$DIMSCALE
 40
1.0
  9
$DIMASZ
 40
3.0
  9
$DIMEXO
 40
2.0
  9
$DIMDLI
 40
0.38
  9
$DIMRND
 40
0.0
  9
$DIMDLE
 40
0.0
  9
$DIMEXE
 40
2.0
  9
$DIMTP
 40
0.0
  9
$DIMTM
 40
0.0
  9
$DIMTXT
 40
3.2000000000000002
  9
$DIMCEN
 40
0.09
  9
$DIMTSZ
 40
0.0
  9
$DIMTOL
 70
     0
  9
$DIMLIM
 70
     0
  9
$DIMTIH
 70
     0
  9
$DIMTOH
 70
     0
  9
$DIMSE1
 70
     0
  9
$DIMSE2
 70
     0
  9
$DIMTAD
 70
     1
  9
$DIMZIN
 70
     0
  9
$DIMBLK
  1

  9
$DIMASO
 70
     1
  9
$DIMSHO
 70
     0
  9
$DIMPOST
  1

  9
$DIMAPOST
  1

  9
$DIMALT
 70
     0
  9
$DIMALTD
 70
     2
  9
$DIMALTF
 40
25.399999999999999
  9
$DIMLFAC
 40
1.0
  9
$DIMTOFL
 70
     0
  9
$DIMTVP
 40
0.0
  9
$DIMTIX
 70
     0
  9
$DIMSOXD
 70
     0
  9
$DIMSAH
 70
     0
  9
$DIMBLK1
  1

  9
$DIMBLK2
  1

  9
$DIMSTYLE
  2
STANDARD
  9
$DIMCLRD
 70
     0
  9
$DIMCLRE
 70
     0
  9
$DIMCLRT
 70
     0
  9
$DIMTFAC
 40
1.0
  9
$DIMGAP
 40
0.09
  9
$LUNITS
 70
     2
  9
$LUPREC
 70
     4
  9
$SKETCHINC
 40
0.1
  9
$FILLETRAD
 40
0.0
  9
$AUNITS
 70
     0
  9
$AUPREC
 70
     0
  9
$MENU
  1
E:\r13\win\SUPPORT\ACAD
  9
$ELEVATION
 40
0.0
  9
$PELEVATION
 40
0.0
  9
$THICKNESS
 40
0.0
  9
$LIMCHECK
 70
     0
  9
$BLIPMODE
 70
     0
  9
$CHAMFERA
 40
0.0
  9
$CHAMFERB
 40
0.0
  9
$SKPOLY
 70
     0
  9
$TDCREATE
 40
2449840.605
  9
$TDUPDATE
 40
2456598.4477504282
  9
$TDINDWG
 40
0.0002725116
  9
$TDUSRTIMER
 40
0.0002725116
  9
$USRTIMER
 70
     1
  9
$ANGBASE
 50
0.0
  9
$ANGDIR
 70
     0
  9
$PDMODE
 70
     0
  9
$PDSIZE
 40
0.0
  9
$PLINEWID
 40
0.0
  9
$COORDS
 70
     1
  9
$SPLFRAME
 70
     0
  9
$SPLINETYPE
 70
     6
  9
$SPLINESEGS
 70
     8
  9
$ATTDIA
 70
     0
  9
$ATTREQ
 70
     1
  9
$HANDLING
 70
     1
  9
$HANDSEED
  5
366
  9
$SURFTAB1
 70
     6
  9
$SURFTAB2
 70
     6
  9
$SURFTYPE
 70
     6
  9
$SURFU
 70
     6
  9
$SURFV
 70
     6
  9
$UCSNAME
  2

  9
$UCSORG
 10
0.0
 20
0.0
 30
0.0
  9
$UCSXDIR
 10
1.0
 20
0.0
 30
0.0
  9
$UCSYDIR
 10
0.0
 20
1.0
 30
0.0
  9
$PUCSNAME
  2

  9
$PUCSORG
 10
0.0
 20
0.0
 30
0.0
  9
$PUCSXDIR
 10
1.0
 20
0.0
 30
0.0
  9
$PUCSYDIR
 10
0.0
 20
1.0
 30
0.0
  9
$USERI1
 70
     0
  9
$USERI2
 70
     1
  9
$USERI3
 70
     1
  9
$USERI4
 70
     0
  9
$USERI5
 70
     0
  9
$USERR1
 40
0.0
  9
$USERR2
 40
0.0
  9
$USERR3
 40
0.0
  9
$USERR4
 40
0.0
  9
$USERR5
 40
0.0
  9
$WORLDVIEW
 70
     1
  9
$SHADEDGE
 70
     3
  9
$SHADEDIF
 70
    70
  9
$TILEMODE
 70
     1
  9
$MAXACTVP
 70
    16
  9
$PLIMCHECK
 70
     0
  9
$PEXTMIN
 10
1.0000000000000000E+020
 20
1.0000000000000000E+020
 30
1.0000000000000000E+020
  9
$PEXTMAX
 10
-1.0000000000000000E+020
 20
-1.0000000000000000E+020
 30
-1.0000000000000000E+020
  9
$PLIMMIN
 10
0.0
 20
0.0
  9
$PLIMMAX
 10
12.0
 20
9.0
  9
$UNITMODE
 70
     0
  9
$VISRETAIN
 70
     0
  9
$PLINEGEN
 70
     0
  9
$PSLTSCALE
 70
     0
  0
ENDSEC
  0
SECTION
  2
TABLES
  0
TABLE
  2
VPORT
 70
     1
  0
VPORT
  2
*ACTIVE
 70
     0
 10
0.0
 20
0.0
 11
1.0
 21
1.0
 12
187.4942783906524
 22
197.0509055860143
 13
0.0
 23
0.0
 14
10.0
 24
10.0
 15
10.0
 25
10.0
 16
0.0
 26
0.0
 36
1.0
 17
0.0
 27
0.0
 37
0.0
 40
403.57315882993248
 41
1.7807262569832401
 42
50.0
 43
0.0
 44
0.0
 50
0.0
 51
0.0
 71
     0
 72
   100
 73
     1
 74
     0
 75
     0
 76
     0
 77
     0
 78
     0
  0
ENDTAB
  0
TABLE
  2
LTYPE
 70
     3
  0
LTYPE
  2
CONTINUOUS
 70
     0
  3
Solid Line
 72
    65
 73
     0
 40
0.0
  0
LTYPE
  2
CENTER
 70
     0
  3
____ _ ____ _ ____ _ ____ _ ____ _ ____ _ ____
 72
    65
 73
     4
 40
2.0
 49
1.25
 49
-0.25
 49
0.25
 49
-0.25
  0
LTYPE
  2
PHANTOM2
 70
     0
  3
___ _ _ ___ _ _ ___ _ _ ___ _ _
 72
    65
 73
     6
 40
1.25
 49
0.625
 49
-0.125
 49
0.125
 49
-0.125
 49
0.125
 49
-0.125
  0
ENDTAB
  0
TABLE
  2
LAYER
 70
     3
  0
LAYER
  2
0
 70
     0
 62
     7
  6
CONTINUOUS
  0
LAYER
  2
1
 70
     0
 62
     1
  6
CENTER
  0
LAYER
  2
3
 70
     0
 62
     3
  6
CONTINUOUS
  0
ENDTAB
  0
TABLE
  2
STYLE
 70
     2
  0
STYLE
  2
STANDARD
 70
     0
 40
0.0
 41
1.0
 50
0.0
 71
     0
 42
0.2
  3
TXT
  4
BIGFONT
  0
STYLE
  2
STANDARD1
 70
     0
 40
0.0
 41
1.0
 50
0.0
 71
     0
 42
3.0
  3
txt
  4

  0
ENDTAB
  0
TABLE
  2
VIEW
 70
     1
  0
VIEW
  2
ALL
 70
     0
 40
270.0
 10
220.99159700000001
 20
135.0
 41
0.0
 11
0.0
 21
0.0
 31
1.0
 12
0.0
 22
0.0
 32
0.0
 42
0.0
 43
0.0
 44
0.0
 50
0.0
 71
     0
  0
ENDTAB
  0
TABLE
  2
UCS
 70
     0
  0
ENDTAB
  0
TABLE
  2
APPID
 70
     3
  0
APPID
  2
ACAD
 70
     0
  0
APPID
  2
ACAD_MLEADERVER
 70
     0
  0
APPID
  2
ACAD_NAV_VCDISPLAY
 70
     0
  0
ENDTAB
  0
TABLE
  2
DIMSTYLE
 70
     1
  0
DIMSTYLE
  2
STANDARD
 70
     0
  3

  4

  5

  6

  7

 40
1.0
 41
0.18
 42
0.0625
 43
0.38
 44
0.18
 45
0.0
 46
0.0
 47
0.0
 48
0.0
140
0.18
141
0.09
142
0.0
143
25.399999999999999
144
1.0
145
0.0
146
1.0
147
0.09
 71
     0
 72
     0
 73
     1
 74
     1
 75
     0
 76
     0
 77
     0
 78
     0
170
     0
171
     2
172
     0
173
     0
174
     0
175
     0
176
     0
177
     0
178
     0
  0
ENDTAB
  0
ENDSEC
  0
SECTION
  2
BLOCKS
  0
BLOCK
  8
0
  2
$MODEL_SPACE
 70
     0
 10
0.0
 20
0.0
 30
0.0
  3
$MODEL_SPACE
  1

  0
ENDBLK
  5
176
  8
0
  0
BLOCK
 67
     1
  8
0
  2
$PAPER_SPACE
 70
     0
 10
0.0
 20
0.0
 30
0.0
  3
$PAPER_SPACE
  1

  0
ENDBLK
  5
174
 67
     1
  8
0
  0
ENDSEC
  0
SECTION
  2
ENTITIES
  0
LINE
  5
34
  8
3
 10
162.59999999999999
 20
140.0
 30
0.0
 11
167.40000000000001
 21
140.0
 31
0.0
  0
LINE
  5
35
  8
0
 10
210.0
 20
137.19999999999999
 30
0.0
 11
208.80000000000001
 21
136.0
 31
0.0
  0
LINE
  5
36
  8
0
 10
208.80000000000001
 20
136.0
 30
0.0
 11
182.5
 21
136.0
 31
0.0
  0
LINE
  5
37
  8
0
 10
181.90000000000001
 20
137.0
 30
0.0
 11
180.59999999999999
 21
137.0
 31
0.0
  0
LINE
  5
38
  8
0
 10
180.0
 20
132.59999999999999
 30
0.0
 11
179.40000000000001
 21
132.0
 31
0.0
  0
LINE
  5
39
  8
0
 10
179.40000000000001
 20
132.0
 30
0.0
 11
170.0
 21
132.0
 31
0.0
  0
LINE
  5
3A
  8
0
 10
168.0
 20
125.59999999999999
 30
0.0
 11
167.40000000000001
 21
125.0
 31
0.0
  0
LINE
  5
3B
  8
0
 10
167.40000000000001
 20
125.0
 30
0.0
 11
162.59999999999999
 21
125.0
 31
0.0
  0
LINE
  5
3C
  8
0
 10
162.59999999999999
 20
125.0
 30
0.0
 11
162.0
 21
125.59999999999999
 31
0.0
  0
ARC
  5
3D
  8
0
 10
170.0
 20
130.0
 30
0.0
 40
2.0
 50
90.0
 51
180.0
  0
ARC
  5
3E
  8
0
 10
180.59999999999999
 20
136.40000000000001
 30
0.0
 40
0.6
 50
90.0
 51
180.0
  0
ARC
  5
3F
  8
0
 10
181.90000000000001
 20
136.40000000000001
 30
0.0
 40
0.6
 50
360.0
 51
90.0
  0
LINE
  5
40
  8
3
 10
209.47649999999999
 20
136.6765
 30
0.0
 11
182.432492
 21
136.6765
 31
0.0
  0
LINE
  5
41
  8
3
 10
162.59999999999999
 20
125.471253
 30
0.0
 11
167.40000000000001
 21
125.471253
 31
0.0
  0
LINE
  5
42
  8
3
 10
162.59999999999999
 20
125.265691
 30
0.0
 11
167.40000000000001
 21
125.265691
 31
0.0
  0
LINE
  5
43
  8
3
 10
162.59999999999999
 20
125.118279
 30
0.0
 11
167.40000000000001
 21
125.118279
 31
0.0
  0
LINE
  5
44
  8
0
 10
162.59999999999999
 20
125.029599
 30
0.0
 11
167.40000000000001
 21
125.029599
 31
0.0
  0
LINE
  5
45
  8
3
 10
162.59999999999999
 20
125.73415199999999
 30
0.0
 11
167.40000000000001
 21
125.73415199999999
 31
0.0
  0
LINE
  5
46
  8
3
 10
162.59999999999999
 20
126.053353
 30
0.0
 11
167.40000000000001
 21
126.053353
 31
0.0
  0
LINE
  5
47
  8
3
 10
162.59999999999999
 20
126.427594
 30
0.0
 11
167.40000000000001
 21
126.427594
 31
0.0
  0
LINE
  5
48
  8
3
 10
162.59999999999999
 20
126.8554
 30
0.0
 11
167.40000000000001
 21
126.8554
 31
0.0
  0
LINE
  5
49
  8
3
 10
162.59999999999999
 20
127.335081
 30
0.0
 11
167.40000000000001
 21
127.335081
 31
0.0
  0
LINE
  5
4A
  8
3
 10
162.59999999999999
 20
127.864745
 30
0.0
 11
167.40000000000001
 21
127.864745
 31
0.0
  0
LINE
  5
4B
  8
3
 10
162.59999999999999
 20
128.44230099999999
 30
0.0
 11
167.40000000000001
 21
128.44230099999999
 31
0.0
  0
LINE
  5
4C
  8
3
 10
162.59999999999999
 20
129.065471
 30
0.0
 11
167.40000000000001
 21
129.065471
 31
0.0
  0
LINE
  5
4D
  8
3
 10
162.59999999999999
 20
129.73179300000001
 30
0.0
 11
167.40000000000001
 21
129.73179300000001
 31
0.0
  0
LINE
  5
4E
  8
3
 10
162.59999999999999
 20
130.43863999999999
 30
0.0
 11
167.40000000000001
 21
130.43863999999999
 31
0.0
  0
LINE
  5
4F
  8
3
 10
162.59999999999999
 20
131.183221
 30
0.0
 11
167.40000000000001
 21
131.183221
 31
0.0
  0
LINE
  5
50
  8
3
 10
162.59999999999999
 20
131.96259800000001
 30
0.0
 11
167.40000000000001
 21
131.96259800000001
 31
0.0
  0
LINE
  5
51
  8
3
 10
162.59999999999999
 20
132.773695
 30
0.0
 11
167.40000000000001
 21
132.773695
 31
0.0
  0
LINE
  5
52
  8
3
 10
162.59999999999999
 20
133.61331100000001
 30
0.0
 11
167.40000000000001
 21
133.61331100000001
 31
0.0
  0
LINE
  5
53
  8
3
 10
162.59999999999999
 20
134.47813199999999
 30
0.0
 11
167.40000000000001
 21
134.47813199999999
 31
0.0
  0
LINE
  5
54
  8
3
 10
162.59999999999999
 20
135.364745
 30
0.0
 11
167.40000000000001
 21
135.364745
 31
0.0
  0
LINE
  5
55
  8
3
 10
162.59999999999999
 20
136.26965200000001
 30
0.0
 11
167.40000000000001
 21
136.26965200000001
 31
0.0
  0
LINE
  5
56
  8
3
 10
162.59999999999999
 20
137.18928
 30
0.0
 11
167.40000000000001
 21
137.18928
 31
0.0
  0
LINE
  5
57
  8
3
 10
162.59999999999999
 20
138.120001
 30
0.0
 11
167.40000000000001
 21
138.120001
 31
0.0
  0
LINE
  5
58
  8
3
 10
162.59999999999999
 20
139.058142
 30
0.0
 11
167.40000000000001
 21
139.058142
 31
0.0
  0
LINE
  5
59
  8
0
 10
179.40000000000001
 20
148.0
 30
0.0
 11
179.40000000000001
 21
132.0
 31
0.0
  0
LINE
  5
5A
  8
0
 10
162.59999999999999
 20
155.0
 30
0.0
 11
162.59999999999999
 21
125.0
 31
0.0
  0
LINE
  5
5B
  8
0
 10
167.40000000000001
 20
155.0
 30
0.0
 11
167.40000000000001
 21
125.0
 31
0.0
  0
LINE
  5
5C
  8
0
 10
162.0
 20
154.40000000000001
 30
0.0
 11
162.0
 21
125.59999999999999
 31
0.0
  0
LINE
  5
5D
  8
0
 10
168.0
 20
154.40000000000001
 30
0.0
 11
168.0
 21
125.59999999999999
 31
0.0
  0
LINE
  5
5E
  8
0
 10
180.0
 20
147.40000000000001
 30
0.0
 11
180.0
 21
132.59999999999999
 31
0.0
  0
LINE
  5
5F
  8
0
 10
182.5
 20
144.0
 30
0.0
 11
182.5
 21
136.0
 31
0.0
  0
LINE
  5
60
  8
0
 10
208.80000000000001
 20
144.0
 30
0.0
 11
208.80000000000001
 21
136.0
 31
0.0
  0
LINE
  5
61
  8
0
 10
210.0
 20
142.80000000000001
 30
0.0
 11
210.0
 21
137.19999999999999
 31
0.0
  0
LINE
  5
62
  8
3
 10
162.59999999999999
 20
140.941858
 30
0.0
 11
167.40000000000001
 21
140.941858
 31
0.0
  0
LINE
  5
63
  8
3
 10
162.59999999999999
 20
141.879999
 30
0.0
 11
167.40000000000001
 21
141.879999
 31
0.0
  0
LINE
  5
64
  8
3
 10
162.59999999999999
 20
141.879999
 30
0.0
 11
167.40000000000001
 21
141.879999
 31
0.0
  0
LINE
  5
65
  8
3
 10
162.59999999999999
 20
142.81072
 30
0.0
 11
167.40000000000001
 21
142.81072
 31
0.0
  0
LINE
  5
66
  8
3
 10
162.59999999999999
 20
143.73034799999999
 30
0.0
 11
167.40000000000001
 21
143.73034799999999
 31
0.0
  0
LINE
  5
67
  8
3
 10
162.59999999999999
 20
144.635255
 30
0.0
 11
167.40000000000001
 21
144.635255
 31
0.0
  0
LINE
  5
68
  8
3
 10
162.59999999999999
 20
145.5218679999999
 30
0.0
 11
167.40000000000001
 21
145.5218679999999
 31
0.0
  0
LINE
  5
69
  8
3
 10
162.59999999999999
 20
146.38668899999999
 30
0.0
 11
167.40000000000001
 21
146.38668899999999
 31
0.0
  0
LINE
  5
6A
  8
3
 10
162.59999999999999
 20
147.226305
 30
0.0
 11
167.40000000000001
 21
147.226305
 31
0.0
  0
LINE
  5
6B
  8
3
 10
162.59999999999999
 20
148.03740199999999
 30
0.0
 11
167.40000000000001
 21
148.03740199999999
 31
0.0
  0
LINE
  5
6C
  8
3
 10
162.59999999999999
 20
148.816779
 30
0.0
 11
167.40000000000001
 21
148.816779
 31
0.0
  0
LINE
  5
6D
  8
3
 10
162.59999999999999
 20
149.56136000000001
 30
0.0
 11
167.40000000000001
 21
149.56136000000001
 31
0.0
  0
LINE
  5
6E
  8
3
 10
162.59999999999999
 20
150.26820699999999
 30
0.0
 11
167.40000000000001
 21
150.26820699999999
 31
0.0
  0
LINE
  5
6F
  8
3
 10
162.59999999999999
 20
150.934529
 30
0.0
 11
167.40000000000001
 21
150.934529
 31
0.0
  0
LINE
  5
70
  8
3
 10
162.59999999999999
 20
151.55769900000001
 30
0.0
 11
167.40000000000001
 21
151.55769900000001
 31
0.0
  0
LINE
  5
71
  8
3
 10
162.59999999999999
 20
152.135255
 30
0.0
 11
167.40000000000001
 21
152.135255
 31
0.0
  0
LINE
  5
72
  8
3
 10
162.59999999999999
 20
152.664919
 30
0.0
 11
167.40000000000001
 21
152.664919
 31
0.0
  0
LINE
  5
73
  8
3
 10
162.59999999999999
 20
153.1446
 30
0.0
 11
167.40000000000001
 21
153.1446
 31
0.0
  0
LINE
  5
74
  8
3
 10
162.59999999999999
 20
153.572406
 30
0.0
 11
167.40000000000001
 21
153.572406
 31
0.0
  0
LINE
  5
75
  8
3
 10
162.59999999999999
 20
153.9466469999999
 30
0.0
 11
167.40000000000001
 21
153.9466469999999
 31
0.0
  0
LINE
  5
76
  8
3
 10
162.59999999999999
 20
154.26584800000001
 30
0.0
 11
167.40000000000001
 21
154.26584800000001
 31
0.0
  0
LINE
  5
77
  8
0
 10
162.59999999999999
 20
154.97040100000001
 30
0.0
 11
167.40000000000001
 21
154.97040100000001
 31
0.0
  0
LINE
  5
78
  8
3
 10
162.59999999999999
 20
154.881721
 30
0.0
 11
167.40000000000001
 21
154.881721
 31
0.0
  0
LINE
  5
79
  8
3
 10
162.59999999999999
 20
154.734309
 30
0.0
 11
167.40000000000001
 21
154.734309
 31
0.0
  0
LINE
  5
7A
  8
3
 10
162.59999999999999
 20
154.52874700000001
 30
0.0
 11
167.40000000000001
 21
154.52874700000001
 31
0.0
  0
LINE
  5
7B
  8
3
 10
209.47649999999999
 20
143.3235
 30
0.0
 11
182.432492
 21
143.3235
 31
0.0
  0
ARC
  5
7C
  8
0
 10
181.90000000000001
 20
143.59999999999999
 30
0.0
 40
0.6
 50
270.0
 51
360.0
  0
ARC
  5
7D
  8
0
 10
180.59999999999999
 20
143.59999999999999
 30
0.0
 40
0.6
 50
180.0
 51
270.0
  0
ARC
  5
7E
  8
0
 10
170.0
 20
150.0
 30
0.0
 40
2.0
 50
180.0
 51
270.0
  0
LINE
  5
7F
  8
0
 10
162.59999999999999
 20
155.0
 30
0.0
 11
162.0
 21
154.40000000000001
 31
0.0
  0
LINE
  5
80
  8
0
 10
167.40000000000001
 20
155.0
 30
0.0
 11
162.59999999999999
 21
155.0
 31
0.0
  0
LINE
  5
81
  8
0
 10
168.0
 20
154.40000000000001
 30
0.0
 11
167.40000000000001
 21
155.0
 31
0.0
  0
LINE
  5
82
  8
0
 10
179.40000000000001
 20
148.0
 30
0.0
 11
170.0
 21
148.0
 31
0.0
  0
LINE
  5
83
  8
0
 10
180.0
 20
147.40000000000001
 30
0.0
 11
179.40000000000001
 21
148.0
 31
0.0
  0
LINE
  5
84
  8
0
 10
181.90000000000001
 20
143.0
 30
0.0
 11
180.59999999999999
 21
143.0
 31
0.0
  0
LINE
  5
85
  8
0
 10
208.80000000000001
 20
144.0
 30
0.0
 11
182.5
 21
144.0
 31
0.0
  0
LINE
  5
86
  8
0
 10
210.0
 20
142.80000000000001
 30
0.0
 11
208.80000000000001
 21
144.0
 31
0.0
  0
LINE
  5
87
  8
1
 10
157.0
 20
140.0
 30
0.0
 11
215.0
 21
140.0
 31
0.0
  0
LINE
  5
88
  8
1
 10
157.0
 20
210.0
 30
0.0
 11
215.0
 21
210.0
 31
0.0
  0
LINE
  5
89
  8
0
 10
210.0
 20
212.80000000000001
 30
0.0
 11
208.80000000000001
 21
214.0
 31
0.0
  0
LINE
  5
8A
  8
0
 10
208.80000000000001
 20
214.0
 30
0.0
 11
182.5
 21
214.0
 31
0.0
  0
LINE
  5
8B
  8
0
 10
181.90000000000001
 20
213.0
 30
0.0
 11
180.59999999999999
 21
213.0
 31
0.0
  0
LINE
  5
8C
  8
0
 10
180.0
 20
217.40000000000001
 30
0.0
 11
179.40000000000001
 21
218.0
 31
0.0
  0
LINE
  5
8D
  8
0
 10
179.40000000000001
 20
218.0
 30
0.0
 11
170.0
 21
218.0
 31
0.0
  0
LINE
  5
8E
  8
0
 10
168.0
 20
224.40000000000001
 30
0.0
 11
167.40000000000001
 21
225.0
 31
0.0
  0
LINE
  5
8F
  8
0
 10
167.40000000000001
 20
225.0
 30
0.0
 11
162.59999999999999
 21
225.0
 31
0.0
  0
LINE
  5
90
  8
0
 10
162.59999999999999
 20
225.0
 30
0.0
 11
162.0
 21
224.40000000000001
 31
0.0
  0
ARC
  5
91
  8
0
 10
170.0
 20
220.0
 30
0.0
 40
2.0
 50
180.0
 51
270.0
  0
ARC
  5
92
  8
0
 10
180.59999999999999
 20
213.59999999999999
 30
0.0
 40
0.6
 50
180.0
 51
270.0
  0
ARC
  5
93
  8
0
 10
181.90000000000001
 20
213.59999999999999
 30
0.0
 40
0.6
 50
270.0
 51
360.0
  0
LINE
  5
94
  8
3
 10
209.47649999999999
 20
213.3235
 30
0.0
 11
182.432492
 21
213.3235
 31
0.0
  0
LINE
  5
95
  8
3
 10
162.59999999999999
 20
224.52874700000001
 30
0.0
 11
167.40000000000001
 21
224.52874700000001
 31
0.0
  0
LINE
  5
96
  8
3
 10
162.59999999999999
 20
224.734309
 30
0.0
 11
167.40000000000001
 21
224.734309
 31
0.0
  0
LINE
  5
97
  8
3
 10
162.59999999999999
 20
224.881721
 30
0.0
 11
167.40000000000001
 21
224.881721
 31
0.0
  0
LINE
  5
98
  8
0
 10
162.59999999999999
 20
224.97040100000001
 30
0.0
 11
167.40000000000001
 21
224.97040100000001
 31
0.0
  0
LINE
  5
99
  8
3
 10
162.59999999999999
 20
224.26584800000001
 30
0.0
 11
167.40000000000001
 21
224.26584800000001
 31
0.0
  0
LINE
  5
9A
  8
3
 10
162.59999999999999
 20
223.94664700000001
 30
0.0
 11
167.40000000000001
 21
223.94664700000001
 31
0.0
  0
LINE
  5
9B
  8
3
 10
162.59999999999999
 20
223.572406
 30
0.0
 11
167.40000000000001
 21
223.572406
 31
0.0
  0
LINE
  5
9C
  8
3
 10
162.59999999999999
 20
223.1446
 30
0.0
 11
167.40000000000001
 21
223.1446
 31
0.0
  0
LINE
  5
9D
  8
3
 10
162.59999999999999
 20
222.664919
 30
0.0
 11
167.40000000000001
 21
222.664919
 31
0.0
  0
LINE
  5
9E
  8
3
 10
162.59999999999999
 20
222.135255
 30
0.0
 11
167.40000000000001
 21
222.135255
 31
0.0
  0
LINE
  5
9F
  8
3
 10
162.59999999999999
 20
221.55769900000001
 30
0.0
 11
167.40000000000001
 21
221.55769900000001
 31
0.0
  0
LINE
  5
A0
  8
3
 10
162.59999999999999
 20
220.934529
 30
0.0
 11
167.40000000000001
 21
220.934529
 31
0.0
  0
LINE
  5
A1
  8
3
 10
162.59999999999999
 20
220.26820699999999
 30
0.0
 11
167.40000000000001
 21
220.26820699999999
 31
0.0
  0
LINE
  5
A2
  8
3
 10
162.59999999999999
 20
219.56136000000001
 30
0.0
 11
167.40000000000001
 21
219.56136000000001
 31
0.0
  0
LINE
  5
A3
  8
3
 10
162.59999999999999
 20
218.816779
 30
0.0
 11
167.40000000000001
 21
218.816779
 31
0.0
  0
LINE
  5
A4
  8
3
 10
162.59999999999999
 20
218.03740199999999
 30
0.0
 11
167.40000000000001
 21
218.03740199999999
 31
0.0
  0
LINE
  5
A5
  8
3
 10
162.59999999999999
 20
217.226305
 30
0.0
 11
167.40000000000001
 21
217.226305
 31
0.0
  0
LINE
  5
A6
  8
3
 10
162.59999999999999
 20
216.38668899999999
 30
0.0
 11
167.40000000000001
 21
216.38668899999999
 31
0.0
  0
LINE
  5
A7
  8
3
 10
162.59999999999999
 20
215.52186800000001
 30
0.0
 11
167.40000000000001
 21
215.52186800000001
 31
0.0
  0
LINE
  5
A8
  8
3
 10
162.59999999999999
 20
214.635255
 30
0.0
 11
167.40000000000001
 21
214.635255
 31
0.0
  0
LINE
  5
A9
  8
3
 10
162.59999999999999
 20
213.73034799999999
 30
0.0
 11
167.40000000000001
 21
213.73034799999999
 31
0.0
  0
LINE
  5
AA
  8
3
 10
162.59999999999999
 20
212.81072
 30
0.0
 11
167.40000000000001
 21
212.81072
 31
0.0
  0
LINE
  5
AB
  8
3
 10
162.59999999999999
 20
211.879999
 30
0.0
 11
167.40000000000001
 21
211.879999
 31
0.0
  0
LINE
  5
AC
  8
3
 10
162.59999999999999
 20
211.879999
 30
0.0
 11
167.40000000000001
 21
211.879999
 31
0.0
  0
LINE
  5
AD
  8
3
 10
162.59999999999999
 20
210.941858
 30
0.0
 11
167.40000000000001
 21
210.941858
 31
0.0
  0
LINE
  5
AE
  8
0
 10
210.0
 20
212.80000000000001
 30
0.0
 11
210.0
 21
207.19999999999999
 31
0.0
  0
LINE
  5
AF
  8
0
 10
208.80000000000001
 20
214.0
 30
0.0
 11
208.80000000000001
 21
206.0
 31
0.0
  0
LINE
  5
B0
  8
0
 10
182.5
 20
214.0
 30
0.0
 11
182.5
 21
206.0
 31
0.0
  0
LINE
  5
B1
  8
0
 10
180.0
 20
217.40000000000001
 30
0.0
 11
180.0
 21
202.59999999999999
 31
0.0
  0
LINE
  5
B2
  8
0
 10
168.0
 20
224.40000000000001
 30
0.0
 11
168.0
 21
195.59999999999999
 31
0.0
  0
LINE
  5
B3
  8
0
 10
162.0
 20
224.40000000000001
 30
0.0
 11
162.0
 21
195.59999999999999
 31
0.0
  0
LINE
  5
B4
  8
0
 10
167.40000000000001
 20
225.0
 30
0.0
 11
167.40000000000001
 21
195.0
 31
0.0
  0
LINE
  5
B5
  8
0
 10
162.59999999999999
 20
225.0
 30
0.0
 11
162.59999999999999
 21
195.0
 31
0.0
  0
LINE
  5
B6
  8
0
 10
179.40000000000001
 20
218.0
 30
0.0
 11
179.40000000000001
 21
202.0
 31
0.0
  0
LINE
  5
B7
  8
3
 10
162.59999999999999
 20
209.058142
 30
0.0
 11
167.40000000000001
 21
209.058142
 31
0.0
  0
LINE
  5
B8
  8
3
 10
162.59999999999999
 20
208.120001
 30
0.0
 11
167.40000000000001
 21
208.120001
 31
0.0
  0
LINE
  5
B9
  8
3
 10
162.59999999999999
 20
207.18928
 30
0.0
 11
167.40000000000001
 21
207.18928
 31
0.0
  0
LINE
  5
BA
  8
3
 10
162.59999999999999
 20
206.26965200000001
 30
0.0
 11
167.40000000000001
 21
206.26965200000001
 31
0.0
  0
LINE
  5
BB
  8
3
 10
162.59999999999999
 20
205.364745
 30
0.0
 11
167.40000000000001
 21
205.364745
 31
0.0
  0
LINE
  5
BC
  8
3
 10
162.59999999999999
 20
204.47813199999999
 30
0.0
 11
167.40000000000001
 21
204.47813199999999
 31
0.0
  0
LINE
  5
BD
  8
3
 10
162.59999999999999
 20
203.61331100000001
 30
0.0
 11
167.40000000000001
 21
203.61331100000001
 31
0.0
  0
LINE
  5
BE
  8
3
 10
162.59999999999999
 20
202.773695
 30
0.0
 11
167.40000000000001
 21
202.773695
 31
0.0
  0
LINE
  5
BF
  8
3
 10
162.59999999999999
 20
201.96259800000001
 30
0.0
 11
167.40000000000001
 21
201.96259800000001
 31
0.0
  0
LINE
  5
C0
  8
3
 10
162.59999999999999
 20
201.183221
 30
0.0
 11
167.40000000000001
 21
201.183221
 31
0.0
  0
LINE
  5
C1
  8
3
 10
162.59999999999999
 20
200.43863999999999
 30
0.0
 11
167.40000000000001
 21
200.43863999999999
 31
0.0
  0
LINE
  5
C2
  8
3
 10
162.59999999999999
 20
199.73179300000001
 30
0.0
 11
167.40000000000001
 21
199.73179300000001
 31
0.0
  0
LINE
  5
C3
  8
3
 10
162.59999999999999
 20
199.065471
 30
0.0
 11
167.40000000000001
 21
199.065471
 31
0.0
  0
LINE
  5
C4
  8
3
 10
162.59999999999999
 20
198.44230099999999
 30
0.0
 11
167.40000000000001
 21
198.44230099999999
 31
0.0
  0
LINE
  5
C5
  8
3
 10
162.59999999999999
 20
197.864745
 30
0.0
 11
167.40000000000001
 21
197.864745
 31
0.0
  0
LINE
  5
C6
  8
3
 10
162.59999999999999
 20
197.335081
 30
0.0
 11
167.40000000000001
 21
197.335081
 31
0.0
  0
LINE
  5
C7
  8
3
 10
162.59999999999999
 20
196.8554
 30
0.0
 11
167.40000000000001
 21
196.8554
 31
0.0
  0
LINE
  5
C8
  8
3
 10
162.59999999999999
 20
196.427594
 30
0.0
 11
167.40000000000001
 21
196.427594
 31
0.0
  0
LINE
  5
C9
  8
3
 10
162.59999999999999
 20
196.05335299999999
 30
0.0
 11
167.40000000000001
 21
196.05335299999999
 31
0.0
  0
LINE
  5
CA
  8
3
 10
162.59999999999999
 20
195.73415199999999
 30
0.0
 11
167.40000000000001
 21
195.73415199999999
 31
0.0
  0
LINE
  5
CB
  8
0
 10
162.59999999999999
 20
195.02959899999999
 30
0.0
 11
167.40000000000001
 21
195.02959899999999
 31
0.0
  0
LINE
  5
CC
  8
3
 10
162.59999999999999
 20
195.118279
 30
0.0
 11
167.40000000000001
 21
195.118279
 31
0.0
  0
LINE
  5
CD
  8
3
 10
162.59999999999999
 20
195.265691
 30
0.0
 11
167.40000000000001
 21
195.265691
 31
0.0
  0
LINE
  5
CE
  8
3
 10
162.59999999999999
 20
195.47125299999999
 30
0.0
 11
167.40000000000001
 21
195.47125299999999
 31
0.0
  0
LINE
  5
CF
  8
3
 10
209.47649999999999
 20
206.6765
 30
0.0
 11
182.432492
 21
206.6765
 31
0.0
  0
ARC
  5
D0
  8
0
 10
181.90000000000001
 20
206.40000000000001
 30
0.0
 40
0.6
 50
360.0
 51
90.0
  0
ARC
  5
D1
  8
0
 10
180.59999999999999
 20
206.40000000000001
 30
0.0
 40
0.6
 50
90.0
 51
180.0
  0
ARC
  5
D2
  8
0
 10
170.0
 20
200.0
 30
0.0
 40
2.0
 50
90.0
 51
180.0
  0
LINE
  5
D3
  8
0
 10
162.59999999999999
 20
195.0
 30
0.0
 11
162.0
 21
195.59999999999999
 31
0.0
  0
LINE
  5
D4
  8
0
 10
167.40000000000001
 20
195.0
 30
0.0
 11
162.59999999999999
 21
195.0
 31
0.0
  0
LINE
  5
D5
  8
0
 10
168.0
 20
195.59999999999999
 30
0.0
 11
167.40000000000001
 21
195.0
 31
0.0
  0
LINE
  5
D6
  8
0
 10
179.40000000000001
 20
202.0
 30
0.0
 11
170.0
 21
202.0
 31
0.0
  0
LINE
  5
D7
  8
0
 10
180.0
 20
202.59999999999999
 30
0.0
 11
179.40000000000001
 21
202.0
 31
0.0
  0
LINE
  5
D8
  8
0
 10
181.90000000000001
 20
207.0
 30
0.0
 11
180.59999999999999
 21
207.0
 31
0.0
  0
LINE
  5
D9
  8
0
 10
208.80000000000001
 20
206.0
 30
0.0
 11
182.5
 21
206.0
 31
0.0
  0
LINE
  5
DA
  8
0
 10
210.0
 20
207.19999999999999
 30
0.0
 11
208.80000000000001
 21
206.0
 31
0.0
  0
LINE
  5
DB
  8
3
 10
162.59999999999999
 20
210.0
 30
0.0
 11
167.40000000000001
 21
210.0
 31
0.0
  0
LINE
  5
DC
  8
1
 10
157.0
 20
70.0
 30
0.0
 11
215.0
 21
70.0
 31
0.0
  0
LINE
  5
DD
  8
0
 10
210.0
 20
72.799999999999997
 30
0.0
 11
208.80000000000001
 21
74.0
 31
0.0
  0
LINE
  5
DE
  8
0
 10
208.80000000000001
 20
74.0
 30
0.0
 11
182.5
 21
74.0
 31
0.0
  0
LINE
  5
DF
  8
0
 10
181.90000000000001
 20
73.0
 30
0.0
 11
180.59999999999999
 21
73.0
 31
0.0
  0
LINE
  5
E0
  8
0
 10
180.0
 20
77.400000000000006
 30
0.0
 11
179.40000000000001
 21
78.0
 31
0.0
  0
LINE
  5
E1
  8
0
 10
179.40000000000001
 20
78.0
 30
0.0
 11
170.0
 21
78.0
 31
0.0
  0
LINE
  5
E2
  8
0
 10
168.0
 20
84.400000000000006
 30
0.0
 11
167.40000000000001
 21
85.0
 31
0.0
  0
LINE
  5
E3
  8
0
 10
167.40000000000001
 20
85.0
 30
0.0
 11
162.59999999999999
 21
85.0
 31
0.0
  0
LINE
  5
E4
  8
0
 10
162.59999999999999
 20
85.0
 30
0.0
 11
162.0
 21
84.400000000000006
 31
0.0
  0
ARC
  5
E5
  8
0
 10
170.0
 20
80.0
 30
0.0
 40
2.0
 50
180.0
 51
270.0
  0
ARC
  5
E6
  8
0
 10
180.59999999999999
 20
73.599999999999994
 30
0.0
 40
0.6
 50
180.0
 51
270.0
  0
ARC
  5
E7
  8
0
 10
181.90000000000001
 20
73.599999999999994
 30
0.0
 40
0.6
 50
270.0
 51
360.0
  0
LINE
  5
E8
  8
3
 10
209.47649999999999
 20
73.323499999999996
 30
0.0
 11
182.432492
 21
73.323499999999996
 31
0.0
  0
LINE
  5
E9
  8
3
 10
162.59999999999999
 20
84.528746999999996
 30
0.0
 11
167.40000000000001
 21
84.528746999999996
 31
0.0
  0
LINE
  5
EA
  8
3
 10
162.59999999999999
 20
84.734308999999996
 30
0.0
 11
167.40000000000001
 21
84.734308999999996
 31
0.0
  0
LINE
  5
EB
  8
3
 10
162.59999999999999
 20
84.881720999999985
 30
0.0
 11
167.40000000000001
 21
84.881720999999985
 31
0.0
  0
LINE
  5
EC
  8
0
 10
162.59999999999999
 20
84.970400999999995
 30
0.0
 11
167.40000000000001
 21
84.970400999999995
 31
0.0
  0
LINE
  5
ED
  8
3
 10
162.59999999999999
 20
84.265847999999977
 30
0.0
 11
167.40000000000001
 21
84.265847999999977
 31
0.0
  0
LINE
  5
EE
  8
3
 10
162.59999999999999
 20
83.946646999999984
 30
0.0
 11
167.40000000000001
 21
83.946646999999984
 31
0.0
  0
LINE
  5
EF
  8
3
 10
162.59999999999999
 20
83.572406000000001
 30
0.0
 11
167.40000000000001
 21
83.572406000000001
 31
0.0
  0
LINE
  5
F0
  8
3
 10
162.59999999999999
 20
83.144599999999997
 30
0.0
 11
167.40000000000001
 21
83.144599999999997
 31
0.0
  0
LINE
  5
F1
  8
3
 10
162.59999999999999
 20
82.664918999999998
 30
0.0
 11
167.40000000000001
 21
82.664918999999998
 31
0.0
  0
LINE
  5
F2
  8
3
 10
162.59999999999999
 20
82.135255000000015
 30
0.0
 11
167.40000000000001
 21
82.135255000000015
 31
0.0
  0
LINE
  5
F3
  8
3
 10
162.59999999999999
 20
81.557699000000014
 30
0.0
 11
167.40000000000001
 21
81.557699000000014
 31
0.0
  0
LINE
  5
F4
  8
3
 10
162.59999999999999
 20
80.934528999999998
 30
0.0
 11
167.40000000000001
 21
80.934528999999998
 31
0.0
  0
LINE
  5
F5
  8
3
 10
162.59999999999999
 20
80.268207000000004
 30
0.0
 11
167.40000000000001
 21
80.268207000000004
 31
0.0
  0
LINE
  5
F6
  8
3
 10
162.59999999999999
 20
79.561359999999993
 30
0.0
 11
167.40000000000001
 21
79.561359999999993
 31
0.0
  0
LINE
  5
F7
  8
3
 10
162.59999999999999
 20
78.816778999999997
 30
0.0
 11
167.40000000000001
 21
78.816778999999997
 31
0.0
  0
LINE
  5
F8
  8
3
 10
162.59999999999999
 20
78.037402
 30
0.0
 11
167.40000000000001
 21
78.037402
 31
0.0
  0
LINE
  5
F9
  8
3
 10
162.59999999999999
 20
77.226305000000011
 30
0.0
 11
167.40000000000001
 21
77.226305000000011
 31
0.0
  0
LINE
  5
FA
  8
3
 10
162.59999999999999
 20
76.386689000000004
 30
0.0
 11
167.40000000000001
 21
76.386689000000004
 31
0.0
  0
LINE
  5
FB
  8
3
 10
162.59999999999999
 20
75.521868000000012
 30
0.0
 11
167.40000000000001
 21
75.521868000000012
 31
0.0
  0
LINE
  5
FC
  8
3
 10
162.59999999999999
 20
74.635255000000001
 30
0.0
 11
167.40000000000001
 21
74.635255000000001
 31
0.0
  0
LINE
  5
FD
  8
3
 10
162.59999999999999
 20
73.730347999999992
 30
0.0
 11
167.40000000000001
 21
73.730347999999992
 31
0.0
  0
LINE
  5
FE
  8
3
 10
162.59999999999999
 20
72.810719999999989
 30
0.0
 11
167.40000000000001
 21
72.810719999999989
 31
0.0
  0
LINE
  5
FF
  8
3
 10
162.59999999999999
 20
71.879998999999998
 30
0.0
 11
167.40000000000001
 21
71.879998999999998
 31
0.0
  0
LINE
  5
100
  8
3
 10
162.59999999999999
 20
71.879998999999998
 30
0.0
 11
167.40000000000001
 21
71.879998999999998
 31
0.0
  0
LINE
  5
101
  8
3
 10
162.59999999999999
 20
70.941857999999996
 30
0.0
 11
167.40000000000001
 21
70.941857999999996
 31
0.0
  0
LINE
  5
102
  8
0
 10
210.0
 20
72.799999999999997
 30
0.0
 11
210.0
 21
67.200000000000003
 31
0.0
  0
LINE
  5
103
  8
0
 10
208.80000000000001
 20
74.0
 30
0.0
 11
208.80000000000001
 21
66.0
 31
0.0
  0
LINE
  5
104
  8
0
 10
182.5
 20
74.0
 30
0.0
 11
182.5
 21
66.0
 31
0.0
  0
LINE
  5
105
  8
0
 10
180.0
 20
77.400000000000006
 30
0.0
 11
180.0
 21
62.600000000000001
 31
0.0
  0
LINE
  5
106
  8
0
 10
168.0
 20
84.400000000000006
 30
0.0
 11
168.0
 21
55.600000000000001
 31
0.0
  0
LINE
  5
107
  8
0
 10
162.0
 20
84.400000000000006
 30
0.0
 11
162.0
 21
55.600000000000001
 31
0.0
  0
LINE
  5
108
  8
0
 10
167.40000000000001
 20
85.0
 30
0.0
 11
167.40000000000001
 21
55.0
 31
0.0
  0
LINE
  5
109
  8
0
 10
162.59999999999999
 20
85.0
 30
0.0
 11
162.59999999999999
 21
55.0
 31
0.0
  0
LINE
  5
10A
  8
0
 10
179.40000000000001
 20
78.0
 30
0.0
 11
179.40000000000001
 21
62.0
 31
0.0
  0
LINE
  5
10B
  8
3
 10
162.59999999999999
 20
69.058142000000004
 30
0.0
 11
167.40000000000001
 21
69.058142000000004
 31
0.0
  0
LINE
  5
10C
  8
3
 10
162.59999999999999
 20
68.120001000000002
 30
0.0
 11
167.40000000000001
 21
68.120001000000002
 31
0.0
  0
LINE
  5
10D
  8
3
 10
162.59999999999999
 20
67.189280000000011
 30
0.0
 11
167.40000000000001
 21
67.189280000000011
 31
0.0
  0
LINE
  5
10E
  8
3
 10
162.59999999999999
 20
66.269651999999994
 30
0.0
 11
167.40000000000001
 21
66.269651999999994
 31
0.0
  0
LINE
  5
10F
  8
3
 10
162.59999999999999
 20
65.364744999999999
 30
0.0
 11
167.40000000000001
 21
65.364744999999999
 31
0.0
  0
LINE
  5
110
  8
3
 10
162.59999999999999
 20
64.478131999999974
 30
0.0
 11
167.40000000000001
 21
64.478131999999974
 31
0.0
  0
LINE
  5
111
  8
3
 10
162.59999999999999
 20
63.613311000000003
 30
0.0
 11
167.40000000000001
 21
63.613311000000003
 31
0.0
  0
LINE
  5
112
  8
3
 10
162.59999999999999
 20
62.773694999999989
 30
0.0
 11
167.40000000000001
 21
62.773694999999989
 31
0.0
  0
LINE
  5
113
  8
3
 10
162.59999999999999
 20
61.962597999999993
 30
0.0
 11
167.40000000000001
 21
61.962597999999993
 31
0.0
  0
LINE
  5
114
  8
3
 10
162.59999999999999
 20
61.183221000000003
 30
0.0
 11
167.40000000000001
 21
61.183221000000003
 31
0.0
  0
LINE
  5
115
  8
3
 10
162.59999999999999
 20
60.438639999999999
 30
0.0
 11
167.40000000000001
 21
60.438639999999999
 31
0.0
  0
LINE
  5
116
  8
3
 10
162.59999999999999
 20
59.731793000000003
 30
0.0
 11
167.40000000000001
 21
59.731793000000003
 31
0.0
  0
LINE
  5
117
  8
3
 10
162.59999999999999
 20
59.065471000000002
 30
0.0
 11
167.40000000000001
 21
59.065471000000002
 31
0.0
  0
LINE
  5
118
  8
3
 10
162.59999999999999
 20
58.442301
 30
0.0
 11
167.40000000000001
 21
58.442301
 31
0.0
  0
LINE
  5
119
  8
3
 10
162.59999999999999
 20
57.864744999999992
 30
0.0
 11
167.40000000000001
 21
57.864744999999992
 31
0.0
  0
LINE
  5
11A
  8
3
 10
162.59999999999999
 20
57.335081000000002
 30
0.0
 11
167.40000000000001
 21
57.335081000000002
 31
0.0
  0
LINE
  5
11B
  8
3
 10
162.59999999999999
 20
56.855400000000003
 30
0.0
 11
167.40000000000001
 21
56.855400000000003
 31
0.0
  0
LINE
  5
11C
  8
3
 10
162.59999999999999
 20
56.427593999999992
 30
0.0
 11
167.40000000000001
 21
56.427593999999992
 31
0.0
  0
LINE
  5
11D
  8
3
 10
162.59999999999999
 20
56.053353000000001
 30
0.0
 11
167.40000000000001
 21
56.053353000000001
 31
0.0
  0
LINE
  5
11E
  8
3
 10
162.59999999999999
 20
55.734152000000002
 30
0.0
 11
167.40000000000001
 21
55.734152000000002
 31
0.0
  0
LINE
  5
11F
  8
0
 10
162.59999999999999
 20
55.029598999999997
 30
0.0
 11
167.40000000000001
 21
55.029598999999997
 31
0.0
  0
LINE
  5
120
  8
3
 10
162.59999999999999
 20
55.118279000000001
 30
0.0
 11
167.40000000000001
 21
55.118279000000001
 31
0.0
  0
LINE
  5
121
  8
3
 10
162.59999999999999
 20
55.265690999999997
 30
0.0
 11
167.40000000000001
 21
55.265690999999997
 31
0.0
  0
LINE
  5
122
  8
3
 10
162.59999999999999
 20
55.471253000000011
 30
0.0
 11
167.40000000000001
 21
55.471253000000011
 31
0.0
  0
LINE
  5
123
  8
3
 10
209.47649999999999
 20
66.676500000000004
 30
0.0
 11
182.432492
 21
66.676500000000004
 31
0.0
  0
ARC
  5
124
  8
0
 10
181.90000000000001
 20
66.400000000000006
 30
0.0
 40
0.6
 50
360.0
 51
90.0
  0
ARC
  5
125
  8
0
 10
180.59999999999999
 20
66.400000000000006
 30
0.0
 40
0.6
 50
90.0
 51
180.0
  0
ARC
  5
126
  8
0
 10
170.0
 20
60.0
 30
0.0
 40
2.0
 50
90.0
 51
180.0
  0
LINE
  5
127
  8
0
 10
162.59999999999999
 20
55.0
 30
0.0
 11
162.0
 21
55.600000000000001
 31
0.0
  0
LINE
  5
128
  8
0
 10
167.40000000000001
 20
55.0
 30
0.0
 11
162.59999999999999
 21
55.0
 31
0.0
  0
LINE
  5
129
  8
0
 10
168.0
 20
55.600000000000001
 30
0.0
 11
167.40000000000001
 21
55.0
 31
0.0
  0
LINE
  5
12A
  8
0
 10
179.40000000000001
 20
62.0
 30
0.0
 11
170.0
 21
62.0
 31
0.0
  0
LINE
  5
12B
  8
0
 10
180.0
 20
62.600000000000001
 30
0.0
 11
179.40000000000001
 21
62.0
 31
0.0
  0
LINE
  5
12C
  8
0
 10
181.90000000000001
 20
67.0
 30
0.0
 11
180.59999999999999
 21
67.0
 31
0.0
  0
LINE
  5
12D
  8
0
 10
208.80000000000001
 20
66.0
 30
0.0
 11
182.5
 21
66.0
 31
0.0
  0
LINE
  5
12E
  8
0
 10
210.0
 20
67.200000000000003
 30
0.0
 11
208.80000000000001
 21
66.0
 31
0.0
  0
LINE
  5
12F
  8
3
 10
162.59999999999999
 20
70.0
 30
0.0
 11
167.40000000000001
 21
70.0
 31
0.0
  0
CIRCLE
  5
130
  8
0
 10
90.0
 20
140.0
 30
0.0
 40
15.0
  0
CIRCLE
  5
131
  8
0
 10
280.0
 20
140.0
 30
0.0
 40
15.0
  0
CIRCLE
  5
132
  8
0
 10
280.0
 20
140.0
 30
0.0
 40
8.0
  0
CIRCLE
  5
133
  8
0
 10
280.0
 20
140.0
 30
0.0
 40
4.0
  0
CIRCLE
  5
134
  8
3
 10
280.0
 20
140.0
 30
0.0
 40
3.3235000000000001
  0
CIRCLE
  5
135
  8
0
 10
90.0
 20
140.0
 30
0.0
 40
14.4
  0
CIRCLE
  5
136
  8
0
 10
280.0
 20
140.0
 30
0.0
 40
14.4
  0
CIRCLE
  5
137
  8
0
 10
280.0
 20
140.0
 30
0.0
 40
7.4000000000000004
  0
LINE
  5
138
  8
1
 10
110.0
 20
140.0
 30
0.0
 11
70.0
 21
140.0
 31
0.0
  0
LINE
  5
139
  8
1
 10
90.0
 20
160.0
 30
0.0
 11
90.0
 21
120.0
 31
0.0
  0
LINE
  5
13A
  8
1
 10
300.0
 20
140.0
 30
0.0
 11
260.0
 21
140.0
 31
0.0
  0
LINE
  5
13B
  8
1
 10
280.0
 20
160.0
 30
0.0
 11
280.0
 21
120.0
 31
0.0
  0
TEXT
  5
2D1
  8
0
 62
     3
 10
0.0
 20
0.0
 30
0.0
 40
10.0
  1
TKS8X30-SUS
  7
STANDARD1
  0
ENDSEC
  0
EOF
