  0
SECTION
  2
HEADER
  9
$ACADVER
  1
AC1009
  9
$INSBASE
 10
0.0
 20
0.0
 30
0.0
  9
$EXTMIN
 10
0.0
 20
-2.960436562073669
 30
0.0
  9
$EXTMAX
 10
172.08671346451109
 20
93.609130602247831
 30
0.0
  9
$LIMMIN
 10
0.0
 20
0.0
  9
$LIMMAX
 10
275.0
 20
175.0
  9
$ORTHOMODE
 70
     1
  9
$REGENMODE
 70
     1
  9
$FILLMODE
 70
     1
  9
$QTEXTMODE
 70
     0
  9
$MIRRTEXT
 70
     0
  9
$DRAGMODE
 70
     2
  9
$LTSCALE
 40
5.0
  9
$OSMODE
 70
    55
  9
$ATTMODE
 70
     1
  9
$TEXTSIZE
 40
0.2
  9
$TRACEWID
 40
0.05
  9
$TEXTSTYLE
  7
STANDARD
  9
$CLAYER
  8
0
  9
$CELTYPE
  6
BYLAYER
  9
$CECOLOR
 62
   256
  9
$DIMSCALE
 40
1.0
  9
$DIMASZ
 40
3.0
  9
$DIMEXO
 40
1.0
  9
$DIMDLI
 40
6.0
  9
$DIMRND
 40
0.0
  9
$DIMDLE
 40
0.0
  9
$DIMEXE
 40
1.0
  9
$DIMTP
 40
495.0
  9
$DIMTM
 40
0.0
  9
$DIMTXT
 40
3.0
  9
$DIMCEN
 40
0.0
  9
$DIMTSZ
 40
0.0
  9
$DIMTOL
 70
     0
  9
$DIMLIM
 70
     0
  9
$DIMTIH
 70
     0
  9
$DIMTOH
 70
     0
  9
$DIMSE1
 70
     0
  9
$DIMSE2
 70
     0
  9
$DIMTAD
 70
     1
  9
$DIMZIN
 70
     0
  9
$DIMBLK
  1

  9
$DIMASO
 70
     0
  9
$DIMSHO
 70
     0
  9
$DIMPOST
  1

  9
$DIMAPOST
  1

  9
$DIMALT
 70
     0
  9
$DIMALTD
 70
     2
  9
$DIMALTF
 40
25.399999999999999
  9
$DIMLFAC
 40
1.0
  9
$DIMTOFL
 70
     1
  9
$DIMTVP
 40
0.0
  9
$DIMTIX
 70
     1
  9
$DIMSOXD
 70
     0
  9
$DIMSAH
 70
     0
  9
$DIMBLK1
  1

  9
$DIMBLK2
  1

  9
$DIMSTYLE
  2
STANDARD
  9
$DIMCLRD
 70
     0
  9
$DIMCLRE
 70
     0
  9
$DIMCLRT
 70
     4
  9
$DIMTFAC
 40
1.0
  9
$DIMGAP
 40
1.0
  9
$LUNITS
 70
     2
  9
$LUPREC
 70
     4
  9
$SKETCHINC
 40
0.1
  9
$FILLETRAD
 40
0.0
  9
$AUNITS
 70
     0
  9
$AUPREC
 70
     0
  9
$MENU
  1
E:\r13\win\SUPPORT\ACAD
  9
$ELEVATION
 40
0.0
  9
$PELEVATION
 40
0.0
  9
$THICKNESS
 40
0.0
  9
$LIMCHECK
 70
     0
  9
$BLIPMODE
 70
     0
  9
$CHAMFERA
 40
0.0
  9
$CHAMFERB
 40
0.0
  9
$SKPOLY
 70
     0
  9
$TDCREATE
 40
2450653.5278402781
  9
$TDUPDATE
 40
2456598.447648773
  9
$TDINDWG
 40
0.1284687153
  9
$TDUSRTIMER
 40
0.1284687153
  9
$USRTIMER
 70
     1
  9
$ANGBASE
 50
0.0
  9
$ANGDIR
 70
     0
  9
$PDMODE
 70
     0
  9
$PDSIZE
 40
0.0
  9
$PLINEWID
 40
0.0
  9
$COORDS
 70
     1
  9
$SPLFRAME
 70
     0
  9
$SPLINETYPE
 70
     6
  9
$SPLINESEGS
 70
     8
  9
$ATTDIA
 70
     0
  9
$ATTREQ
 70
     1
  9
$HANDLING
 70
     1
  9
$HANDSEED
  5
814
  9
$SURFTAB1
 70
     6
  9
$SURFTAB2
 70
     6
  9
$SURFTYPE
 70
     6
  9
$SURFU
 70
     6
  9
$SURFV
 70
     6
  9
$UCSNAME
  2

  9
$UCSORG
 10
0.0
 20
0.0
 30
0.0
  9
$UCSXDIR
 10
1.0
 20
0.0
 30
0.0
  9
$UCSYDIR
 10
0.0
 20
1.0
 30
0.0
  9
$PUCSNAME
  2

  9
$PUCSORG
 10
0.0
 20
0.0
 30
0.0
  9
$PUCSXDIR
 10
1.0
 20
0.0
 30
0.0
  9
$PUCSYDIR
 10
0.0
 20
1.0
 30
0.0
  9
$USERI1
 70
     4
  9
$USERI2
 70
     1
  9
$USERI3
 70
     1
  9
$USERI4
 70
     0
  9
$USERI5
 70
     0
  9
$USERR1
 40
1.0
  9
$USERR2
 40
3.0
  9
$USERR3
 40
3.0
  9
$USERR4
 40
3.0
  9
$USERR5
 40
10.0
  9
$WORLDVIEW
 70
     1
  9
$SHADEDGE
 70
     3
  9
$SHADEDIF
 70
    70
  9
$TILEMODE
 70
     1
  9
$MAXACTVP
 70
    16
  9
$PLIMCHECK
 70
     0
  9
$PEXTMIN
 10
1.0000000000000000E+020
 20
1.0000000000000000E+020
 30
1.0000000000000000E+020
  9
$PEXTMAX
 10
-1.0000000000000000E+020
 20
-1.0000000000000000E+020
 30
-1.0000000000000000E+020
  9
$PLIMMIN
 10
0.0
 20
0.0
  9
$PLIMMAX
 10
12.0
 20
9.0
  9
$UNITMODE
 70
     0
  9
$VISRETAIN
 70
     0
  9
$PLINEGEN
 70
     0
  9
$PSLTSCALE
 70
     0
  0
ENDSEC
  0
SECTION
  2
TABLES
  0
TABLE
  2
VPORT
 70
     1
  0
VPORT
  2
*ACTIVE
 70
     0
 10
0.0
 20
0.0
 11
1.0
 21
1.0
 12
137.495804153145
 22
127.43987488832769
 13
0.0
 23
0.0
 14
5.0
 24
5.0
 15
10.0
 25
10.0
 16
0.0
 26
0.0
 36
1.0
 17
0.0
 27
0.0
 37
0.0
 40
263.11484850981981
 41
1.7807262569832401
 42
50.0
 43
0.0
 44
0.0
 50
0.0
 51
0.0
 71
     0
 72
   100
 73
     1
 74
     0
 75
     0
 76
     0
 77
     0
 78
     0
  0
ENDTAB
  0
TABLE
  2
LTYPE
 70
     3
  0
LTYPE
  2
CONTINUOUS
 70
     0
  3
Solid Line
 72
    65
 73
     0
 40
0.0
  0
LTYPE
  2
CENTER
 70
     0
  3
____ _ ____ _ ____ _ ____ _ ____ _ ____ _ ____
 72
    65
 73
     4
 40
2.0
 49
1.25
 49
-0.25
 49
0.25
 49
-0.25
  0
LTYPE
  2
PHANTOM2
 70
     0
  3
___ _ _ ___ _ _ ___ _ _ ___ _ _
 72
    65
 73
     6
 40
1.25
 49
0.625
 49
-0.125
 49
0.125
 49
-0.125
 49
0.125
 49
-0.125
  0
ENDTAB
  0
TABLE
  2
LAYER
 70
     3
  0
LAYER
  2
0
 70
     0
 62
     7
  6
CONTINUOUS
  0
LAYER
  2
1
 70
     0
 62
     1
  6
CENTER
  0
LAYER
  2
3
 70
     0
 62
     3
  6
CONTINUOUS
  0
ENDTAB
  0
TABLE
  2
STYLE
 70
     2
  0
STYLE
  2
STANDARD
 70
     0
 40
0.0
 41
1.0
 50
0.0
 71
     0
 42
0.2
  3
simplex
  4
bigfont
  0
STYLE
  2
STANDARD1
 70
     0
 40
0.0
 41
1.0
 50
0.0
 71
     0
 42
3.0
  3
txt
  4

  0
ENDTAB
  0
TABLE
  2
VIEW
 70
     0
  0
ENDTAB
  0
TABLE
  2
UCS
 70
     0
  0
ENDTAB
  0
TABLE
  2
APPID
 70
     4
  0
APPID
  2
ACAD
 70
     0
  0
APPID
  2
_CALL_MAC$
 70
     0
  0
APPID
  2
ACAD_MLEADERVER
 70
     0
  0
APPID
  2
ACAD_NAV_VCDISPLAY
 70
     0
  0
ENDTAB
  0
TABLE
  2
DIMSTYLE
 70
     1
  0
DIMSTYLE
  2
STANDARD
 70
     0
  3

  4

  5

  6

  7

 40
1.0
 41
0.18
 42
0.0625
 43
0.38
 44
0.18
 45
0.0
 46
0.0
 47
0.0
 48
0.0
140
0.18
141
0.09
142
0.0
143
25.399999999999999
144
1.0
145
0.0
146
1.0
147
0.09
 71
     0
 72
     0
 73
     1
 74
     1
 75
     0
 76
     0
 77
     0
 78
     0
170
     0
171
     2
172
     0
173
     0
174
     0
175
     0
176
     0
177
     0
178
     0
  0
ENDTAB
  0
ENDSEC
  0
SECTION
  2
BLOCKS
  0
BLOCK
  8
0
  2
$MODEL_SPACE
 70
     0
 10
0.0
 20
0.0
 30
0.0
  3
$MODEL_SPACE
  1

  0
ENDBLK
  5
7
  8
0
  0
BLOCK
 67
     1
  8
0
  2
$PAPER_SPACE
 70
     0
 10
0.0
 20
0.0
 30
0.0
  3
$PAPER_SPACE
  1

  0
ENDBLK
  5
A
 67
     1
  8
0
  0
ENDSEC
  0
SECTION
  2
ENTITIES
  0
LINE
  5
629
  8
3
 10
76.760310353583236
 20
73.609130602247831
 30
0.0
 11
81.560310353582281
 21
73.609130602247831
 31
0.0
  0
LINE
  5
62A
  8
0
 10
114.1603103535827
 20
70.809130602248786
 30
0.0
 11
112.9603103535818
 21
69.609130602247802
 31
0.0
  0
LINE
  5
62B
  8
0
 10
112.9603103535818
 20
69.609130602247802
 30
0.0
 11
104.1603103535827
 21
69.609130602247802
 31
0.0
  0
LINE
  5
62C
  8
0
 10
104.1603103535827
 20
70.609130602247802
 30
0.0
 11
94.760310353582724
 21
70.609130602247816
 31
0.0
  0
LINE
  5
62D
  8
0
 10
94.160310353582759
 20
66.209130602248308
 30
0.0
 11
93.560310353582281
 21
65.609130602247802
 31
0.0
  0
LINE
  5
62E
  8
0
 10
93.560310353573186
 20
65.609130602238707
 30
0.0
 11
84.160310353584336
 21
65.609130602246211
 31
0.0
  0
LINE
  5
62F
  8
0
 10
82.160310353582744
 20
59.209130602248301
 30
0.0
 11
81.560310353582281
 21
58.609130602247802
 31
0.0
  0
LINE
  5
630
  8
0
 10
81.560310353582281
 20
58.609130602247802
 30
0.0
 11
76.760310353583236
 21
58.609130602247802
 31
0.0
  0
LINE
  5
631
  8
0
 10
76.760310353583236
 20
58.609130602247802
 30
0.0
 11
76.160310353582744
 21
59.209130602248301
 31
0.0
  0
ARC
  5
632
  8
0
 10
84.160310353582759
 20
63.609130602246211
 30
0.0
 40
2.0
 50
89.999999999954397
 51
180.0
  0
LINE
  5
633
  8
3
 10
113.6368103535832
 20
70.285630602249199
 30
0.0
 11
104.0928023723033
 21
70.285630602249199
 31
0.0
  0
LINE
  5
634
  8
3
 10
76.760310353583236
 20
59.080383185331527
 30
0.0
 11
81.560310353582281
 21
59.080383185331527
 31
0.0
  0
LINE
  5
635
  8
3
 10
76.760310353583236
 20
58.874821841314457
 30
0.0
 11
81.560310353582281
 21
58.874821841314457
 31
0.0
  0
LINE
  5
636
  8
3
 10
76.760310353583236
 20
58.72741008253584
 30
0.0
 11
81.560310353582281
 21
58.72741008253584
 31
0.0
  0
LINE
  5
637
  8
3
 10
76.760310353583236
 20
58.638729675823612
 30
0.0
 11
81.560310353582281
 21
58.638729675823612
 31
0.0
  0
LINE
  5
638
  8
3
 10
76.760310353583236
 20
59.343282857827631
 30
0.0
 11
81.560310353582281
 21
59.343282857827631
 31
0.0
  0
LINE
  5
639
  8
3
 10
76.760310353583236
 20
59.662483313940953
 30
0.0
 11
81.560310353582281
 21
59.662483313940953
 31
0.0
  0
LINE
  5
63A
  8
3
 10
76.760310353583236
 20
60.036724815266687
 30
0.0
 11
81.560310353582281
 21
60.036724815266687
 31
0.0
  0
LINE
  5
63B
  8
3
 10
76.760310353583236
 20
60.464530401606368
 30
0.0
 11
81.560310353582281
 21
60.464530401606368
 31
0.0
  0
LINE
  5
63C
  8
3
 10
76.760310353583236
 20
60.944211719708328
 30
0.0
 11
81.560310353582281
 21
60.944211719708328
 31
0.0
  0
LINE
  5
63D
  8
3
 10
76.760310353583236
 20
61.473875686618783
 30
0.0
 11
81.560310353582281
 21
61.473875686618783
 31
0.0
  0
LINE
  5
63E
  8
3
 10
76.760310353583236
 20
62.051431960606031
 30
0.0
 11
81.560310353582281
 21
62.051431960606031
 31
0.0
  0
LINE
  5
63F
  8
3
 10
76.760310353583236
 20
62.67460119093235
 30
0.0
 11
81.560310353582281
 21
62.67460119093235
 31
0.0
  0
LINE
  5
640
  8
3
 10
76.760310353583236
 20
63.340924013323871
 30
0.0
 11
81.560310353582281
 21
63.340924013323871
 31
0.0
  0
LINE
  5
641
  8
3
 10
76.760310353583236
 20
64.047770756010948
 30
0.0
 11
81.560310353582281
 21
64.047770756010948
 31
0.0
  0
LINE
  5
642
  8
3
 10
76.760310353583236
 20
64.792351817862851
 30
0.0
 11
81.560310353582281
 21
64.792351817862851
 31
0.0
  0
LINE
  5
643
  8
3
 10
76.760310353583236
 20
65.571728677552215
 30
0.0
 11
81.560310353582281
 21
65.571728677552215
 31
0.0
  0
LINE
  5
644
  8
3
 10
76.760310353583236
 20
66.382825490732699
 30
0.0
 11
81.560310353582281
 21
66.382825490732699
 31
0.0
  0
LINE
  5
645
  8
3
 10
76.760310353583236
 20
67.22244122878115
 30
0.0
 11
81.560310353582281
 21
67.22244122878115
 31
0.0
  0
LINE
  5
646
  8
3
 10
76.760310353583236
 20
68.087262311984574
 30
0.0
 11
81.560310353582281
 21
68.087262311984574
 31
0.0
  0
LINE
  5
647
  8
3
 10
76.760310353583236
 20
68.973875686618754
 30
0.0
 11
81.560310353582281
 21
68.973875686618754
 31
0.0
  0
LINE
  5
648
  8
3
 10
76.760310353583236
 20
69.878782294783065
 30
0.0
 11
81.560310353582281
 21
69.878782294783065
 31
0.0
  0
LINE
  5
649
  8
3
 10
76.760310353583236
 20
70.798410883469515
 30
0.0
 11
81.560310353582281
 21
70.798410883469515
 31
0.0
  0
LINE
  5
64A
  8
3
 10
76.760310353583236
 20
71.729132098791212
 30
0.0
 11
81.560310353582281
 21
71.729132098791212
 31
0.0
  0
LINE
  5
64B
  8
3
 10
76.760310353583236
 20
72.667272809315961
 30
0.0
 11
81.560310353582281
 21
72.667272809315961
 31
0.0
  0
LINE
  5
64C
  8
0
 10
93.560310353573186
 20
81.609130602256954
 30
0.0
 11
93.560310353573186
 21
65.609130602238707
 31
0.0
  0
LINE
  5
64D
  8
0
 10
76.760310353583236
 20
88.609130602247831
 30
0.0
 11
76.760310353583236
 21
58.609130602247802
 31
0.0
  0
LINE
  5
64E
  8
0
 10
81.560310353582281
 20
88.609130602247831
 30
0.0
 11
81.560310353582281
 21
58.609130602247802
 31
0.0
  0
LINE
  5
64F
  8
0
 10
76.160310353582744
 20
88.009130602247339
 30
0.0
 11
76.160310353582744
 21
59.209130602248301
 31
0.0
  0
LINE
  5
650
  8
0
 10
82.160310353582744
 20
88.009130602247339
 30
0.0
 11
82.160310353582744
 21
59.209130602248301
 31
0.0
  0
LINE
  5
651
  8
0
 10
104.1603103535827
 20
77.609130602247831
 30
0.0
 11
104.1603103535827
 21
69.609130602247802
 31
0.0
  0
LINE
  5
652
  8
0
 10
112.9603103535818
 20
77.609130602247831
 30
0.0
 11
112.9603103535818
 21
69.609130602247802
 31
0.0
  0
LINE
  5
653
  8
0
 10
114.1603103535827
 20
76.409130602246876
 30
0.0
 11
114.1603103535827
 21
70.809130602248786
 31
0.0
  0
LINE
  5
654
  8
3
 10
76.760310353583236
 20
74.550988395179701
 30
0.0
 11
81.560310353582281
 21
74.550988395179701
 31
0.0
  0
LINE
  5
655
  8
3
 10
76.760310353583236
 20
75.489129105704421
 30
0.0
 11
81.560310353582281
 21
75.489129105704421
 31
0.0
  0
LINE
  5
656
  8
3
 10
76.760310353583236
 20
75.489129105704421
 30
0.0
 11
81.560310353582281
 21
75.489129105704421
 31
0.0
  0
LINE
  5
657
  8
3
 10
76.760310353583236
 20
76.419850321026132
 30
0.0
 11
81.560310353582281
 21
76.419850321026132
 31
0.0
  0
LINE
  5
658
  8
3
 10
76.760310353583236
 20
77.339478909712597
 30
0.0
 11
81.560310353582281
 21
77.339478909712597
 31
0.0
  0
LINE
  5
659
  8
3
 10
76.760310353583236
 20
78.244385517876879
 30
0.0
 11
81.560310353582281
 21
78.244385517876879
 31
0.0
  0
LINE
  5
65A
  8
3
 10
76.760310353583236
 20
79.130998892511059
 30
0.0
 11
81.560310353582281
 21
79.130998892511059
 31
0.0
  0
LINE
  5
65B
  8
3
 10
76.760310353583236
 20
79.995819975714483
 30
0.0
 11
81.560310353582281
 21
79.995819975714483
 31
0.0
  0
LINE
  5
65C
  8
3
 10
76.760310353583236
 20
80.835435713762934
 30
0.0
 11
81.560310353582281
 21
80.835435713762934
 31
0.0
  0
LINE
  5
65D
  8
3
 10
76.760310353583236
 20
81.646532526943403
 30
0.0
 11
81.560310353582281
 21
81.646532526943403
 31
0.0
  0
LINE
  5
65E
  8
3
 10
76.760310353583236
 20
82.425909386632782
 30
0.0
 11
81.560310353582281
 21
82.425909386632782
 31
0.0
  0
LINE
  5
65F
  8
3
 10
76.760310353583236
 20
83.170490448484713
 30
0.0
 11
81.560310353582281
 21
83.170490448484713
 31
0.0
  0
LINE
  5
660
  8
3
 10
76.760310353583236
 20
83.877337191171819
 30
0.0
 11
81.560310353582281
 21
83.87733719117179
 31
0.0
  0
LINE
  5
661
  8
3
 10
76.760310353583236
 20
84.543660013563283
 30
0.0
 11
81.560310353582281
 21
84.543660013563283
 31
0.0
  0
LINE
  5
662
  8
3
 10
76.760310353583236
 20
85.166829243889595
 30
0.0
 11
81.560310353582281
 21
85.166829243889595
 31
0.0
  0
LINE
  5
663
  8
3
 10
76.760310353583236
 20
85.744385517876879
 30
0.0
 11
81.560310353582281
 21
85.744385517876879
 31
0.0
  0
LINE
  5
664
  8
3
 10
76.760310353583236
 20
86.274049484787326
 30
0.0
 11
81.560310353582281
 21
86.274049484787326
 31
0.0
  0
LINE
  5
665
  8
3
 10
76.760310353583236
 20
86.753730802889265
 30
0.0
 11
81.560310353582281
 21
86.753730802889265
 31
0.0
  0
LINE
  5
666
  8
3
 10
76.760310353583236
 20
87.181536389228995
 30
0.0
 11
81.560310353582281
 21
87.181536389228967
 31
0.0
  0
LINE
  5
667
  8
3
 10
76.760310353583236
 20
87.55577789055468
 30
0.0
 11
81.560310353582281
 21
87.55577789055468
 31
0.0
  0
LINE
  5
668
  8
3
 10
76.760310353583236
 20
87.874978346668058
 30
0.0
 11
81.560310353582281
 21
87.87497834666803
 31
0.0
  0
LINE
  5
669
  8
0
 10
76.760310353583236
 20
88.579531528672007
 30
0.0
 11
81.560310353582281
 21
88.579531528672007
 31
0.0
  0
LINE
  5
66A
  8
3
 10
76.760310353583236
 20
88.490851121959835
 30
0.0
 11
81.560310353582281
 21
88.490851121959821
 31
0.0
  0
LINE
  5
66B
  8
3
 10
76.760310353583236
 20
88.343439363181176
 30
0.0
 11
81.560310353582281
 21
88.343439363181176
 31
0.0
  0
LINE
  5
66C
  8
3
 10
76.760310353583236
 20
88.137878019164134
 30
0.0
 11
81.560310353582281
 21
88.137878019164134
 31
0.0
  0
LINE
  5
66D
  8
3
 10
113.6368103535832
 20
76.932630602246434
 30
0.0
 11
104.0928023723033
 21
76.932630602246434
 31
0.0
  0
ARC
  5
66E
  8
0
 10
84.160310353582759
 20
83.609130602249436
 30
0.0
 40
2.0
 50
180.0
 51
270.00000000004559
  0
LINE
  5
66F
  8
0
 10
76.760310353583236
 20
88.609130602247831
 30
0.0
 11
76.160310353582744
 21
88.009130602247339
 31
0.0
  0
LINE
  5
670
  8
0
 10
81.560310353582281
 20
88.609130602247831
 30
0.0
 11
76.760310353583236
 21
88.609130602247831
 31
0.0
  0
LINE
  5
671
  8
0
 10
82.160310353582744
 20
88.009130602247339
 30
0.0
 11
81.560310353582281
 21
88.609130602247831
 31
0.0
  0
LINE
  5
672
  8
0
 10
93.560310353573186
 20
81.609130602256954
 30
0.0
 11
84.160310353584336
 21
81.609130602249422
 31
0.0
  0
LINE
  5
673
  8
0
 10
94.160310353582759
 20
81.009130602247353
 30
0.0
 11
93.560310353582281
 21
81.609130602247845
 31
0.0
  0
LINE
  5
674
  8
0
 10
104.1603103535827
 20
76.609130602247816
 30
0.0
 11
94.760310353582724
 21
76.609130602247816
 31
0.0
  0
LINE
  5
675
  8
0
 10
112.9603103535818
 20
77.609130602247831
 30
0.0
 11
104.1603103535827
 21
77.609130602247831
 31
0.0
  0
LINE
  5
676
  8
0
 10
114.1603103535827
 20
76.409130602246876
 30
0.0
 11
112.9603103535818
 21
77.609130602247831
 31
0.0
  0
LINE
  5
677
  8
1
 10
71.160310353582773
 20
73.609130602247816
 30
0.0
 11
119.1603103535827
 21
73.609130602247831
 31
0.0
  0
LINE
  5
679
  8
0
 10
94.160310353582616
 20
81.009130602247424
 30
0.0
 11
94.160310353582759
 21
66.209130602248308
 31
0.0
  0
ARC
  5
67A
  8
0
 10
94.760310353582724
 20
77.209130602247811
 30
0.0
 40
0.6
 50
180.0
 51
270.0
  0
ARC
  5
67B
  8
0
 10
94.760310353582724
 20
70.009130602247822
 30
0.0
 40
0.6
 50
90.0
 51
180.0
  0
CIRCLE
  5
681
  8
0
 10
38.233907242654368
 20
73.609130602247831
 30
0.0
 40
14.399999999999521
  0
CIRCLE
  5
682
  8
0
 10
38.233907242654368
 20
73.609130602247831
 30
0.0
 40
15.0
  0
CIRCLE
  5
685
  8
0
 10
152.08671346451109
 20
73.609130602247831
 30
0.0
 40
14.399999999999521
  0
CIRCLE
  5
686
  8
0
 10
152.08671346451109
 20
73.609130602247831
 30
0.0
 40
15.0
  0
LINE
  5
68B
  8
1
 10
152.08671346451109
 20
93.609130602247831
 30
0.0
 11
152.08671346451109
 21
53.609130602247831
 31
0.0
  0
LINE
  5
68C
  8
1
 10
172.08671346451109
 20
73.609130602247831
 30
0.0
 11
132.08671346451109
 21
73.609130602247831
 31
0.0
  0
LINE
  5
68D
  8
1
 10
38.233907242654368
 20
93.609130602247831
 30
0.0
 11
38.233907242654361
 21
53.609130602247831
 31
0.0
  0
LINE
  5
68E
  8
1
 10
58.233907242654361
 20
73.609130602247831
 30
0.0
 11
18.233907242654361
 21
73.609130602247831
 31
0.0
  0
CIRCLE
  5
69E
  8
3
 10
152.08671346451109
 20
73.609130602247831
 30
0.0
 40
3.323499999998603
  0
CIRCLE
  5
69F
  8
0
 10
152.08671346451109
 20
73.609130602247831
 30
0.0
 40
4.0
  0
CIRCLE
  5
6A0
  8
0
 10
152.08671346451109
 20
73.609130602247831
 30
0.0
 40
7.3999999999995216
  0
CIRCLE
  5
6A1
  8
0
 10
152.08671346451109
 20
73.609130602247831
 30
0.0
 40
8.0000000000091234
  0
TEXT
  5
780
  8
0
 62
     3
 10
0.0
 20
0.0
 30
0.0
 40
10.0
  1
TKS8X20R10-SUS
  7
STANDARD1
  0
ENDSEC
  0
EOF
