  0
SECTION
  2
HEADER
  9
$ACADVER
  1
AC1009
  9
$INSBASE
 10
0.0
 20
0.0
 30
0.0
  9
$EXTMIN
 10
0.0
 20
-2.960436562073669
 30
0.0
  9
$EXTMAX
 10
154.5
 20
117.0
 30
0.0
  9
$LIMMIN
 10
0.0
 20
0.0
  9
$LIMMAX
 10
187.5
 20
135.0
  9
$ORTHOMODE
 70
     1
  9
$REGENMODE
 70
     1
  9
$FILLMODE
 70
     1
  9
$QTEXTMODE
 70
     0
  9
$MIRRTEXT
 70
     0
  9
$DRAGMODE
 70
     2
  9
$LTSCALE
 40
5.0
  9
$OSMODE
 70
    55
  9
$ATTMODE
 70
     2
  9
$TEXTSIZE
 40
0.2
  9
$TRACEWID
 40
0.05
  9
$TEXTSTYLE
  7
STANDARD
  9
$CLAYER
  8
0
  9
$CELTYPE
  6
BYLAYER
  9
$CECOLOR
 62
   256
  9
$DIMSCALE
 40
0.5
  9
$DIMASZ
 40
3.0
  9
$DIMEXO
 40
2.0
  9
$DIMDLI
 40
0.38
  9
$DIMRND
 40
0.0
  9
$DIMDLE
 40
0.0
  9
$DIMEXE
 40
2.0
  9
$DIMTP
 40
0.0
  9
$DIMTM
 40
0.0
  9
$DIMTXT
 40
3.2000000000000002
  9
$DIMCEN
 40
0.09
  9
$DIMTSZ
 40
0.0
  9
$DIMTOL
 70
     0
  9
$DIMLIM
 70
     0
  9
$DIMTIH
 70
     0
  9
$DIMTOH
 70
     0
  9
$DIMSE1
 70
     0
  9
$DIMSE2
 70
     0
  9
$DIMTAD
 70
     1
  9
$DIMZIN
 70
     0
  9
$DIMBLK
  1

  9
$DIMASO
 70
     1
  9
$DIMSHO
 70
     0
  9
$DIMPOST
  1

  9
$DIMAPOST
  1

  9
$DIMALT
 70
     0
  9
$DIMALTD
 70
     2
  9
$DIMALTF
 40
25.399999999999999
  9
$DIMLFAC
 40
1.0
  9
$DIMTOFL
 70
     0
  9
$DIMTVP
 40
0.0
  9
$DIMTIX
 70
     0
  9
$DIMSOXD
 70
     0
  9
$DIMSAH
 70
     0
  9
$DIMBLK1
  1

  9
$DIMBLK2
  1

  9
$DIMSTYLE
  2
STANDARD
  9
$DIMCLRD
 70
     0
  9
$DIMCLRE
 70
     0
  9
$DIMCLRT
 70
     0
  9
$DIMTFAC
 40
1.0
  9
$DIMGAP
 40
0.09
  9
$LUNITS
 70
     2
  9
$LUPREC
 70
     4
  9
$SKETCHINC
 40
0.1
  9
$FILLETRAD
 40
0.0
  9
$AUNITS
 70
     0
  9
$AUPREC
 70
     0
  9
$MENU
  1
E:\r13\win\SUPPORT\ACAD
  9
$ELEVATION
 40
0.0
  9
$PELEVATION
 40
0.0
  9
$THICKNESS
 40
0.0
  9
$LIMCHECK
 70
     0
  9
$BLIPMODE
 70
     0
  9
$CHAMFERA
 40
0.0
  9
$CHAMFERB
 40
0.0
  9
$SKPOLY
 70
     0
  9
$TDCREATE
 40
2449840.6048958329
  9
$TDUPDATE
 40
2456598.447338576
  9
$TDINDWG
 40
0.0001723148
  9
$TDUSRTIMER
 40
0.0001723148
  9
$USRTIMER
 70
     1
  9
$ANGBASE
 50
0.0
  9
$ANGDIR
 70
     0
  9
$PDMODE
 70
     0
  9
$PDSIZE
 40
0.0
  9
$PLINEWID
 40
0.0
  9
$COORDS
 70
     1
  9
$SPLFRAME
 70
     0
  9
$SPLINETYPE
 70
     6
  9
$SPLINESEGS
 70
     8
  9
$ATTDIA
 70
     0
  9
$ATTREQ
 70
     1
  9
$HANDLING
 70
     1
  9
$HANDSEED
  5
30D
  9
$SURFTAB1
 70
     6
  9
$SURFTAB2
 70
     6
  9
$SURFTYPE
 70
     6
  9
$SURFU
 70
     6
  9
$SURFV
 70
     6
  9
$UCSNAME
  2

  9
$UCSORG
 10
0.0
 20
0.0
 30
0.0
  9
$UCSXDIR
 10
1.0
 20
0.0
 30
0.0
  9
$UCSYDIR
 10
0.0
 20
1.0
 30
0.0
  9
$PUCSNAME
  2

  9
$PUCSORG
 10
0.0
 20
0.0
 30
0.0
  9
$PUCSXDIR
 10
1.0
 20
0.0
 30
0.0
  9
$PUCSYDIR
 10
0.0
 20
1.0
 30
0.0
  9
$USERI1
 70
     0
  9
$USERI2
 70
     1
  9
$USERI3
 70
     1
  9
$USERI4
 70
     0
  9
$USERI5
 70
     0
  9
$USERR1
 40
0.0
  9
$USERR2
 40
0.0
  9
$USERR3
 40
0.0
  9
$USERR4
 40
0.0
  9
$USERR5
 40
0.0
  9
$WORLDVIEW
 70
     1
  9
$SHADEDGE
 70
     3
  9
$SHADEDIF
 70
    70
  9
$TILEMODE
 70
     1
  9
$MAXACTVP
 70
    16
  9
$PLIMCHECK
 70
     0
  9
$PEXTMIN
 10
1.0000000000000000E+020
 20
1.0000000000000000E+020
 30
1.0000000000000000E+020
  9
$PEXTMAX
 10
-1.0000000000000000E+020
 20
-1.0000000000000000E+020
 30
-1.0000000000000000E+020
  9
$PLIMMIN
 10
0.0
 20
0.0
  9
$PLIMMAX
 10
12.0
 20
9.0
  9
$UNITMODE
 70
     0
  9
$VISRETAIN
 70
     0
  9
$PLINEGEN
 70
     0
  9
$PSLTSCALE
 70
     0
  0
ENDSEC
  0
SECTION
  2
TABLES
  0
TABLE
  2
VPORT
 70
     1
  0
VPORT
  2
*ACTIVE
 70
     0
 10
0.0
 20
0.0
 11
1.0
 21
1.0
 12
93.74713919532617
 22
98.129098027095807
 13
0.0
 23
0.0
 14
5.0
 24
5.0
 15
5.0
 25
5.0
 16
0.0
 26
0.0
 36
1.0
 17
0.0
 27
0.0
 37
0.0
 40
203.97931595516741
 41
1.7807262569832401
 42
50.0
 43
0.0
 44
0.0
 50
0.0
 51
0.0
 71
     0
 72
   100
 73
     1
 74
     0
 75
     0
 76
     0
 77
     0
 78
     2
  0
ENDTAB
  0
TABLE
  2
LTYPE
 70
     3
  0
LTYPE
  2
CONTINUOUS
 70
     0
  3
Solid Line
 72
    65
 73
     0
 40
0.0
  0
LTYPE
  2
CENTER
 70
     0
  3
____ _ ____ _ ____ _ ____ _ ____ _ ____ _ ____
 72
    65
 73
     4
 40
2.0
 49
1.25
 49
-0.25
 49
0.25
 49
-0.25
  0
LTYPE
  2
PHANTOM2
 70
     0
  3
___ _ _ ___ _ _ ___ _ _ ___ _ _
 72
    65
 73
     6
 40
1.25
 49
0.625
 49
-0.125
 49
0.125
 49
-0.125
 49
0.125
 49
-0.125
  0
ENDTAB
  0
TABLE
  2
LAYER
 70
     3
  0
LAYER
  2
0
 70
     0
 62
     7
  6
CONTINUOUS
  0
LAYER
  2
1
 70
     0
 62
     1
  6
CENTER
  0
LAYER
  2
3
 70
     0
 62
     3
  6
CONTINUOUS
  0
ENDTAB
  0
TABLE
  2
STYLE
 70
     2
  0
STYLE
  2
STANDARD
 70
     0
 40
0.0
 41
1.0
 50
0.0
 71
     0
 42
0.2
  3
TXT
  4
BIGFONT
  0
STYLE
  2
STANDARD1
 70
     0
 40
0.0
 41
1.0
 50
0.0
 71
     0
 42
3.0
  3
txt
  4

  0
ENDTAB
  0
TABLE
  2
VIEW
 70
     1
  0
VIEW
  2
ALL
 70
     0
 40
135.0
 10
110.49579799999999
 20
67.5
 41
0.0
 11
0.0
 21
0.0
 31
1.0
 12
0.0
 22
0.0
 32
0.0
 42
0.0
 43
0.0
 44
0.0
 50
0.0
 71
     0
  0
ENDTAB
  0
TABLE
  2
UCS
 70
     0
  0
ENDTAB
  0
TABLE
  2
APPID
 70
     3
  0
APPID
  2
ACAD
 70
     0
  0
APPID
  2
ACAD_MLEADERVER
 70
     0
  0
APPID
  2
ACAD_NAV_VCDISPLAY
 70
     0
  0
ENDTAB
  0
TABLE
  2
DIMSTYLE
 70
     1
  0
DIMSTYLE
  2
STANDARD
 70
     0
  3

  4

  5

  6

  7

 40
1.0
 41
0.18
 42
0.0625
 43
0.38
 44
0.18
 45
0.0
 46
0.0
 47
0.0
 48
0.0
140
0.18
141
0.09
142
0.0
143
25.399999999999999
144
1.0
145
0.0
146
1.0
147
0.09
 71
     0
 72
     0
 73
     1
 74
     1
 75
     0
 76
     0
 77
     0
 78
     0
170
     0
171
     2
172
     0
173
     0
174
     0
175
     0
176
     0
177
     0
178
     0
  0
ENDTAB
  0
ENDSEC
  0
SECTION
  2
BLOCKS
  0
BLOCK
  8
0
  2
$MODEL_SPACE
 70
     0
 10
0.0
 20
0.0
 30
0.0
  3
$MODEL_SPACE
  1

  0
ENDBLK
  5
155
  8
0
  0
BLOCK
 67
     1
  8
0
  2
$PAPER_SPACE
 70
     0
 10
0.0
 20
0.0
 30
0.0
  3
$PAPER_SPACE
  1

  0
ENDBLK
  5
153
 67
     1
  8
0
  0
ENDSEC
  0
SECTION
  2
ENTITIES
  0
LINE
  5
34
  8
0
 10
80.0
 20
76.5
 30
0.0
 11
80.5
 21
77.0
 31
0.0
  0
LINE
  5
35
  8
0
 10
80.5
 20
77.0
 30
0.0
 11
84.500000000000014
 21
77.0
 31
0.0
  0
LINE
  5
36
  8
0
 10
84.500000000000014
 20
77.0
 30
0.0
 11
85.0
 21
76.5
 31
0.0
  0
LINE
  5
37
  8
0
 10
86.0
 20
71.0
 30
0.0
 11
94.500000000000014
 21
71.0
 31
0.0
  0
LINE
  5
38
  8
0
 10
94.500000000000014
 20
71.0
 30
0.0
 11
95.0
 21
70.5
 31
0.0
  0
LINE
  5
39
  8
0
 10
95.5
 20
67.200000000000003
 30
0.0
 11
96.5
 21
67.200000000000003
 31
0.0
  0
ARC
  5
3A
  8
0
 10
96.5
 20
67.700000000000003
 30
0.0
 40
0.5
 50
270.0
 51
360.0
  0
ARC
  5
3B
  8
0
 10
95.5
 20
67.700000000000003
 30
0.0
 40
0.5
 50
180.0
 51
270.0
  0
LINE
  5
3C
  8
0
 10
110.0
 20
67.0
 30
0.0
 11
109.0
 21
68.0
 31
0.0
  0
LINE
  5
3D
  8
0
 10
109.0
 20
68.0
 30
0.0
 11
97.0
 21
68.0
 31
0.0
  0
LINE
  5
3E
  8
3
 10
109.5415
 20
67.458500000000001
 30
0.0
 11
96.937810000000013
 21
67.458500000000001
 31
0.0
  0
ARC
  5
3F
  8
0
 10
86.0
 20
72.0
 30
0.0
 40
1.0
 50
180.0
 51
270.0
  0
LINE
  5
40
  8
0
 10
80.5
 20
76.963008000000002
 30
0.0
 11
84.500000000000014
 21
76.963008000000002
 31
0.0
  0
LINE
  5
41
  8
3
 10
80.5
 20
76.852260000000001
 30
0.0
 11
84.500000000000014
 21
76.852260000000001
 31
0.0
  0
LINE
  5
42
  8
3
 10
80.5
 20
76.668439000000006
 30
0.0
 11
84.500000000000014
 21
76.668439000000006
 31
0.0
  0
LINE
  5
43
  8
3
 10
80.5
 20
76.412678
 30
0.0
 11
84.500000000000014
 21
76.412678
 31
0.0
  0
LINE
  5
44
  8
3
 10
80.5
 20
76.086554000000007
 30
0.0
 11
84.500000000000014
 21
76.086554000000007
 31
0.0
  0
LINE
  5
45
  8
3
 10
80.5
 20
75.692077999999995
 30
0.0
 11
84.500000000000014
 21
75.692077999999995
 31
0.0
  0
LINE
  5
46
  8
3
 10
80.5
 20
75.231681999999992
 30
0.0
 11
84.500000000000014
 21
75.231681999999992
 31
0.0
  0
LINE
  5
47
  8
3
 10
80.5
 20
74.708203999999995
 30
0.0
 11
84.500000000000014
 21
74.708203999999995
 31
0.0
  0
LINE
  5
48
  8
3
 10
80.5
 20
74.124871999999996
 30
0.0
 11
84.500000000000014
 21
74.124871999999996
 31
0.0
  0
LINE
  5
49
  8
3
 10
80.5
 20
73.485281000000001
 30
0.0
 11
84.500000000000014
 21
73.485281000000001
 31
0.0
  0
LINE
  5
4A
  8
3
 10
80.5
 20
72.793377000000007
 30
0.0
 11
84.500000000000014
 21
72.793377000000007
 31
0.0
  0
LINE
  5
4B
  8
3
 10
80.5
 20
72.053422999999995
 30
0.0
 11
84.500000000000014
 21
72.053422999999995
 31
0.0
  0
LINE
  5
4C
  8
3
 10
80.5
 20
71.269982999999996
 30
0.0
 11
84.500000000000014
 21
71.269982999999996
 31
0.0
  0
LINE
  5
4D
  8
3
 10
80.5
 20
70.447885999999997
 30
0.0
 11
84.500000000000014
 21
70.447885999999997
 31
0.0
  0
LINE
  5
4E
  8
3
 10
80.5
 20
69.592201000000003
 30
0.0
 11
84.500000000000014
 21
69.592201000000003
 31
0.0
  0
LINE
  5
4F
  8
3
 10
80.5
 20
68.708204000000009
 30
0.0
 11
84.500000000000014
 21
68.708204000000009
 31
0.0
  0
LINE
  5
50
  8
3
 10
80.5
 20
67.801344
 30
0.0
 11
84.500000000000014
 21
67.801344
 31
0.0
  0
LINE
  5
51
  8
3
 10
80.5
 20
66.877213999999995
 30
0.0
 11
84.500000000000014
 21
66.877213999999995
 31
0.0
  0
LINE
  5
52
  8
3
 10
80.5
 20
65.941508999999996
 30
0.0
 11
84.500000000000014
 21
65.941508999999996
 31
0.0
  0
LINE
  5
53
  8
3
 10
80.5
 20
64.058491000000004
 30
0.0
 11
84.500000000000014
 21
64.058491000000004
 31
0.0
  0
LINE
  5
54
  8
3
 10
80.5
 20
63.122785999999991
 30
0.0
 11
84.500000000000014
 21
63.122785999999991
 31
0.0
  0
LINE
  5
55
  8
3
 10
80.5
 20
62.198656000000007
 30
0.0
 11
84.500000000000014
 21
62.198656000000007
 31
0.0
  0
LINE
  5
56
  8
3
 10
80.5
 20
61.291795999999998
 30
0.0
 11
84.500000000000014
 21
61.291795999999998
 31
0.0
  0
LINE
  5
57
  8
3
 10
80.5
 20
60.407798999999997
 30
0.0
 11
84.500000000000014
 21
60.407798999999997
 31
0.0
  0
LINE
  5
58
  8
3
 10
80.5
 20
59.552114000000003
 30
0.0
 11
84.500000000000014
 21
59.552114000000003
 31
0.0
  0
LINE
  5
59
  8
3
 10
80.5
 20
58.730016999999997
 30
0.0
 11
84.500000000000014
 21
58.730016999999997
 31
0.0
  0
LINE
  5
5A
  8
3
 10
80.5
 20
57.946577000000012
 30
0.0
 11
84.500000000000014
 21
57.946577000000012
 31
0.0
  0
LINE
  5
5B
  8
3
 10
80.5
 20
57.206623
 30
0.0
 11
84.500000000000014
 21
57.206623
 31
0.0
  0
LINE
  5
5C
  8
3
 10
80.5
 20
56.514718999999992
 30
0.0
 11
84.500000000000014
 21
56.514718999999992
 31
0.0
  0
LINE
  5
5D
  8
3
 10
80.5
 20
55.875127999999997
 30
0.0
 11
84.500000000000014
 21
55.875127999999997
 31
0.0
  0
LINE
  5
5E
  8
3
 10
80.5
 20
55.291795999999991
 30
0.0
 11
84.500000000000014
 21
55.291795999999991
 31
0.0
  0
LINE
  5
5F
  8
3
 10
80.5
 20
54.768318000000008
 30
0.0
 11
84.500000000000014
 21
54.768318000000008
 31
0.0
  0
LINE
  5
60
  8
3
 10
80.5
 20
54.307921999999991
 30
0.0
 11
84.500000000000014
 21
54.307921999999991
 31
0.0
  0
LINE
  5
61
  8
3
 10
80.5
 20
53.913446
 30
0.0
 11
84.500000000000014
 21
53.913446
 31
0.0
  0
LINE
  5
62
  8
3
 10
80.5
 20
53.587322
 30
0.0
 11
84.500000000000014
 21
53.587322
 31
0.0
  0
LINE
  5
63
  8
3
 10
80.5
 20
53.331561000000001
 30
0.0
 11
84.500000000000014
 21
53.331561000000001
 31
0.0
  0
LINE
  5
64
  8
0
 10
80.5
 20
53.147739999999992
 30
0.0
 11
84.500000000000014
 21
53.147739999999992
 31
0.0
  0
LINE
  5
65
  8
0
 10
80.5
 20
53.036991999999998
 30
0.0
 11
84.500000000000014
 21
53.036991999999998
 31
0.0
  0
ARC
  5
66
  8
0
 10
86.0
 20
58.0
 30
0.0
 40
1.0
 50
90.0
 51
180.0
  0
LINE
  5
67
  8
3
 10
109.5415
 20
62.541499999999999
 30
0.0
 11
96.937810000000013
 21
62.541499999999999
 31
0.0
  0
LINE
  5
68
  8
0
 10
109.0
 20
62.0
 30
0.0
 11
97.0
 21
62.0
 31
0.0
  0
LINE
  5
69
  8
0
 10
110.0
 20
63.0
 30
0.0
 11
109.0
 21
62.0
 31
0.0
  0
ARC
  5
6A
  8
0
 10
95.5
 20
62.299999999999997
 30
0.0
 40
0.5
 50
90.0
 51
180.0
  0
ARC
  5
6B
  8
0
 10
96.5
 20
62.299999999999997
 30
0.0
 40
0.5
 50
360.0
 51
90.0
  0
LINE
  5
6C
  8
0
 10
95.5
 20
62.799999999999997
 30
0.0
 11
96.5
 21
62.799999999999997
 31
0.0
  0
LINE
  5
6D
  8
0
 10
94.500000000000014
 20
59.0
 30
0.0
 11
95.0
 21
59.5
 31
0.0
  0
LINE
  5
6E
  8
0
 10
86.0
 20
59.0
 30
0.0
 11
94.500000000000014
 21
59.0
 31
0.0
  0
LINE
  5
6F
  8
3
 10
84.500000000000014
 20
53.0
 30
0.0
 11
85.0
 21
53.5
 31
0.0
  0
LINE
  5
70
  8
0
 10
80.5
 20
53.0
 30
0.0
 11
84.500000000000014
 21
53.0
 31
0.0
  0
LINE
  5
71
  8
0
 10
80.0
 20
53.5
 30
0.0
 11
80.5
 21
53.0
 31
0.0
  0
LINE
  5
72
  8
1
 10
112.5
 20
65.0
 30
0.0
 11
77.5
 21
65.0
 31
0.0
  0
LINE
  5
73
  8
0
 10
110.0
 20
67.0
 30
0.0
 11
110.0
 21
63.0
 31
0.0
  0
LINE
  5
74
  8
0
 10
109.0
 20
68.0
 30
0.0
 11
109.0
 21
62.0
 31
0.0
  0
LINE
  5
75
  8
0
 10
97.0
 20
68.0
 30
0.0
 11
97.0
 21
62.0
 31
0.0
  0
LINE
  5
76
  8
0
 10
95.0
 20
70.5
 30
0.0
 11
95.0
 21
59.5
 31
0.0
  0
LINE
  5
77
  8
0
 10
85.0
 20
76.5
 30
0.0
 11
85.0
 21
53.5
 31
0.0
  0
LINE
  5
78
  8
0
 10
80.0
 20
76.5
 30
0.0
 11
80.0
 21
53.5
 31
0.0
  0
LINE
  5
79
  8
0
 10
84.500000000000014
 20
77.0
 30
0.0
 11
84.500000000000014
 21
53.0
 31
0.0
  0
LINE
  5
7A
  8
0
 10
80.5
 20
77.0
 30
0.0
 11
80.5
 21
53.0
 31
0.0
  0
LINE
  5
7B
  8
3
 10
84.500000000000014
 20
65.0
 30
0.0
 11
80.5
 21
65.0
 31
0.0
  0
LINE
  5
7C
  8
0
 10
94.500000000000014
 20
71.0
 30
0.0
 11
94.500000000000014
 21
59.0
 31
0.0
  0
LINE
  5
7D
  8
0
 10
94.500000000000014
 20
31.0
 30
0.0
 11
94.500000000000014
 21
19.0
 31
0.0
  0
LINE
  5
7E
  8
3
 10
84.500000000000014
 20
25.0
 30
0.0
 11
80.5
 21
25.0
 31
0.0
  0
LINE
  5
7F
  8
0
 10
80.5
 20
37.0
 30
0.0
 11
80.5
 21
13.0
 31
0.0
  0
LINE
  5
80
  8
0
 10
84.500000000000014
 20
37.0
 30
0.0
 11
84.500000000000014
 21
13.0
 31
0.0
  0
LINE
  5
81
  8
0
 10
80.0
 20
36.5
 30
0.0
 11
80.0
 21
13.5
 31
0.0
  0
LINE
  5
82
  8
0
 10
85.0
 20
36.5
 30
0.0
 11
85.0
 21
13.5
 31
0.0
  0
LINE
  5
83
  8
0
 10
95.0
 20
30.5
 30
0.0
 11
95.0
 21
19.5
 31
0.0
  0
LINE
  5
84
  8
0
 10
97.0
 20
28.0
 30
0.0
 11
97.0
 21
22.0
 31
0.0
  0
LINE
  5
85
  8
0
 10
109.0
 20
28.0
 30
0.0
 11
109.0
 21
22.0
 31
0.0
  0
LINE
  5
86
  8
0
 10
110.0
 20
27.0
 30
0.0
 11
110.0
 21
23.0
 31
0.0
  0
LINE
  5
87
  8
1
 10
112.5
 20
25.0
 30
0.0
 11
77.5
 21
25.0
 31
0.0
  0
LINE
  5
88
  8
0
 10
80.0
 20
13.5
 30
0.0
 11
80.5
 21
13.0
 31
0.0
  0
LINE
  5
89
  8
0
 10
80.5
 20
13.0
 30
0.0
 11
84.500000000000014
 21
13.0
 31
0.0
  0
LINE
  5
8A
  8
3
 10
84.500000000000014
 20
13.0
 30
0.0
 11
85.0
 21
13.5
 31
0.0
  0
LINE
  5
8B
  8
0
 10
86.0
 20
19.0
 30
0.0
 11
94.500000000000014
 21
19.0
 31
0.0
  0
LINE
  5
8C
  8
0
 10
94.500000000000014
 20
19.0
 30
0.0
 11
95.0
 21
19.5
 31
0.0
  0
LINE
  5
8D
  8
0
 10
95.5
 20
22.800000000000001
 30
0.0
 11
96.5
 21
22.800000000000001
 31
0.0
  0
ARC
  5
8E
  8
0
 10
96.5
 20
22.300000000000001
 30
0.0
 40
0.5
 50
360.0
 51
90.0
  0
ARC
  5
8F
  8
0
 10
95.5
 20
22.300000000000001
 30
0.0
 40
0.5
 50
90.0
 51
180.0
  0
LINE
  5
90
  8
0
 10
110.0
 20
23.0
 30
0.0
 11
109.0
 21
22.0
 31
0.0
  0
LINE
  5
91
  8
0
 10
109.0
 20
22.0
 30
0.0
 11
97.0
 21
22.0
 31
0.0
  0
LINE
  5
92
  8
3
 10
109.5415
 20
22.541499999999999
 30
0.0
 11
96.937810000000013
 21
22.541499999999999
 31
0.0
  0
ARC
  5
93
  8
0
 10
86.0
 20
18.0
 30
0.0
 40
1.0
 50
90.0
 51
180.0
  0
LINE
  5
94
  8
0
 10
80.5
 20
13.036992
 30
0.0
 11
84.500000000000014
 21
13.036992
 31
0.0
  0
LINE
  5
95
  8
0
 10
80.5
 20
13.147740000000001
 30
0.0
 11
84.500000000000014
 21
13.147740000000001
 31
0.0
  0
LINE
  5
96
  8
3
 10
80.5
 20
13.331561000000001
 30
0.0
 11
84.500000000000014
 21
13.331561000000001
 31
0.0
  0
LINE
  5
97
  8
3
 10
80.5
 20
13.587322
 30
0.0
 11
84.500000000000014
 21
13.587322
 31
0.0
  0
LINE
  5
98
  8
3
 10
80.5
 20
13.913446
 30
0.0
 11
84.500000000000014
 21
13.913446
 31
0.0
  0
LINE
  5
99
  8
3
 10
80.5
 20
14.307922
 30
0.0
 11
84.500000000000014
 21
14.307922
 31
0.0
  0
LINE
  5
9A
  8
3
 10
80.5
 20
14.768318000000001
 30
0.0
 11
84.500000000000014
 21
14.768318000000001
 31
0.0
  0
LINE
  5
9B
  8
3
 10
80.5
 20
15.291796
 30
0.0
 11
84.500000000000014
 21
15.291796
 31
0.0
  0
LINE
  5
9C
  8
3
 10
80.5
 20
15.875128
 30
0.0
 11
84.500000000000014
 21
15.875128
 31
0.0
  0
LINE
  5
9D
  8
3
 10
80.5
 20
16.514718999999999
 30
0.0
 11
84.500000000000014
 21
16.514718999999999
 31
0.0
  0
LINE
  5
9E
  8
3
 10
80.5
 20
17.206623
 30
0.0
 11
84.500000000000014
 21
17.206623
 31
0.0
  0
LINE
  5
9F
  8
3
 10
80.5
 20
17.946577000000001
 30
0.0
 11
84.500000000000014
 21
17.946577000000001
 31
0.0
  0
LINE
  5
A0
  8
3
 10
80.5
 20
18.730017
 30
0.0
 11
84.500000000000014
 21
18.730017
 31
0.0
  0
LINE
  5
A1
  8
3
 10
80.5
 20
19.552114
 30
0.0
 11
84.500000000000014
 21
19.552114
 31
0.0
  0
LINE
  5
A2
  8
3
 10
80.5
 20
20.407799000000001
 30
0.0
 11
84.500000000000014
 21
20.407799000000001
 31
0.0
  0
LINE
  5
A3
  8
3
 10
80.5
 20
21.291796000000001
 30
0.0
 11
84.500000000000014
 21
21.291796000000001
 31
0.0
  0
LINE
  5
A4
  8
3
 10
80.5
 20
22.198656
 30
0.0
 11
84.500000000000014
 21
22.198656
 31
0.0
  0
LINE
  5
A5
  8
3
 10
80.5
 20
23.122786000000001
 30
0.0
 11
84.500000000000014
 21
23.122786000000001
 31
0.0
  0
LINE
  5
A6
  8
3
 10
80.5
 20
24.058491
 30
0.0
 11
84.500000000000014
 21
24.058491
 31
0.0
  0
LINE
  5
A7
  8
3
 10
80.5
 20
25.941509
 30
0.0
 11
84.500000000000014
 21
25.941509
 31
0.0
  0
LINE
  5
A8
  8
3
 10
80.5
 20
26.877213999999999
 30
0.0
 11
84.500000000000014
 21
26.877213999999999
 31
0.0
  0
LINE
  5
A9
  8
3
 10
80.5
 20
27.801344
 30
0.0
 11
84.500000000000014
 21
27.801344
 31
0.0
  0
LINE
  5
AA
  8
3
 10
80.5
 20
28.708203999999999
 30
0.0
 11
84.500000000000014
 21
28.708203999999999
 31
0.0
  0
LINE
  5
AB
  8
3
 10
80.5
 20
29.592200999999999
 30
0.0
 11
84.500000000000014
 21
29.592200999999999
 31
0.0
  0
LINE
  5
AC
  8
3
 10
80.5
 20
30.447886
 30
0.0
 11
84.500000000000014
 21
30.447886
 31
0.0
  0
LINE
  5
AD
  8
3
 10
80.5
 20
31.269983
 30
0.0
 11
84.500000000000014
 21
31.269983
 31
0.0
  0
LINE
  5
AE
  8
3
 10
80.5
 20
32.053423000000002
 30
0.0
 11
84.500000000000014
 21
32.053423000000002
 31
0.0
  0
LINE
  5
AF
  8
3
 10
80.5
 20
32.793377
 30
0.0
 11
84.500000000000014
 21
32.793377
 31
0.0
  0
LINE
  5
B0
  8
3
 10
80.5
 20
33.485281000000001
 30
0.0
 11
84.500000000000014
 21
33.485281000000001
 31
0.0
  0
LINE
  5
B1
  8
3
 10
80.5
 20
34.124872000000003
 30
0.0
 11
84.500000000000014
 21
34.124872000000003
 31
0.0
  0
LINE
  5
B2
  8
3
 10
80.5
 20
34.708204000000002
 30
0.0
 11
84.500000000000014
 21
34.708204000000002
 31
0.0
  0
LINE
  5
B3
  8
3
 10
80.5
 20
35.231681999999999
 30
0.0
 11
84.500000000000014
 21
35.231681999999999
 31
0.0
  0
LINE
  5
B4
  8
3
 10
80.5
 20
35.692078000000002
 30
0.0
 11
84.500000000000014
 21
35.692078000000002
 31
0.0
  0
LINE
  5
B5
  8
3
 10
80.5
 20
36.086554
 30
0.0
 11
84.500000000000014
 21
36.086554
 31
0.0
  0
LINE
  5
B6
  8
3
 10
80.5
 20
36.412678
 30
0.0
 11
84.500000000000014
 21
36.412678
 31
0.0
  0
LINE
  5
B7
  8
3
 10
80.5
 20
36.668438999999999
 30
0.0
 11
84.500000000000014
 21
36.668438999999999
 31
0.0
  0
LINE
  5
B8
  8
3
 10
80.5
 20
36.852260000000001
 30
0.0
 11
84.500000000000014
 21
36.852260000000001
 31
0.0
  0
LINE
  5
B9
  8
0
 10
80.5
 20
36.963008000000002
 30
0.0
 11
84.500000000000014
 21
36.963008000000002
 31
0.0
  0
ARC
  5
BA
  8
0
 10
86.0
 20
32.0
 30
0.0
 40
1.0
 50
180.0
 51
270.0
  0
LINE
  5
BB
  8
3
 10
109.5415
 20
27.458500000000001
 30
0.0
 11
96.937810000000013
 21
27.458500000000001
 31
0.0
  0
LINE
  5
BC
  8
0
 10
109.0
 20
28.0
 30
0.0
 11
97.0
 21
28.0
 31
0.0
  0
LINE
  5
BD
  8
0
 10
110.0
 20
27.0
 30
0.0
 11
109.0
 21
28.0
 31
0.0
  0
ARC
  5
BE
  8
0
 10
95.5
 20
27.699999999999999
 30
0.0
 40
0.5
 50
180.0
 51
270.0
  0
ARC
  5
BF
  8
0
 10
96.5
 20
27.699999999999999
 30
0.0
 40
0.5
 50
270.0
 51
360.0
  0
LINE
  5
C0
  8
0
 10
95.5
 20
27.199999999999999
 30
0.0
 11
96.5
 21
27.199999999999999
 31
0.0
  0
LINE
  5
C1
  8
0
 10
94.500000000000014
 20
31.0
 30
0.0
 11
95.0
 21
30.5
 31
0.0
  0
LINE
  5
C2
  8
0
 10
86.0
 20
31.0
 30
0.0
 11
94.500000000000014
 21
31.0
 31
0.0
  0
LINE
  5
C3
  8
0
 10
84.500000000000014
 20
37.0
 30
0.0
 11
85.0
 21
36.5
 31
0.0
  0
LINE
  5
C4
  8
0
 10
80.5
 20
37.0
 30
0.0
 11
84.500000000000014
 21
37.0
 31
0.0
  0
LINE
  5
C5
  8
0
 10
80.0
 20
36.5
 30
0.0
 11
80.5
 21
37.0
 31
0.0
  0
LINE
  5
C6
  8
0
 10
94.500000000000014
 20
111.0
 30
0.0
 11
94.500000000000014
 21
99.0
 31
0.0
  0
LINE
  5
C7
  8
3
 10
84.500000000000014
 20
105.0
 30
0.0
 11
80.5
 21
105.0
 31
0.0
  0
LINE
  5
C8
  8
0
 10
80.5
 20
117.0
 30
0.0
 11
80.5
 21
93.0
 31
0.0
  0
LINE
  5
C9
  8
0
 10
84.500000000000014
 20
117.0
 30
0.0
 11
84.500000000000014
 21
93.0
 31
0.0
  0
LINE
  5
CA
  8
0
 10
80.0
 20
116.5
 30
0.0
 11
80.0
 21
93.499999999999986
 31
0.0
  0
LINE
  5
CB
  8
0
 10
85.0
 20
116.5
 30
0.0
 11
85.0
 21
93.499999999999986
 31
0.0
  0
LINE
  5
CC
  8
0
 10
95.0
 20
110.5
 30
0.0
 11
95.0
 21
99.500000000000014
 31
0.0
  0
LINE
  5
CD
  8
0
 10
97.0
 20
108.0
 30
0.0
 11
97.0
 21
102.0
 31
0.0
  0
LINE
  5
CE
  8
0
 10
109.0
 20
108.0
 30
0.0
 11
109.0
 21
102.0
 31
0.0
  0
LINE
  5
CF
  8
0
 10
110.0
 20
107.0
 30
0.0
 11
110.0
 21
103.0
 31
0.0
  0
LINE
  5
D0
  8
1
 10
112.5
 20
105.0
 30
0.0
 11
77.5
 21
105.0
 31
0.0
  0
LINE
  5
D1
  8
0
 10
80.0
 20
93.499999999999986
 30
0.0
 11
80.5
 21
93.0
 31
0.0
  0
LINE
  5
D2
  8
0
 10
80.5
 20
93.0
 30
0.0
 11
84.500000000000014
 21
93.0
 31
0.0
  0
LINE
  5
D3
  8
3
 10
84.500000000000014
 20
93.0
 30
0.0
 11
85.0
 21
93.499999999999986
 31
0.0
  0
LINE
  5
D4
  8
0
 10
86.0
 20
99.0
 30
0.0
 11
94.500000000000014
 21
99.0
 31
0.0
  0
LINE
  5
D5
  8
0
 10
94.500000000000014
 20
99.0
 30
0.0
 11
95.0
 21
99.500000000000014
 31
0.0
  0
LINE
  5
D6
  8
0
 10
95.5
 20
102.8
 30
0.0
 11
96.5
 21
102.8
 31
0.0
  0
ARC
  5
D7
  8
0
 10
96.5
 20
102.3
 30
0.0
 40
0.5
 50
360.0
 51
90.0
  0
ARC
  5
D8
  8
0
 10
95.5
 20
102.3
 30
0.0
 40
0.5
 50
90.0
 51
180.0
  0
LINE
  5
D9
  8
0
 10
110.0
 20
103.0
 30
0.0
 11
109.0
 21
102.0
 31
0.0
  0
LINE
  5
DA
  8
0
 10
109.0
 20
102.0
 30
0.0
 11
97.0
 21
102.0
 31
0.0
  0
LINE
  5
DB
  8
3
 10
109.5415
 20
102.5415
 30
0.0
 11
96.937810000000013
 21
102.5415
 31
0.0
  0
ARC
  5
DC
  8
0
 10
86.0
 20
98.0
 30
0.0
 40
1.0
 50
90.0
 51
180.0
  0
LINE
  5
DD
  8
0
 10
80.5
 20
93.036991999999998
 30
0.0
 11
84.500000000000014
 21
93.036991999999998
 31
0.0
  0
LINE
  5
DE
  8
0
 10
80.5
 20
93.147739999999985
 30
0.0
 11
84.500000000000014
 21
93.147739999999985
 31
0.0
  0
LINE
  5
DF
  8
3
 10
80.5
 20
93.331560999999994
 30
0.0
 11
84.500000000000014
 21
93.331560999999994
 31
0.0
  0
LINE
  5
E0
  8
3
 10
80.5
 20
93.587322
 30
0.0
 11
84.500000000000014
 21
93.587322
 31
0.0
  0
LINE
  5
E1
  8
3
 10
80.5
 20
93.913445999999993
 30
0.0
 11
84.500000000000014
 21
93.913445999999993
 31
0.0
  0
LINE
  5
E2
  8
3
 10
80.5
 20
94.307921999999991
 30
0.0
 11
84.500000000000014
 21
94.307921999999991
 31
0.0
  0
LINE
  5
E3
  8
3
 10
80.5
 20
94.768318000000008
 30
0.0
 11
84.500000000000014
 21
94.768318000000008
 31
0.0
  0
LINE
  5
E4
  8
3
 10
80.5
 20
95.291795999999991
 30
0.0
 11
84.500000000000014
 21
95.291795999999991
 31
0.0
  0
LINE
  5
E5
  8
3
 10
80.5
 20
95.875128000000004
 30
0.0
 11
84.500000000000014
 21
95.875128000000004
 31
0.0
  0
LINE
  5
E6
  8
3
 10
80.5
 20
96.514718999999999
 30
0.0
 11
84.500000000000014
 21
96.514718999999999
 31
0.0
  0
LINE
  5
E7
  8
3
 10
80.5
 20
97.206622999999993
 30
0.0
 11
84.500000000000014
 21
97.206622999999993
 31
0.0
  0
LINE
  5
E8
  8
3
 10
80.5
 20
97.946577000000005
 30
0.0
 11
84.500000000000014
 21
97.946577000000005
 31
0.0
  0
LINE
  5
E9
  8
3
 10
80.5
 20
98.730017000000004
 30
0.0
 11
84.500000000000014
 21
98.730017000000004
 31
0.0
  0
LINE
  5
EA
  8
3
 10
80.5
 20
99.552114000000003
 30
0.0
 11
84.500000000000014
 21
99.552114000000003
 31
0.0
  0
LINE
  5
EB
  8
3
 10
80.5
 20
100.407799
 30
0.0
 11
84.500000000000014
 21
100.407799
 31
0.0
  0
LINE
  5
EC
  8
3
 10
80.5
 20
101.29179600000001
 30
0.0
 11
84.500000000000014
 21
101.29179600000001
 31
0.0
  0
LINE
  5
ED
  8
3
 10
80.5
 20
102.198656
 30
0.0
 11
84.500000000000014
 21
102.198656
 31
0.0
  0
LINE
  5
EE
  8
3
 10
80.5
 20
103.122786
 30
0.0
 11
84.500000000000014
 21
103.122786
 31
0.0
  0
LINE
  5
EF
  8
3
 10
80.5
 20
104.058491
 30
0.0
 11
84.500000000000014
 21
104.058491
 31
0.0
  0
LINE
  5
F0
  8
3
 10
80.5
 20
105.941509
 30
0.0
 11
84.500000000000014
 21
105.941509
 31
0.0
  0
LINE
  5
F1
  8
3
 10
80.5
 20
106.877214
 30
0.0
 11
84.500000000000014
 21
106.877214
 31
0.0
  0
LINE
  5
F2
  8
3
 10
80.5
 20
107.801344
 30
0.0
 11
84.500000000000014
 21
107.801344
 31
0.0
  0
LINE
  5
F3
  8
3
 10
80.5
 20
108.70820399999999
 30
0.0
 11
84.500000000000014
 21
108.70820399999999
 31
0.0
  0
LINE
  5
F4
  8
3
 10
80.5
 20
109.592201
 30
0.0
 11
84.500000000000014
 21
109.592201
 31
0.0
  0
LINE
  5
F5
  8
3
 10
80.5
 20
110.447886
 30
0.0
 11
84.500000000000014
 21
110.447886
 31
0.0
  0
LINE
  5
F6
  8
3
 10
80.5
 20
111.269983
 30
0.0
 11
84.500000000000014
 21
111.269983
 31
0.0
  0
LINE
  5
F7
  8
3
 10
80.5
 20
112.053423
 30
0.0
 11
84.500000000000014
 21
112.053423
 31
0.0
  0
LINE
  5
F8
  8
3
 10
80.5
 20
112.79337700000001
 30
0.0
 11
84.500000000000014
 21
112.79337700000001
 31
0.0
  0
LINE
  5
F9
  8
3
 10
80.5
 20
113.485281
 30
0.0
 11
84.500000000000014
 21
113.485281
 31
0.0
  0
LINE
  5
FA
  8
3
 10
80.5
 20
114.124872
 30
0.0
 11
84.500000000000014
 21
114.124872
 31
0.0
  0
LINE
  5
FB
  8
3
 10
80.5
 20
114.70820399999999
 30
0.0
 11
84.500000000000014
 21
114.70820399999999
 31
0.0
  0
LINE
  5
FC
  8
3
 10
80.5
 20
115.23168200000001
 30
0.0
 11
84.500000000000014
 21
115.23168200000001
 31
0.0
  0
LINE
  5
FD
  8
3
 10
80.5
 20
115.692078
 30
0.0
 11
84.500000000000014
 21
115.692078
 31
0.0
  0
LINE
  5
FE
  8
3
 10
80.5
 20
116.08655400000001
 30
0.0
 11
84.500000000000014
 21
116.08655400000001
 31
0.0
  0
LINE
  5
FF
  8
3
 10
80.5
 20
116.412678
 30
0.0
 11
84.500000000000014
 21
116.412678
 31
0.0
  0
LINE
  5
100
  8
3
 10
80.5
 20
116.66843900000001
 30
0.0
 11
84.500000000000014
 21
116.66843900000001
 31
0.0
  0
LINE
  5
101
  8
3
 10
80.5
 20
116.85226
 30
0.0
 11
84.500000000000014
 21
116.85226
 31
0.0
  0
LINE
  5
102
  8
0
 10
80.5
 20
116.963008
 30
0.0
 11
84.500000000000014
 21
116.963008
 31
0.0
  0
ARC
  5
103
  8
0
 10
86.0
 20
112.0
 30
0.0
 40
1.0
 50
180.0
 51
270.0
  0
LINE
  5
104
  8
3
 10
109.5415
 20
107.4585
 30
0.0
 11
96.937810000000013
 21
107.4585
 31
0.0
  0
LINE
  5
105
  8
0
 10
109.0
 20
108.0
 30
0.0
 11
97.0
 21
108.0
 31
0.0
  0
LINE
  5
106
  8
0
 10
110.0
 20
107.0
 30
0.0
 11
109.0
 21
108.0
 31
0.0
  0
ARC
  5
107
  8
0
 10
95.5
 20
107.7
 30
0.0
 40
0.5
 50
180.0
 51
270.0
  0
ARC
  5
108
  8
0
 10
96.5
 20
107.7
 30
0.0
 40
0.5
 50
270.0
 51
360.0
  0
LINE
  5
109
  8
0
 10
95.5
 20
107.2
 30
0.0
 11
96.5
 21
107.2
 31
0.0
  0
LINE
  5
10A
  8
0
 10
94.500000000000014
 20
111.0
 30
0.0
 11
95.0
 21
110.5
 31
0.0
  0
LINE
  5
10B
  8
0
 10
86.0
 20
111.0
 30
0.0
 11
94.500000000000014
 21
111.0
 31
0.0
  0
LINE
  5
10C
  8
0
 10
84.500000000000014
 20
117.0
 30
0.0
 11
85.0
 21
116.5
 31
0.0
  0
LINE
  5
10D
  8
0
 10
80.5
 20
117.0
 30
0.0
 11
84.500000000000014
 21
117.0
 31
0.0
  0
LINE
  5
10E
  8
0
 10
80.0
 20
116.5
 30
0.0
 11
80.5
 21
117.0
 31
0.0
  0
CIRCLE
  5
10F
  8
0
 10
50.0
 20
65.0
 30
0.0
 40
12.0
  0
CIRCLE
  5
110
  8
0
 10
140.0
 20
65.0
 30
0.0
 40
12.0
  0
CIRCLE
  5
111
  8
0
 10
140.0
 20
65.0
 30
0.0
 40
6.0
  0
CIRCLE
  5
112
  8
0
 10
140.0
 20
65.0
 30
0.0
 40
3.0
  0
CIRCLE
  5
113
  8
3
 10
140.0
 20
65.0
 30
0.0
 40
2.458499999999999
  0
CIRCLE
  5
114
  8
0
 10
50.0
 20
65.0
 30
0.0
 40
11.5
  0
CIRCLE
  5
115
  8
0
 10
140.0
 20
65.0
 30
0.0
 40
11.5
  0
CIRCLE
  5
116
  8
0
 10
140.0
 20
65.0
 30
0.0
 40
5.5
  0
LINE
  5
117
  8
1
 10
64.5
 20
65.0
 30
0.0
 11
35.5
 21
65.0
 31
0.0
  0
LINE
  5
118
  8
1
 10
50.0
 20
79.5
 30
0.0
 11
50.0
 21
50.5
 31
0.0
  0
LINE
  5
119
  8
1
 10
154.5
 20
65.0
 30
0.0
 11
125.5
 21
65.0
 31
0.0
  0
LINE
  5
11A
  8
1
 10
140.0
 20
79.5
 30
0.0
 11
140.0
 21
50.5
 31
0.0
  0
TEXT
  5
278
  8
0
 62
     3
 10
0.0
 20
0.0
 30
0.0
 40
10.0
  1
TKS6X15-SUS
  7
STANDARD1
  0
ENDSEC
  0
EOF
