  0
SECTION
  2
HEADER
  9
$ACADVER
  1
AC1009
  9
$INSBASE
 10
0.0
 20
0.0
 30
0.0
  9
$EXTMIN
 10
0.0
 20
-2.960436562073669
 30
0.0
  9
$EXTMAX
 10
118.79945429740791
 20
46.985245929575171
 30
0.0
  9
$LIMMIN
 10
0.0
 20
0.0
  9
$LIMMAX
 10
275.0
 20
175.0
  9
$ORTHOMODE
 70
     1
  9
$REGENMODE
 70
     1
  9
$FILLMODE
 70
     1
  9
$QTEXTMODE
 70
     0
  9
$MIRRTEXT
 70
     0
  9
$DRAGMODE
 70
     2
  9
$LTSCALE
 40
5.0
  9
$OSMODE
 70
    55
  9
$ATTMODE
 70
     1
  9
$TEXTSIZE
 40
0.2
  9
$TRACEWID
 40
0.05
  9
$TEXTSTYLE
  7
STANDARD
  9
$CLAYER
  8
0
  9
$CELTYPE
  6
BYLAYER
  9
$CECOLOR
 62
   256
  9
$DIMSCALE
 40
1.0
  9
$DIMASZ
 40
3.0
  9
$DIMEXO
 40
1.0
  9
$DIMDLI
 40
6.0
  9
$DIMRND
 40
0.0
  9
$DIMDLE
 40
0.0
  9
$DIMEXE
 40
1.0
  9
$DIMTP
 40
495.0
  9
$DIMTM
 40
0.0
  9
$DIMTXT
 40
3.0
  9
$DIMCEN
 40
0.0
  9
$DIMTSZ
 40
0.0
  9
$DIMTOL
 70
     0
  9
$DIMLIM
 70
     0
  9
$DIMTIH
 70
     0
  9
$DIMTOH
 70
     0
  9
$DIMSE1
 70
     0
  9
$DIMSE2
 70
     0
  9
$DIMTAD
 70
     1
  9
$DIMZIN
 70
     0
  9
$DIMBLK
  1

  9
$DIMASO
 70
     0
  9
$DIMSHO
 70
     0
  9
$DIMPOST
  1

  9
$DIMAPOST
  1

  9
$DIMALT
 70
     0
  9
$DIMALTD
 70
     2
  9
$DIMALTF
 40
25.399999999999999
  9
$DIMLFAC
 40
1.0
  9
$DIMTOFL
 70
     1
  9
$DIMTVP
 40
0.0
  9
$DIMTIX
 70
     1
  9
$DIMSOXD
 70
     0
  9
$DIMSAH
 70
     0
  9
$DIMBLK1
  1

  9
$DIMBLK2
  1

  9
$DIMSTYLE
  2
STANDARD
  9
$DIMCLRD
 70
     0
  9
$DIMCLRE
 70
     0
  9
$DIMCLRT
 70
     4
  9
$DIMTFAC
 40
1.0
  9
$DIMGAP
 40
1.0
  9
$LUNITS
 70
     2
  9
$LUPREC
 70
     4
  9
$SKETCHINC
 40
0.1
  9
$FILLETRAD
 40
0.0
  9
$AUNITS
 70
     0
  9
$AUPREC
 70
     0
  9
$MENU
  1
E:\r13\win\SUPPORT\ACAD
  9
$ELEVATION
 40
0.0
  9
$PELEVATION
 40
0.0
  9
$THICKNESS
 40
0.0
  9
$LIMCHECK
 70
     0
  9
$BLIPMODE
 70
     0
  9
$CHAMFERA
 40
0.0
  9
$CHAMFERB
 40
0.0
  9
$SKPOLY
 70
     0
  9
$TDCREATE
 40
2450653.5278402781
  9
$TDUPDATE
 40
2456598.4470589012
  9
$TDINDWG
 40
0.0860178472
  9
$TDUSRTIMER
 40
0.0860178472
  9
$USRTIMER
 70
     1
  9
$ANGBASE
 50
0.0
  9
$ANGDIR
 70
     0
  9
$PDMODE
 70
     0
  9
$PDSIZE
 40
0.0
  9
$PLINEWID
 40
0.0
  9
$COORDS
 70
     1
  9
$SPLFRAME
 70
     0
  9
$SPLINETYPE
 70
     6
  9
$SPLINESEGS
 70
     8
  9
$ATTDIA
 70
     0
  9
$ATTREQ
 70
     1
  9
$HANDLING
 70
     1
  9
$HANDSEED
  5
3FE
  9
$SURFTAB1
 70
     6
  9
$SURFTAB2
 70
     6
  9
$SURFTYPE
 70
     6
  9
$SURFU
 70
     6
  9
$SURFV
 70
     6
  9
$UCSNAME
  2

  9
$UCSORG
 10
0.0
 20
0.0
 30
0.0
  9
$UCSXDIR
 10
1.0
 20
0.0
 30
0.0
  9
$UCSYDIR
 10
0.0
 20
1.0
 30
0.0
  9
$PUCSNAME
  2

  9
$PUCSORG
 10
0.0
 20
0.0
 30
0.0
  9
$PUCSXDIR
 10
1.0
 20
0.0
 30
0.0
  9
$PUCSYDIR
 10
0.0
 20
1.0
 30
0.0
  9
$USERI1
 70
     4
  9
$USERI2
 70
     1
  9
$USERI3
 70
     1
  9
$USERI4
 70
     0
  9
$USERI5
 70
     0
  9
$USERR1
 40
1.0
  9
$USERR2
 40
3.0
  9
$USERR3
 40
3.0
  9
$USERR4
 40
3.0
  9
$USERR5
 40
10.0
  9
$WORLDVIEW
 70
     1
  9
$SHADEDGE
 70
     3
  9
$SHADEDIF
 70
    70
  9
$TILEMODE
 70
     1
  9
$MAXACTVP
 70
    16
  9
$PLIMCHECK
 70
     0
  9
$PEXTMIN
 10
1.0000000000000000E+020
 20
1.0000000000000000E+020
 30
1.0000000000000000E+020
  9
$PEXTMAX
 10
-1.0000000000000000E+020
 20
-1.0000000000000000E+020
 30
-1.0000000000000000E+020
  9
$PLIMMIN
 10
0.0
 20
0.0
  9
$PLIMMAX
 10
12.0
 20
9.0
  9
$UNITMODE
 70
     0
  9
$VISRETAIN
 70
     0
  9
$PLINEGEN
 70
     0
  9
$PSLTSCALE
 70
     0
  0
ENDSEC
  0
SECTION
  2
TABLES
  0
TABLE
  2
VPORT
 70
     1
  0
VPORT
  2
*ACTIVE
 70
     0
 10
0.0
 20
0.0
 11
1.0
 21
1.0
 12
137.495804153145
 22
127.43987488832769
 13
0.0
 23
0.0
 14
5.0
 24
5.0
 15
10.0
 25
10.0
 16
0.0
 26
0.0
 36
1.0
 17
0.0
 27
0.0
 37
0.0
 40
263.11484850981981
 41
1.7807262569832401
 42
50.0
 43
0.0
 44
0.0
 50
0.0
 51
0.0
 71
     0
 72
   100
 73
     1
 74
     0
 75
     0
 76
     0
 77
     0
 78
     0
  0
ENDTAB
  0
TABLE
  2
LTYPE
 70
     3
  0
LTYPE
  2
CONTINUOUS
 70
     0
  3
Solid Line
 72
    65
 73
     0
 40
0.0
  0
LTYPE
  2
CENTER
 70
     0
  3
____ _ ____ _ ____ _ ____ _ ____ _ ____ _ ____
 72
    65
 73
     4
 40
2.0
 49
1.25
 49
-0.25
 49
0.25
 49
-0.25
  0
LTYPE
  2
PHANTOM2
 70
     0
  3
___ _ _ ___ _ _ ___ _ _ ___ _ _
 72
    65
 73
     6
 40
1.25
 49
0.625
 49
-0.125
 49
0.125
 49
-0.125
 49
0.125
 49
-0.125
  0
ENDTAB
  0
TABLE
  2
LAYER
 70
     4
  0
LAYER
  2
0
 70
     0
 62
     7
  6
CONTINUOUS
  0
LAYER
  2
1
 70
     0
 62
     1
  6
CENTER
  0
LAYER
  2
3
 70
     0
 62
     3
  6
CONTINUOUS
  0
LAYER
  2
JISSEN
 70
     0
 62
     7
  6
CONTINUOUS
  0
ENDTAB
  0
TABLE
  2
STYLE
 70
     2
  0
STYLE
  2
STANDARD
 70
     0
 40
0.0
 41
1.0
 50
0.0
 71
     0
 42
0.2
  3
simplex
  4
bigfont
  0
STYLE
  2
STANDARD1
 70
     0
 40
0.0
 41
1.0
 50
0.0
 71
     0
 42
3.0
  3
txt
  4

  0
ENDTAB
  0
TABLE
  2
VIEW
 70
     0
  0
ENDTAB
  0
TABLE
  2
UCS
 70
     0
  0
ENDTAB
  0
TABLE
  2
APPID
 70
     4
  0
APPID
  2
ACAD
 70
     0
  0
APPID
  2
_CALL_MAC$
 70
     0
  0
APPID
  2
ACAD_MLEADERVER
 70
     0
  0
APPID
  2
ACAD_NAV_VCDISPLAY
 70
     0
  0
ENDTAB
  0
TABLE
  2
DIMSTYLE
 70
     1
  0
DIMSTYLE
  2
STANDARD
 70
     0
  3

  4

  5

  6

  7

 40
1.0
 41
0.18
 42
0.0625
 43
0.38
 44
0.18
 45
0.0
 46
0.0
 47
0.0
 48
0.0
140
0.18
141
0.09
142
0.0
143
25.399999999999999
144
1.0
145
0.0
146
1.0
147
0.09
 71
     0
 72
     0
 73
     1
 74
     1
 75
     0
 76
     0
 77
     0
 78
     0
170
     0
171
     2
172
     0
173
     0
174
     0
175
     0
176
     0
177
     0
178
     0
  0
ENDTAB
  0
ENDSEC
  0
SECTION
  2
BLOCKS
  0
BLOCK
  8
0
  2
$MODEL_SPACE
 70
     0
 10
0.0
 20
0.0
 30
0.0
  3
$MODEL_SPACE
  1

  0
ENDBLK
  5
7
  8
0
  0
BLOCK
 67
     1
  8
0
  2
$PAPER_SPACE
 70
     0
 10
0.0
 20
0.0
 30
0.0
  3
$PAPER_SPACE
  1

  0
ENDBLK
  5
A
 67
     1
  8
0
  0
ENDSEC
  0
SECTION
  2
ENTITIES
  0
ARC
  5
1F4
  8
0
 10
38.790779928410991
 20
40.985245929575171
 30
0.0
 40
0.5
 50
180.0
 51
270.0
  0
LINE
  5
1F5
  8
0
 10
34.790779928410977
 20
28.885245929575259
 30
0.0
 11
34.790779928410977
 21
44.085245929575301
 31
0.0
  0
LINE
  5
1F6
  8
0
 10
38.290779928410977
 20
28.885245929575259
 30
0.0
 11
38.290779928410871
 21
44.085245929575301
 31
0.0
  0
LINE
  5
1F7
  8
0
 10
35.190779928410961
 20
44.485245929575171
 30
0.0
 11
35.190779928410961
 21
28.485245929575171
 31
0.0
  0
LINE
  5
1F8
  8
0
 10
37.8907799284109
 20
28.485245929575171
 30
0.0
 11
37.8907799284109
 21
44.485245929575171
 31
0.0
  0
LINE
  5
1F9
  8
3
 10
54.290779928410977
 20
38.085245929575422
 30
0.0
 11
58.990783764429352
 21
38.085245929575308
 31
0.0
1001
_CALL_MAC$
1000
040M4
  0
LINE
  5
1FA
  8
JISSEN
 10
58.590779928410932
 20
38.485249765593721
 30
0.0
 11
54.290779928410977
 21
38.485249765593721
 31
0.0
  0
LINE
  5
1FB
  8
3
 10
54.290779928410977
 20
34.885245929575269
 30
0.0
 11
58.990776092392601
 21
34.885245929575269
 31
0.0
1001
_CALL_MAC$
1000
040M4
  0
LINE
  5
1FC
  8
JISSEN
 10
54.290779928410977
 20
34.485249765593721
 30
0.0
 11
58.590779928410932
 21
34.485249765593721
 31
0.0
  0
LINE
  5
1FD
  8
1
 10
32.290779928410977
 20
36.485245929575171
 30
0.0
 11
61.790779928410977
 21
36.485245929575171
 31
0.0
  0
LINE
  5
1FE
  8
JISSEN
 10
38.790779928410991
 20
40.485245929575171
 30
0.0
 11
43.890779928410893
 21
40.485245929575171
 31
0.0
  0
LINE
  5
1FF
  8
JISSEN
 10
38.790779928410991
 20
32.485245929575171
 30
0.0
 11
43.890779928410893
 21
32.485245929575171
 31
0.0
  0
LINE
  5
200
  8
3
 10
35.190779928410961
 20
30.321139987368841
 30
0.0
 11
37.8907799284109
 21
30.321139987368841
 31
0.0
  0
LINE
  5
201
  8
0
 10
35.190779928410961
 20
28.485245929575171
 30
0.0
 11
37.8907799284109
 21
28.485245929575171
 31
0.0
  0
LINE
  5
202
  8
3
 10
35.190779928410961
 20
28.626947923745661
 30
0.0
 11
37.8907799284109
 21
28.626947923745661
 31
0.0
  0
LINE
  5
203
  8
3
 10
35.190779928410961
 20
28.876793799213939
 30
0.0
 11
37.8907799284109
 21
28.876793799213939
 31
0.0
  0
LINE
  5
204
  8
3
 10
35.190779928410961
 20
29.246629509846908
 30
0.0
 11
37.8907799284109
 21
29.246629509847139
 31
0.0
  0
LINE
  5
205
  8
3
 10
35.190779928410961
 20
29.73062252555917
 30
0.0
 11
37.8907799284109
 21
29.73062252555917
 31
0.0
  0
LINE
  5
206
  8
0
 10
34.790779928410977
 20
28.885245929575259
 30
0.0
 11
35.190779928410961
 21
28.485245929575171
 31
0.0
  0
LINE
  5
207
  8
0
 10
37.8907799284109
 20
28.485245929575171
 30
0.0
 11
38.290779928410977
 21
28.885245929575259
 31
0.0
  0
LINE
  5
208
  8
3
 10
35.190779928410961
 20
31.78296391123547
 30
0.0
 11
37.8907799284109
 21
31.78296391123547
 31
0.0
  0
LINE
  5
209
  8
3
 10
35.190779928410961
 20
32.631216536761599
 30
0.0
 11
37.8907799284109
 21
32.631216536761599
 31
0.0
  0
LINE
  5
20A
  8
3
 10
35.190779928410961
 20
33.540249508097872
 30
0.0
 11
37.8907799284109
 21
33.540249508097872
 31
0.0
  0
LINE
  5
20B
  8
3
 10
35.190779928410961
 20
31.008869082145679
 30
0.0
 11
37.890779928411007
 21
31.008869082145679
 31
0.0
  0
LINE
  5
20C
  8
0
 10
38.790779928410991
 20
32.485245929575171
 30
0.0
 11
38.790779928410871
 21
32.485245929575171
 31
0.0
  0
ARC
  5
20D
  8
0
 10
38.790779928410991
 20
31.985245929575171
 30
0.0
 40
0.5
 50
89.999999999996746
 51
180.0
  0
LINE
  5
20E
  8
3
 10
35.190779928410961
 20
36.485245929575171
 30
0.0
 11
37.8907799284109
 21
36.485245929575171
 31
0.0
  0
LINE
  5
20F
  8
3
 10
35.190779928410961
 20
34.495726832256537
 30
0.0
 11
37.8907799284109
 21
34.495726832256537
 31
0.0
  0
LINE
  5
210
  8
3
 10
35.190779928410961
 20
35.48258006106073
 30
0.0
 11
37.8907799284109
 21
35.48258006106073
 31
0.0
  0
LINE
  5
211
  8
3
 10
35.190779928410961
 20
38.474765026894033
 30
0.0
 11
37.8907799284109
 21
38.474765026894033
 31
0.0
  0
LINE
  5
212
  8
3
 10
35.190779928410961
 20
39.430242351052698
 30
0.0
 11
37.8907799284109
 21
39.430242351052698
 31
0.0
  0
LINE
  5
213
  8
3
 10
35.190779928410961
 20
40.339275322388971
 30
0.0
 11
37.8907799284109
 21
40.339275322388971
 31
0.0
  0
LINE
  5
214
  8
3
 10
35.190779928410961
 20
37.48791179808984
 30
0.0
 11
37.8907799284109
 21
37.48791179808984
 31
0.0
  0
LINE
  5
215
  8
0
 10
38.790779928410991
 20
40.485245929575171
 30
0.0
 11
38.790779928410871
 21
40.485245929575171
 31
0.0
  0
LINE
  5
216
  8
0
 10
44.290779928410871
 20
32.885245929575262
 30
0.0
 11
44.290779928410977
 21
40.085245929575301
 31
0.0
  0
LINE
  5
217
  8
JISSEN
 10
43.890779928410893
 20
40.485245929575171
 30
0.0
 11
43.890779928410893
 21
32.485245929575171
 31
0.0
  0
LINE
  5
218
  8
JISSEN
 10
44.290779928410977
 20
32.885245929575262
 30
0.0
 11
43.890779928410893
 21
32.485245929575171
 31
0.0
  0
ARC
  5
219
  8
JISSEN
 10
44.690779928410947
 20
34.585245929575201
 30
0.0
 40
0.4
 50
90.0
 51
180.0
  0
ARC
  5
21A
  8
JISSEN
 10
44.690779928410947
 20
38.385245929575262
 30
0.0
 40
0.4
 50
180.0
 51
270.0
  0
LINE
  5
21B
  8
JISSEN
 10
43.890779928410893
 20
40.485245929575171
 30
0.0
 11
44.290779928410977
 21
40.085245929575301
 31
0.0
  0
LINE
  5
21C
  8
JISSEN
 10
54.290779928410977
 20
34.485249765593721
 30
0.0
 11
54.290779928410977
 21
38.485249765593721
 31
0.0
  0
LINE
  5
21D
  8
JISSEN
 10
44.690779928410947
 20
34.985245929575171
 30
0.0
 11
54.290779928410977
 21
34.985245929575171
 31
0.0
  0
LINE
  5
21E
  8
JISSEN
 10
44.690779928410947
 20
37.985245929575171
 30
0.0
 11
54.290779928410977
 21
37.985245929575171
 31
0.0
  0
LINE
  5
21F
  8
JISSEN
 10
59.290779928410977
 20
35.185249765593767
 30
0.0
 11
59.290779928410977
 21
37.785249765593683
 31
0.0
  0
LINE
  5
220
  8
JISSEN
 10
58.590779928410932
 20
38.485249765593721
 30
0.0
 11
58.590779928410932
 21
34.485249765593721
 31
0.0
  0
LINE
  5
221
  8
JISSEN
 10
59.290779928410977
 20
35.185249765593767
 30
0.0
 11
58.590779928410932
 21
34.485249765593721
 31
0.0
  0
LINE
  5
222
  8
JISSEN
 10
58.590779928410932
 20
38.485249765593721
 30
0.0
 11
59.290779928410977
 21
37.785249765593683
 31
0.0
  0
LINE
  5
223
  8
0
 10
37.8907799284109
 20
44.485245929575171
 30
0.0
 11
38.290779928410977
 21
44.085245929575301
 31
0.0
  0
LINE
  5
224
  8
0
 10
35.190779928410961
 20
44.485245929575171
 30
0.0
 11
34.790779928410977
 21
44.085245929575301
 31
0.0
  0
LINE
  5
225
  8
3
 10
35.190779928410961
 20
41.961622777004891
 30
0.0
 11
37.890779928411007
 21
41.961622777004891
 31
0.0
  0
LINE
  5
226
  8
3
 10
35.190779928410961
 20
42.649351871781498
 30
0.0
 11
37.8907799284109
 21
42.649351871781498
 31
0.0
  0
LINE
  5
227
  8
3
 10
35.190779928410961
 20
43.239869333591393
 30
0.0
 11
37.8907799284109
 21
43.239869333591393
 31
0.0
  0
LINE
  5
228
  8
3
 10
35.190779928410961
 20
43.723862349303431
 30
0.0
 11
37.8907799284109
 21
43.723862349303431
 31
0.0
  0
LINE
  5
229
  8
3
 10
35.190779928410961
 20
44.093698059936621
 30
0.0
 11
37.8907799284109
 21
44.093698059936621
 31
0.0
  0
LINE
  5
22A
  8
3
 10
35.190779928410961
 20
41.1875279479151
 30
0.0
 11
37.8907799284109
 21
41.1875279479151
 31
0.0
  0
LINE
  5
22B
  8
0
 10
35.190779928410961
 20
44.485245929575171
 30
0.0
 11
37.8907799284109
 21
44.485245929575171
 31
0.0
  0
LINE
  5
22C
  8
3
 10
35.190779928410961
 20
44.343543935404902
 30
0.0
 11
37.8907799284109
 21
44.343543935404682
 31
0.0
  0
CIRCLE
  5
230
  8
0
 10
15.59676673283059
 20
36.485245929575171
 30
0.0
 40
7.6000000000001364
  0
CIRCLE
  5
231
  8
0
 10
15.59676673283059
 20
36.485245929575171
 30
0.0
 40
8.0
  0
LINE
  5
232
  8
1
 10
15.59676673283059
 20
46.985245929575171
 30
0.0
 11
15.59676673283059
 21
25.985245929575171
 31
0.0
  0
LINE
  5
233
  8
1
 10
26.096766732830591
 20
36.485245929575171
 30
0.0
 11
5.096766732830587
 21
36.485245929575171
 31
0.0
  0
LINE
  5
237
  8
1
 10
78.457381994173033
 20
46.985245929575171
 30
0.0
 11
78.457381994173033
 21
25.985245929575171
 31
0.0
  0
CIRCLE
  5
238
  8
0
 10
78.457381994173033
 20
36.485245929575171
 30
0.0
 40
7.6000000000001364
  0
CIRCLE
  5
239
  8
0
 10
78.457381994173033
 20
36.485245929575171
 30
0.0
 40
8.0
  0
LINE
  5
23A
  8
1
 10
67.957381994173033
 20
36.485245929575171
 30
0.0
 11
88.957381994173033
 21
36.485245929575171
 31
0.0
  0
CIRCLE
  5
23F
  8
3
 10
78.457381994173033
 20
36.485245929575171
 30
0.0
 40
1.600000000000136
  0
CIRCLE
  5
240
  8
0
 10
78.457381994173033
 20
36.485245929575171
 30
0.0
 40
2.000003836018549
  0
CIRCLE
  5
241
  8
0
 10
78.457381994173033
 20
36.485245929575171
 30
0.0
 40
3.600000000000136
  0
CIRCLE
  5
242
  8
0
 10
78.457381994173033
 20
36.485245929575171
 30
0.0
 40
4.0
  0
TEXT
  5
368
  8
0
 62
     3
 10
0.0
 20
0.0
 30
0.0
 40
10.0
  1
TKS4X15R10-SUS
  7
STANDARD1
  0
ENDSEC
  0
EOF
