  0
SECTION
  2
HEADER
  9
$ACADVER
  1
AC1009
  9
$INSBASE
 10
0.0
 20
0.0
 30
0.0
  9
$EXTMIN
 10
0.0
 20
-2.960436562073669
 30
0.0
  9
$EXTMAX
 10
155.9576422241129
 20
117.9999999999999
 30
0.0
  9
$LIMMIN
 10
0.0
 20
0.0
  9
$LIMMAX
 10
187.5
 20
135.0
  9
$ORTHOMODE
 70
     1
  9
$REGENMODE
 70
     1
  9
$FILLMODE
 70
     1
  9
$QTEXTMODE
 70
     0
  9
$MIRRTEXT
 70
     0
  9
$DRAGMODE
 70
     2
  9
$LTSCALE
 40
5.0
  9
$OSMODE
 70
    55
  9
$ATTMODE
 70
     2
  9
$TEXTSIZE
 40
0.2
  9
$TRACEWID
 40
0.05
  9
$TEXTSTYLE
  7
STANDARD
  9
$CLAYER
  8
0
  9
$CELTYPE
  6
BYLAYER
  9
$CECOLOR
 62
   256
  9
$DIMSCALE
 40
0.5
  9
$DIMASZ
 40
3.0
  9
$DIMEXO
 40
2.0
  9
$DIMDLI
 40
0.38
  9
$DIMRND
 40
0.0
  9
$DIMDLE
 40
0.0
  9
$DIMEXE
 40
2.0
  9
$DIMTP
 40
0.0
  9
$DIMTM
 40
0.0
  9
$DIMTXT
 40
3.2000000000000002
  9
$DIMCEN
 40
0.09
  9
$DIMTSZ
 40
0.0
  9
$DIMTOL
 70
     0
  9
$DIMLIM
 70
     0
  9
$DIMTIH
 70
     0
  9
$DIMTOH
 70
     0
  9
$DIMSE1
 70
     0
  9
$DIMSE2
 70
     0
  9
$DIMTAD
 70
     1
  9
$DIMZIN
 70
     0
  9
$DIMBLK
  1

  9
$DIMASO
 70
     1
  9
$DIMSHO
 70
     0
  9
$DIMPOST
  1

  9
$DIMAPOST
  1

  9
$DIMALT
 70
     0
  9
$DIMALTD
 70
     2
  9
$DIMALTF
 40
25.399999999999999
  9
$DIMLFAC
 40
1.0
  9
$DIMTOFL
 70
     0
  9
$DIMTVP
 40
0.0
  9
$DIMTIX
 70
     0
  9
$DIMSOXD
 70
     0
  9
$DIMSAH
 70
     0
  9
$DIMBLK1
  1

  9
$DIMBLK2
  1

  9
$DIMSTYLE
  2
STANDARD
  9
$DIMCLRD
 70
     0
  9
$DIMCLRE
 70
     0
  9
$DIMCLRT
 70
     0
  9
$DIMTFAC
 40
1.0
  9
$DIMGAP
 40
0.09
  9
$LUNITS
 70
     2
  9
$LUPREC
 70
     4
  9
$SKETCHINC
 40
0.1
  9
$FILLETRAD
 40
0.0
  9
$AUNITS
 70
     0
  9
$AUPREC
 70
     0
  9
$MENU
  1
E:\r13\win\SUPPORT\ACAD
  9
$ELEVATION
 40
0.0
  9
$PELEVATION
 40
0.0
  9
$THICKNESS
 40
0.0
  9
$LIMCHECK
 70
     0
  9
$BLIPMODE
 70
     0
  9
$CHAMFERA
 40
0.0
  9
$CHAMFERB
 40
0.0
  9
$SKPOLY
 70
     0
  9
$TDCREATE
 40
2449840.6048379629
  9
$TDUPDATE
 40
2456598.4470348838
  9
$TDINDWG
 40
0.0368624306
  9
$TDUSRTIMER
 40
0.0368624306
  9
$USRTIMER
 70
     1
  9
$ANGBASE
 50
0.0
  9
$ANGDIR
 70
     0
  9
$PDMODE
 70
     0
  9
$PDSIZE
 40
0.0
  9
$PLINEWID
 40
0.0
  9
$COORDS
 70
     1
  9
$SPLFRAME
 70
     0
  9
$SPLINETYPE
 70
     6
  9
$SPLINESEGS
 70
     8
  9
$ATTDIA
 70
     0
  9
$ATTREQ
 70
     1
  9
$HANDLING
 70
     1
  9
$HANDSEED
  5
1A6B
  9
$SURFTAB1
 70
     6
  9
$SURFTAB2
 70
     6
  9
$SURFTYPE
 70
     6
  9
$SURFU
 70
     6
  9
$SURFV
 70
     6
  9
$UCSNAME
  2

  9
$UCSORG
 10
0.0
 20
0.0
 30
0.0
  9
$UCSXDIR
 10
1.0
 20
0.0
 30
0.0
  9
$UCSYDIR
 10
0.0
 20
1.0
 30
0.0
  9
$PUCSNAME
  2

  9
$PUCSORG
 10
0.0
 20
0.0
 30
0.0
  9
$PUCSXDIR
 10
1.0
 20
0.0
 30
0.0
  9
$PUCSYDIR
 10
0.0
 20
1.0
 30
0.0
  9
$USERI1
 70
     0
  9
$USERI2
 70
     1
  9
$USERI3
 70
     1
  9
$USERI4
 70
     0
  9
$USERI5
 70
     0
  9
$USERR1
 40
0.0
  9
$USERR2
 40
0.0
  9
$USERR3
 40
0.0
  9
$USERR4
 40
0.0
  9
$USERR5
 40
0.0
  9
$WORLDVIEW
 70
     1
  9
$SHADEDGE
 70
     3
  9
$SHADEDIF
 70
    70
  9
$TILEMODE
 70
     1
  9
$MAXACTVP
 70
    16
  9
$PLIMCHECK
 70
     0
  9
$PEXTMIN
 10
1.0000000000000000E+020
 20
1.0000000000000000E+020
 30
1.0000000000000000E+020
  9
$PEXTMAX
 10
-1.0000000000000000E+020
 20
-1.0000000000000000E+020
 30
-1.0000000000000000E+020
  9
$PLIMMIN
 10
0.0
 20
0.0
  9
$PLIMMAX
 10
12.0
 20
9.0
  9
$UNITMODE
 70
     0
  9
$VISRETAIN
 70
     0
  9
$PLINEGEN
 70
     0
  9
$PSLTSCALE
 70
     0
  0
ENDSEC
  0
SECTION
  2
TABLES
  0
TABLE
  2
VPORT
 70
     1
  0
VPORT
  2
*ACTIVE
 70
     0
 10
0.0
 20
0.0
 11
1.0
 21
1.0
 12
93.74713919532617
 22
98.129098027095807
 13
0.0
 23
0.0
 14
5.0
 24
5.0
 15
5.0
 25
5.0
 16
0.0
 26
0.0
 36
1.0
 17
0.0
 27
0.0
 37
0.0
 40
203.97931595516741
 41
1.7807262569832401
 42
50.0
 43
0.0
 44
0.0
 50
0.0
 51
0.0
 71
     0
 72
   100
 73
     1
 74
     0
 75
     0
 76
     0
 77
     0
 78
     1
  0
ENDTAB
  0
TABLE
  2
LTYPE
 70
     3
  0
LTYPE
  2
CONTINUOUS
 70
     0
  3
Solid Line
 72
    65
 73
     0
 40
0.0
  0
LTYPE
  2
CENTER
 70
     0
  3
____ _ ____ _ ____ _ ____ _ ____ _ ____ _ ____
 72
    65
 73
     4
 40
2.0
 49
1.25
 49
-0.25
 49
0.25
 49
-0.25
  0
LTYPE
  2
PHANTOM2
 70
     0
  3
___ _ _ ___ _ _ ___ _ _ ___ _ _
 72
    65
 73
     6
 40
1.25
 49
0.625
 49
-0.125
 49
0.125
 49
-0.125
 49
0.125
 49
-0.125
  0
ENDTAB
  0
TABLE
  2
LAYER
 70
     4
  0
LAYER
  2
0
 70
     0
 62
     7
  6
CONTINUOUS
  0
LAYER
  2
1
 70
     0
 62
     1
  6
CENTER
  0
LAYER
  2
3
 70
     0
 62
     3
  6
CONTINUOUS
  0
LAYER
  2
11
 70
     0
 62
     3
  6
CONTINUOUS
  0
ENDTAB
  0
TABLE
  2
STYLE
 70
     2
  0
STYLE
  2
STANDARD
 70
     0
 40
0.0
 41
1.0
 50
0.0
 71
     0
 42
0.2
  3
TXT
  4
BIGFONT
  0
STYLE
  2
STANDARD1
 70
     0
 40
0.0
 41
1.0
 50
0.0
 71
     0
 42
3.0
  3
txt
  4

  0
ENDTAB
  0
TABLE
  2
VIEW
 70
     1
  0
VIEW
  2
ALL
 70
     0
 40
135.0
 10
110.49579799999999
 20
67.5
 41
0.0
 11
0.0
 21
0.0
 31
1.0
 12
0.0
 22
0.0
 32
0.0
 42
0.0
 43
0.0
 44
0.0
 50
0.0
 71
     0
  0
ENDTAB
  0
TABLE
  2
UCS
 70
     0
  0
ENDTAB
  0
TABLE
  2
APPID
 70
     6
  0
APPID
  2
ACAD
 70
     0
  0
APPID
  2
GENIUS_GENODEF_13
 70
     0
  0
APPID
  2
GENIUS_GENOBJ-N-FIL_13
 70
     0
  0
APPID
  2
_CALL_MAC$
 70
     0
  0
APPID
  2
ACAD_MLEADERVER
 70
     0
  0
APPID
  2
ACAD_NAV_VCDISPLAY
 70
     0
  0
ENDTAB
  0
TABLE
  2
DIMSTYLE
 70
     1
  0
DIMSTYLE
  2
STANDARD
 70
     0
  3

  4

  5

  6

  7

 40
1.0
 41
0.18
 42
0.0625
 43
0.38
 44
0.18
 45
0.0
 46
0.0
 47
0.0
 48
0.0
140
0.18
141
0.09
142
0.0
143
25.399999999999999
144
1.0
145
0.0
146
1.0
147
0.09
 71
     0
 72
     0
 73
     1
 74
     1
 75
     0
 76
     0
 77
     0
 78
     0
170
     0
171
     2
172
     0
173
     0
174
     0
175
     0
176
     0
177
     0
178
     0
  0
ENDTAB
  0
ENDSEC
  0
SECTION
  2
BLOCKS
  0
BLOCK
  8
0
  2
$MODEL_SPACE
 70
     0
 10
0.0
 20
0.0
 30
0.0
  3
$MODEL_SPACE
  1

  0
ENDBLK
  5
18B1
  8
0
  0
BLOCK
 67
     1
  8
0
  2
$PAPER_SPACE
 70
     0
 10
0.0
 20
0.0
 30
0.0
  3
$PAPER_SPACE
  1

  0
ENDBLK
  5
18AF
 67
     1
  8
0
  0
BLOCK
  8
0
  2
STDGX5
 70
     0
 10
0.0
 20
0.0
 30
0.0
  3
STDGX5
  1

  0
ENDBLK
  5
226
  8
0
  0
ENDSEC
  0
SECTION
  2
ENTITIES
  0
LINE
  5
11D
  8
1
 10
56.457642224112767
 20
70.0
 30
0.0
 11
35.457642224112952
 21
70.0
 31
0.0
  0
LINE
  5
11E
  8
1
 10
45.957642224112853
 20
80.499999999999915
 30
0.0
 11
45.957642224112853
 21
59.500000000000092
 31
0.0
  0
LINE
  5
11F
  8
1
 10
155.9576422241129
 20
70.0
 30
0.0
 11
134.9576422241129
 21
70.0
 31
0.0
  0
LINE
  5
120
  8
1
 10
145.4576422241129
 20
80.5
 30
0.0
 11
145.4576422241129
 21
59.5
 31
0.0
  0
INSERT
  5
700
  8
11
  2
STDGX5
 10
223.08464502437741
 20
70.313615355517754
 30
0.0
  0
INSERT
  5
701
  8
11
  2
STDGX5
 10
260.56974364059391
 20
34.313615078914843
 30
0.0
  0
INSERT
  5
702
  8
11
  2
STDGX5
 10
194.11888657900539
 20
1.962264108487374
 30
0.0
  0
INSERT
  5
703
  8
11
  2
STDGX5
 10
263.23538717766218
 20
69.954615506351374
 30
0.0
  0
INSERT
  5
704
  8
11
  2
STDGX5
 10
263.23538717766218
 20
69.954615506351374
 30
0.0
  0
INSERT
  5
705
  8
11
  2
STDGX5
 10
263.23538717766218
 20
69.954615506351374
 30
0.0
  0
INSERT
  5
706
  8
11
  2
STDGX5
 10
263.23538717766218
 20
69.954615506351374
 30
0.0
  0
INSERT
  5
707
  8
11
  2
STDGX5
 10
263.23538717766218
 20
69.954615506351374
 30
0.0
  0
INSERT
  5
708
  8
11
  2
STDGX5
 10
538.23538717766223
 20
126.2383990347744
 30
0.0
  0
INSERT
  5
709
  8
11
  2
STDGX5
 10
538.23538717766223
 20
126.2383990347744
 30
0.0
  0
INSERT
  5
70A
  8
11
  2
STDGX5
 10
538.23538717766223
 20
126.2383990347744
 30
0.0
  0
INSERT
  5
70B
  8
11
  2
STDGX5
 10
538.23538717766223
 20
126.2383990347744
 30
0.0
  0
INSERT
  5
70C
  8
11
  2
STDGX5
 10
782.45001010189969
 20
283.0822582452131
 30
0.0
  0
INSERT
  5
70D
  8
11
  2
STDGX5
 10
819.93510871811611
 20
247.08225796861021
 30
0.0
  0
INSERT
  5
70E
  8
11
  2
STDGX5
 10
753.4842516565277
 20
214.73090699818269
 30
0.0
  0
INSERT
  5
70F
  8
11
  2
STDGX5
 10
902.73336712036075
 20
362.46282033681712
 30
0.0
  0
INSERT
  5
710
  8
11
  2
STDGX5
 10
940.21846573657717
 20
326.4628200602142
 30
0.0
  0
INSERT
  5
711
  8
11
  2
STDGX5
 10
873.76760867498888
 20
294.11146908978668
 30
0.0
  0
INSERT
  5
712
  8
11
  2
STDGX5
 10
613.08464502437744
 20
95.313658557934673
 30
0.0
  0
INSERT
  5
713
  8
11
  2
STDGX5
 10
650.56974364059386
 20
59.313658281331747
 30
0.0
  0
INSERT
  5
714
  8
11
  2
STDGX5
 10
584.11888657900545
 20
26.96230731090429
 30
0.0
  0
INSERT
  5
715
  8
11
  2
STDGX5
 10
653.23538717766223
 20
94.954658708768306
 30
0.0
  0
INSERT
  5
716
  8
11
  2
STDGX5
 10
653.23538717766223
 20
94.954658708768306
 30
0.0
  0
INSERT
  5
717
  8
11
  2
STDGX5
 10
653.23538717766223
 20
94.954658708768306
 30
0.0
  0
INSERT
  5
718
  8
11
  2
STDGX5
 10
653.23538717766223
 20
94.954658708768306
 30
0.0
  0
INSERT
  5
719
  8
11
  2
STDGX5
 10
653.23538717766223
 20
94.954658708768306
 30
0.0
  0
INSERT
  5
71A
  8
11
  2
STDGX5
 10
928.23538717766223
 20
151.23844223719129
 30
0.0
  0
INSERT
  5
71B
  8
11
  2
STDGX5
 10
928.23538717766223
 20
151.23844223719129
 30
0.0
  0
INSERT
  5
71C
  8
11
  2
STDGX5
 10
928.23538717766223
 20
151.23844223719129
 30
0.0
  0
INSERT
  5
71D
  8
11
  2
STDGX5
 10
928.23538717766223
 20
151.23844223719129
 30
0.0
  0
INSERT
  5
71E
  8
11
  2
STDGX5
 10
1172.4500101019
 20
308.08230144763002
 30
0.0
  0
INSERT
  5
71F
  8
11
  2
STDGX5
 10
1209.935108718116
 20
272.0823011710271
 30
0.0
  0
INSERT
  5
720
  8
11
  2
STDGX5
 10
1143.4842516565279
 20
239.73095020059961
 30
0.0
  0
INSERT
  5
721
  8
11
  2
STDGX5
 10
1292.733367120361
 20
387.46286353923398
 30
0.0
  0
INSERT
  5
722
  8
11
  2
STDGX5
 10
1330.2184657365769
 20
351.46286326263112
 30
0.0
  0
INSERT
  5
723
  8
11
  2
STDGX5
 10
1263.7676086749891
 20
319.1115122922036
 30
0.0
  0
INSERT
  5
724
  8
11
  2
STDGX5
 10
629.98316316564194
 20
151.6342171772433
 30
0.0
  0
INSERT
  5
725
  8
11
  2
STDGX5
 10
667.46826178185825
 20
115.6342169006403
 30
0.0
  0
INSERT
  5
726
  8
11
  2
STDGX5
 10
601.01740472026995
 20
83.282865930212893
 30
0.0
  0
INSERT
  5
727
  8
11
  2
STDGX5
 10
670.13390531892674
 20
151.27521732807691
 30
0.0
  0
INSERT
  5
728
  8
11
  2
STDGX5
 10
670.13390531892674
 20
151.27521732807691
 30
0.0
  0
INSERT
  5
729
  8
11
  2
STDGX5
 10
670.13390531892674
 20
151.27521732807691
 30
0.0
  0
INSERT
  5
72A
  8
11
  2
STDGX5
 10
670.13390531892674
 20
151.27521732807691
 30
0.0
  0
INSERT
  5
72B
  8
11
  2
STDGX5
 10
670.13390531892674
 20
151.27521732807691
 30
0.0
  0
INSERT
  5
72C
  8
11
  2
STDGX5
 10
945.13390531892674
 20
207.55900085649989
 30
0.0
  0
INSERT
  5
72D
  8
11
  2
STDGX5
 10
945.13390531892674
 20
207.55900085649989
 30
0.0
  0
INSERT
  5
72E
  8
11
  2
STDGX5
 10
945.13390531892674
 20
207.55900085649989
 30
0.0
  0
INSERT
  5
72F
  8
11
  2
STDGX5
 10
945.13390531892674
 20
207.55900085649989
 30
0.0
  0
INSERT
  5
730
  8
11
  2
STDGX5
 10
1189.3485282431641
 20
364.40286006693862
 30
0.0
  0
INSERT
  5
731
  8
11
  2
STDGX5
 10
1226.833626859381
 20
328.4028597903357
 30
0.0
  0
INSERT
  5
732
  8
11
  2
STDGX5
 10
1160.382769797792
 20
296.05150881990818
 30
0.0
  0
INSERT
  5
733
  8
11
  2
STDGX5
 10
1309.631885261625
 20
443.78342215854258
 30
0.0
  0
INSERT
  5
734
  8
11
  2
STDGX5
 10
1347.1169838778419
 20
407.78342188193972
 30
0.0
  0
INSERT
  5
735
  8
11
  2
STDGX5
 10
1280.6661268162529
 20
375.4320709115122
 30
0.0
  0
INSERT
  5
737
  8
0
  2
STDGX5
 10
194.11888657900539
 20
1.962264108487374
 30
0.0
  0
INSERT
  5
738
  8
0
  2
STDGX5
 10
194.11888657900539
 20
1.962264108487374
 30
0.0
  0
INSERT
  5
739
  8
0
  2
STDGX5
 10
469.11888657900539
 20
1.962264108487374
 30
0.0
  0
INSERT
  5
73A
  8
0
  2
STDGX5
 10
469.11888657900539
 20
1.962264108487374
 30
0.0
  0
INSERT
  5
73B
  8
0
  2
STDGX5
 10
194.11888657900539
 20
1.962264108487374
 30
0.0
 41
0.5
 42
0.5
 43
0.5
  0
INSERT
  5
73C
  8
0
  2
STDGX5
 10
194.11888657900539
 20
1.962264108487374
 30
0.0
 41
0.5
 42
0.5
 43
0.5
  0
INSERT
  5
73D
  8
0
  2
STDGX5
 10
331.6188865790055
 20
1.962264108487374
 30
0.0
 41
0.5
 42
0.5
 43
0.5
  0
INSERT
  5
73E
  8
0
  2
STDGX5
 10
331.6188865790055
 20
1.962264108487374
 30
0.0
 41
0.5
 42
0.5
 43
0.5
  0
INSERT
  5
73F
  8
0
  2
STDGX5
 10
194.11888657900539
 20
1.962264108487374
 30
0.0
  0
INSERT
  5
740
  8
0
  2
STDGX5
 10
194.11888657900539
 20
1.962264108487374
 30
0.0
  0
INSERT
  5
741
  8
0
  2
STDGX5
 10
469.11888657900539
 20
1.962264108487374
 30
0.0
  0
INSERT
  5
742
  8
0
  2
STDGX5
 10
469.11888657900539
 20
1.962264108487374
 30
0.0
  0
INSERT
  5
743
  8
0
  2
STDGX5
 10
194.11888657900539
 20
1.962264108487374
 30
0.0
 41
0.5
 42
0.5
 43
0.5
  0
INSERT
  5
744
  8
0
  2
STDGX5
 10
194.11888657900539
 20
1.962264108487374
 30
0.0
 41
0.5
 42
0.5
 43
0.5
  0
INSERT
  5
745
  8
0
  2
STDGX5
 10
331.6188865790055
 20
1.962264108487374
 30
0.0
 41
0.5
 42
0.5
 43
0.5
  0
INSERT
  5
746
  8
0
  2
STDGX5
 10
331.6188865790055
 20
1.962264108487374
 30
0.0
 41
0.5
 42
0.5
 43
0.5
  0
INSERT
  5
747
  8
0
  2
STDGX5
 10
194.11888657900539
 20
1.962264108487374
 30
0.0
  0
INSERT
  5
748
  8
0
  2
STDGX5
 10
194.11888657900539
 20
1.962264108487374
 30
0.0
  0
INSERT
  5
749
  8
0
  2
STDGX5
 10
469.11888657900539
 20
1.962264108487374
 30
0.0
  0
INSERT
  5
74A
  8
0
  2
STDGX5
 10
469.11888657900539
 20
1.962264108487374
 30
0.0
  0
INSERT
  5
74B
  8
0
  2
STDGX5
 10
194.11888657900539
 20
1.962264108487374
 30
0.0
 41
0.5
 42
0.5
 43
0.5
  0
INSERT
  5
74C
  8
0
  2
STDGX5
 10
194.11888657900539
 20
1.962264108487374
 30
0.0
 41
0.5
 42
0.5
 43
0.5
  0
INSERT
  5
74D
  8
0
  2
STDGX5
 10
331.6188865790055
 20
1.962264108487374
 30
0.0
 41
0.5
 42
0.5
 43
0.5
  0
INSERT
  5
74E
  8
0
  2
STDGX5
 10
331.6188865790055
 20
1.962264108487374
 30
0.0
 41
0.5
 42
0.5
 43
0.5
  0
INSERT
  5
74F
  8
0
  2
STDGX5
 10
194.11888657900539
 20
1.962264108487374
 30
0.0
 41
0.5
 42
0.5
 43
0.5
  0
INSERT
  5
750
  8
0
  2
STDGX5
 10
194.11888657900539
 20
1.962264108487374
 30
0.0
 41
0.5
 42
0.5
 43
0.5
  0
INSERT
  5
751
  8
0
  2
STDGX5
 10
331.6188865790055
 20
1.962264108487374
 30
0.0
 41
0.5
 42
0.5
 43
0.5
  0
INSERT
  5
752
  8
0
  2
STDGX5
 10
331.6188865790055
 20
1.962264108487374
 30
0.0
 41
0.5
 42
0.5
 43
0.5
  0
INSERT
  5
906
  8
0
  2
STDGX5
 10
0.0
 20
0.0
 30
0.0
 41
0.5
 42
0.5
 43
0.5
  0
INSERT
  5
907
  8
0
  2
STDGX5
 10
0.0
 20
0.0
 30
0.0
 41
0.5
 42
0.5
 43
0.5
  0
INSERT
  5
908
  8
0
  2
STDGX5
 10
137.5
 20
0.0
 30
0.0
 41
0.5
 42
0.5
 43
0.5
  0
INSERT
  5
909
  8
0
  2
STDGX5
 10
137.5
 20
0.0
 30
0.0
 41
0.5
 42
0.5
 43
0.5
  0
INSERT
  5
ECE
  8
11
  2
STDGX5
 10
226.71863030038301
 20
75.005467527876704
 30
0.0
  0
INSERT
  5
ECF
  8
11
  2
STDGX5
 10
264.2037289165994
 20
39.005467251273792
 30
0.0
  0
INSERT
  5
ED0
  8
11
  2
STDGX5
 10
197.75287185501099
 20
6.6541162808463241
 30
0.0
  0
INSERT
  5
ED1
  8
11
  2
STDGX5
 10
266.86937245366778
 20
74.646467678710337
 30
0.0
  0
INSERT
  5
ED2
  8
11
  2
STDGX5
 10
266.86937245366778
 20
74.646467678710337
 30
0.0
  0
INSERT
  5
ED3
  8
11
  2
STDGX5
 10
266.86937245366778
 20
74.646467678710337
 30
0.0
  0
INSERT
  5
ED4
  8
11
  2
STDGX5
 10
266.86937245366778
 20
74.646467678710337
 30
0.0
  0
INSERT
  5
ED5
  8
11
  2
STDGX5
 10
266.86937245366778
 20
74.646467678710337
 30
0.0
  0
INSERT
  5
ED6
  8
11
  2
STDGX5
 10
541.86937245366767
 20
130.9302512071333
 30
0.0
  0
INSERT
  5
ED7
  8
11
  2
STDGX5
 10
541.86937245366767
 20
130.9302512071333
 30
0.0
  0
INSERT
  5
ED8
  8
11
  2
STDGX5
 10
541.86937245366767
 20
130.9302512071333
 30
0.0
  0
INSERT
  5
ED9
  8
11
  2
STDGX5
 10
541.86937245366767
 20
130.9302512071333
 30
0.0
  0
INSERT
  5
EDA
  8
11
  2
STDGX5
 10
786.08399537790524
 20
287.77411041757199
 30
0.0
  0
INSERT
  5
EDB
  8
11
  2
STDGX5
 10
823.56909399412154
 20
251.7741101409691
 30
0.0
  0
INSERT
  5
EDC
  8
11
  2
STDGX5
 10
757.11823693253325
 20
219.4227591705417
 30
0.0
  0
INSERT
  5
EDD
  8
11
  2
STDGX5
 10
906.36735239636641
 20
367.15467250917612
 30
0.0
  0
INSERT
  5
EDE
  8
11
  2
STDGX5
 10
943.85245101258283
 20
331.15467223257309
 30
0.0
  0
INSERT
  5
EDF
  8
11
  2
STDGX5
 10
877.40159395099431
 20
298.80332126214569
 30
0.0
  0
INSERT
  5
EE0
  8
11
  2
STDGX5
 10
616.71863030038298
 20
100.00551073029359
 30
0.0
  0
INSERT
  5
EE1
  8
11
  2
STDGX5
 10
654.20372891659929
 20
64.005510453690704
 30
0.0
  0
INSERT
  5
EE2
  8
11
  2
STDGX5
 10
587.75287185501088
 20
31.654159483263239
 30
0.0
  0
INSERT
  5
EE3
  8
11
  2
STDGX5
 10
656.86937245366778
 20
99.646510881127256
 30
0.0
  0
INSERT
  5
EE4
  8
11
  2
STDGX5
 10
656.86937245366778
 20
99.646510881127256
 30
0.0
  0
INSERT
  5
EE5
  8
11
  2
STDGX5
 10
656.86937245366778
 20
99.646510881127256
 30
0.0
  0
INSERT
  5
EE6
  8
11
  2
STDGX5
 10
656.86937245366778
 20
99.646510881127256
 30
0.0
  0
INSERT
  5
EE7
  8
11
  2
STDGX5
 10
656.86937245366778
 20
99.646510881127256
 30
0.0
  0
INSERT
  5
EE8
  8
11
  2
STDGX5
 10
931.86937245366767
 20
155.93029440955021
 30
0.0
  0
INSERT
  5
EE9
  8
11
  2
STDGX5
 10
931.86937245366767
 20
155.93029440955021
 30
0.0
  0
INSERT
  5
EEA
  8
11
  2
STDGX5
 10
931.86937245366767
 20
155.93029440955021
 30
0.0
  0
INSERT
  5
EEB
  8
11
  2
STDGX5
 10
931.86937245366767
 20
155.93029440955021
 30
0.0
  0
INSERT
  5
EEC
  8
11
  2
STDGX5
 10
1176.083995377905
 20
312.77415361998902
 30
0.0
  0
INSERT
  5
EED
  8
11
  2
STDGX5
 10
1213.569093994121
 20
276.7741533433861
 30
0.0
  0
INSERT
  5
EEE
  8
11
  2
STDGX5
 10
1147.1182369325329
 20
244.42280237295861
 30
0.0
  0
INSERT
  5
EEF
  8
11
  2
STDGX5
 10
1296.3673523963671
 20
392.15471571159298
 30
0.0
  0
INSERT
  5
EF0
  8
11
  2
STDGX5
 10
1333.8524510125831
 20
356.15471543499012
 30
0.0
  0
INSERT
  5
EF1
  8
11
  2
STDGX5
 10
1267.4015939509941
 20
323.80336446456261
 30
0.0
  0
INSERT
  5
EF2
  8
11
  2
STDGX5
 10
633.61714844164749
 20
156.32606934960219
 30
0.0
  0
INSERT
  5
EF3
  8
11
  2
STDGX5
 10
671.10224705786379
 20
120.3260690729993
 30
0.0
  0
INSERT
  5
EF4
  8
11
  2
STDGX5
 10
604.6513899962755
 20
87.974718102571828
 30
0.0
  0
INSERT
  5
EF5
  8
11
  2
STDGX5
 10
673.76789059493228
 20
155.9670695004358
 30
0.0
  0
INSERT
  5
EF6
  8
11
  2
STDGX5
 10
673.76789059493228
 20
155.9670695004358
 30
0.0
  0
INSERT
  5
EF7
  8
11
  2
STDGX5
 10
673.76789059493228
 20
155.9670695004358
 30
0.0
  0
INSERT
  5
EF8
  8
11
  2
STDGX5
 10
673.76789059493228
 20
155.9670695004358
 30
0.0
  0
INSERT
  5
EF9
  8
11
  2
STDGX5
 10
673.76789059493228
 20
155.9670695004358
 30
0.0
  0
INSERT
  5
EFA
  8
11
  2
STDGX5
 10
948.76789059493228
 20
212.25085302885881
 30
0.0
  0
INSERT
  5
EFB
  8
11
  2
STDGX5
 10
948.76789059493228
 20
212.25085302885881
 30
0.0
  0
INSERT
  5
EFC
  8
11
  2
STDGX5
 10
948.76789059493228
 20
212.25085302885881
 30
0.0
  0
INSERT
  5
EFD
  8
11
  2
STDGX5
 10
948.76789059493228
 20
212.25085302885881
 30
0.0
  0
INSERT
  5
EFE
  8
11
  2
STDGX5
 10
1192.98251351917
 20
369.09471223929762
 30
0.0
  0
INSERT
  5
EFF
  8
11
  2
STDGX5
 10
1230.4676121353859
 20
333.0947119626947
 30
0.0
  0
INSERT
  5
F00
  8
11
  2
STDGX5
 10
1164.0167550737981
 20
300.74336099226718
 30
0.0
  0
INSERT
  5
F01
  8
11
  2
STDGX5
 10
1313.2658705376309
 20
448.47527433090153
 30
0.0
  0
INSERT
  5
F02
  8
11
  2
STDGX5
 10
1350.7509691538471
 20
412.47527405429861
 30
0.0
  0
INSERT
  5
F03
  8
11
  2
STDGX5
 10
1284.300112092259
 20
380.1239230838712
 30
0.0
  0
INSERT
  5
F05
  8
0
  2
STDGX5
 10
197.75287185501099
 20
6.6541162808463241
 30
0.0
  0
INSERT
  5
F06
  8
0
  2
STDGX5
 10
197.75287185501099
 20
6.6541162808463241
 30
0.0
  0
INSERT
  5
F07
  8
0
  2
STDGX5
 10
472.75287185501099
 20
6.6541162808463241
 30
0.0
  0
INSERT
  5
F08
  8
0
  2
STDGX5
 10
472.75287185501099
 20
6.6541162808463241
 30
0.0
  0
INSERT
  5
F09
  8
0
  2
STDGX5
 10
197.75287185501099
 20
6.6541162808463241
 30
0.0
 41
0.5
 42
0.5
 43
0.5
  0
INSERT
  5
F0A
  8
0
  2
STDGX5
 10
197.75287185501099
 20
6.6541162808463241
 30
0.0
 41
0.5
 42
0.5
 43
0.5
  0
INSERT
  5
F0B
  8
0
  2
STDGX5
 10
335.25287185501099
 20
6.6541162808463241
 30
0.0
 41
0.5
 42
0.5
 43
0.5
  0
INSERT
  5
F0C
  8
0
  2
STDGX5
 10
335.25287185501099
 20
6.6541162808463241
 30
0.0
 41
0.5
 42
0.5
 43
0.5
  0
INSERT
  5
F0D
  8
0
  2
STDGX5
 10
197.75287185501099
 20
6.6541162808463241
 30
0.0
  0
INSERT
  5
F0E
  8
0
  2
STDGX5
 10
197.75287185501099
 20
6.6541162808463241
 30
0.0
  0
INSERT
  5
F0F
  8
0
  2
STDGX5
 10
472.75287185501099
 20
6.6541162808463241
 30
0.0
  0
INSERT
  5
F10
  8
0
  2
STDGX5
 10
472.75287185501099
 20
6.6541162808463241
 30
0.0
  0
INSERT
  5
F11
  8
0
  2
STDGX5
 10
197.75287185501099
 20
6.6541162808463241
 30
0.0
 41
0.5
 42
0.5
 43
0.5
  0
INSERT
  5
F12
  8
0
  2
STDGX5
 10
197.75287185501099
 20
6.6541162808463241
 30
0.0
 41
0.5
 42
0.5
 43
0.5
  0
INSERT
  5
F13
  8
0
  2
STDGX5
 10
335.25287185501099
 20
6.6541162808463241
 30
0.0
 41
0.5
 42
0.5
 43
0.5
  0
INSERT
  5
F14
  8
0
  2
STDGX5
 10
335.25287185501099
 20
6.6541162808463241
 30
0.0
 41
0.5
 42
0.5
 43
0.5
  0
INSERT
  5
F15
  8
0
  2
STDGX5
 10
197.75287185501099
 20
6.6541162808463241
 30
0.0
  0
INSERT
  5
F16
  8
0
  2
STDGX5
 10
197.75287185501099
 20
6.6541162808463241
 30
0.0
  0
INSERT
  5
F17
  8
0
  2
STDGX5
 10
472.75287185501099
 20
6.6541162808463241
 30
0.0
  0
INSERT
  5
F18
  8
0
  2
STDGX5
 10
472.75287185501099
 20
6.6541162808463241
 30
0.0
  0
INSERT
  5
F19
  8
0
  2
STDGX5
 10
197.75287185501099
 20
6.6541162808463241
 30
0.0
 41
0.5
 42
0.5
 43
0.5
  0
INSERT
  5
F1A
  8
0
  2
STDGX5
 10
197.75287185501099
 20
6.6541162808463241
 30
0.0
 41
0.5
 42
0.5
 43
0.5
  0
INSERT
  5
F1B
  8
0
  2
STDGX5
 10
335.25287185501099
 20
6.6541162808463241
 30
0.0
 41
0.5
 42
0.5
 43
0.5
  0
INSERT
  5
F1C
  8
0
  2
STDGX5
 10
335.25287185501099
 20
6.6541162808463241
 30
0.0
 41
0.5
 42
0.5
 43
0.5
  0
INSERT
  5
F1D
  8
0
  2
STDGX5
 10
197.75287185501099
 20
6.6541162808463241
 30
0.0
 41
0.5
 42
0.5
 43
0.5
  0
INSERT
  5
F1E
  8
0
  2
STDGX5
 10
197.75287185501099
 20
6.6541162808463241
 30
0.0
 41
0.5
 42
0.5
 43
0.5
  0
INSERT
  5
F1F
  8
0
  2
STDGX5
 10
335.25287185501099
 20
6.6541162808463241
 30
0.0
 41
0.5
 42
0.5
 43
0.5
  0
INSERT
  5
F20
  8
0
  2
STDGX5
 10
335.25287185501099
 20
6.6541162808463241
 30
0.0
 41
0.5
 42
0.5
 43
0.5
  0
CIRCLE
  5
100D
  8
0
 10
145.4576422241129
 20
70.0
 30
0.0
 40
7.9999999999999707
  0
CIRCLE
  5
100E
  8
0
 10
145.4576422241129
 20
70.0
 30
0.0
 40
7.600000000000108
  0
CIRCLE
  5
100F
  8
0
 10
145.4576422241129
 20
70.0
 30
0.0
 40
3.9999999999999711
  0
CIRCLE
  5
1010
  8
0
 10
145.4576422241129
 20
70.0
 30
0.0
 40
3.599999999999965
  0
CIRCLE
  5
101A
  8
0
 10
145.4576422241129
 20
70.0
 30
0.0
 40
1.649999999999999
  0
CIRCLE
  5
101B
  8
3
 10
145.4576422241129
 20
70.0
 30
0.0
 40
2.0
  0
CIRCLE
  5
1020
  8
0
 10
45.957642224112853
 20
70.0
 30
0.0
 40
7.5999999999999943
  0
CIRCLE
  5
1021
  8
0
 10
45.957642224112853
 20
70.0
 30
0.0
 40
7.9999999999999707
  0
INSERT
  5
1647
  8
11
  2
STDGX5
 10
221.9996955094725
 20
73.237294939822959
 30
0.0
  0
INSERT
  5
1648
  8
11
  2
STDGX5
 10
259.48479412568889
 20
37.237294663220041
 30
0.0
  0
INSERT
  5
1649
  8
11
  2
STDGX5
 10
193.03393706410051
 20
4.885943692792579
 30
0.0
  0
INSERT
  5
164A
  8
11
  2
STDGX5
 10
262.15043766275733
 20
72.878295090656593
 30
0.0
  0
INSERT
  5
164B
  8
11
  2
STDGX5
 10
262.15043766275733
 20
72.878295090656593
 30
0.0
  0
INSERT
  5
164C
  8
11
  2
STDGX5
 10
262.15043766275733
 20
72.878295090656593
 30
0.0
  0
INSERT
  5
164D
  8
11
  2
STDGX5
 10
262.15043766275733
 20
72.878295090656593
 30
0.0
  0
INSERT
  5
164E
  8
11
  2
STDGX5
 10
262.15043766275733
 20
72.878295090656593
 30
0.0
  0
INSERT
  5
164F
  8
11
  2
STDGX5
 10
537.15043766275733
 20
129.16207861907961
 30
0.0
  0
INSERT
  5
1650
  8
11
  2
STDGX5
 10
537.15043766275733
 20
129.16207861907961
 30
0.0
  0
INSERT
  5
1651
  8
11
  2
STDGX5
 10
537.15043766275733
 20
129.16207861907961
 30
0.0
  0
INSERT
  5
1652
  8
11
  2
STDGX5
 10
537.15043766275733
 20
129.16207861907961
 30
0.0
  0
INSERT
  5
1653
  8
11
  2
STDGX5
 10
781.36506058699467
 20
286.0059378295183
 30
0.0
  0
INSERT
  5
1654
  8
11
  2
STDGX5
 10
818.85015920321121
 20
250.00593755291541
 30
0.0
  0
INSERT
  5
1655
  8
11
  2
STDGX5
 10
752.39930214162268
 20
217.65458658248789
 30
0.0
  0
INSERT
  5
1656
  8
11
  2
STDGX5
 10
901.64841760545585
 20
365.38649992112232
 30
0.0
  0
INSERT
  5
1657
  8
11
  2
STDGX5
 10
939.13351622167227
 20
329.3864996445194
 30
0.0
  0
INSERT
  5
1658
  8
11
  2
STDGX5
 10
872.68265916008397
 20
297.035148674092
 30
0.0
  0
INSERT
  5
1659
  8
11
  2
STDGX5
 10
611.99969550947253
 20
98.237338142239878
 30
0.0
  0
INSERT
  5
165A
  8
11
  2
STDGX5
 10
649.48479412568895
 20
62.23733786563696
 30
0.0
  0
INSERT
  5
165B
  8
11
  2
STDGX5
 10
583.03393706410054
 20
29.885986895209498
 30
0.0
  0
INSERT
  5
165C
  8
11
  2
STDGX5
 10
652.15043766275733
 20
97.878338293073526
 30
0.0
  0
INSERT
  5
165D
  8
11
  2
STDGX5
 10
652.15043766275733
 20
97.878338293073526
 30
0.0
  0
INSERT
  5
165E
  8
11
  2
STDGX5
 10
652.15043766275733
 20
97.878338293073526
 30
0.0
  0
INSERT
  5
165F
  8
11
  2
STDGX5
 10
652.15043766275733
 20
97.878338293073526
 30
0.0
  0
INSERT
  5
1660
  8
11
  2
STDGX5
 10
652.15043766275733
 20
97.878338293073526
 30
0.0
  0
INSERT
  5
1661
  8
11
  2
STDGX5
 10
927.15043766275733
 20
154.1621218214965
 30
0.0
  0
INSERT
  5
1662
  8
11
  2
STDGX5
 10
927.15043766275733
 20
154.1621218214965
 30
0.0
  0
INSERT
  5
1663
  8
11
  2
STDGX5
 10
927.15043766275733
 20
154.1621218214965
 30
0.0
  0
INSERT
  5
1664
  8
11
  2
STDGX5
 10
927.15043766275733
 20
154.1621218214965
 30
0.0
  0
INSERT
  5
1665
  8
11
  2
STDGX5
 10
1171.3650605869941
 20
311.00598103193522
 30
0.0
  0
INSERT
  5
1666
  8
11
  2
STDGX5
 10
1208.850159203211
 20
275.0059807553323
 30
0.0
  0
INSERT
  5
1667
  8
11
  2
STDGX5
 10
1142.399302141622
 20
242.6546297849049
 30
0.0
  0
INSERT
  5
1668
  8
11
  2
STDGX5
 10
1291.648417605456
 20
390.38654312353918
 30
0.0
  0
INSERT
  5
1669
  8
11
  2
STDGX5
 10
1329.1335162216719
 20
354.38654284693632
 30
0.0
  0
INSERT
  5
166A
  8
11
  2
STDGX5
 10
1262.6826591600841
 20
322.03519187650892
 30
0.0
  0
INSERT
  5
166B
  8
11
  2
STDGX5
 10
628.89821365073703
 20
154.55789676154839
 30
0.0
  0
INSERT
  5
166C
  8
11
  2
STDGX5
 10
666.38331226695345
 20
118.5578964849455
 30
0.0
  0
INSERT
  5
166D
  8
11
  2
STDGX5
 10
599.93245520536505
 20
86.206545514518098
 30
0.0
  0
INSERT
  5
166E
  8
11
  2
STDGX5
 10
669.04895580402183
 20
154.19889691238211
 30
0.0
  0
INSERT
  5
166F
  8
11
  2
STDGX5
 10
669.04895580402183
 20
154.19889691238211
 30
0.0
  0
INSERT
  5
1670
  8
11
  2
STDGX5
 10
669.04895580402183
 20
154.19889691238211
 30
0.0
  0
INSERT
  5
1671
  8
11
  2
STDGX5
 10
669.04895580402183
 20
154.19889691238211
 30
0.0
  0
INSERT
  5
1672
  8
11
  2
STDGX5
 10
669.04895580402183
 20
154.19889691238211
 30
0.0
  0
INSERT
  5
1673
  8
11
  2
STDGX5
 10
944.04895580402172
 20
210.4826804408051
 30
0.0
  0
INSERT
  5
1674
  8
11
  2
STDGX5
 10
944.04895580402172
 20
210.4826804408051
 30
0.0
  0
INSERT
  5
1675
  8
11
  2
STDGX5
 10
944.04895580402172
 20
210.4826804408051
 30
0.0
  0
INSERT
  5
1676
  8
11
  2
STDGX5
 10
944.04895580402172
 20
210.4826804408051
 30
0.0
  0
INSERT
  5
1677
  8
11
  2
STDGX5
 10
1188.2635787282591
 20
367.32653965124382
 30
0.0
  0
INSERT
  5
1678
  8
11
  2
STDGX5
 10
1225.7486773444759
 20
331.3265393746409
 30
0.0
  0
INSERT
  5
1679
  8
11
  2
STDGX5
 10
1159.297820282887
 20
298.9751884042135
 30
0.0
  0
INSERT
  5
167A
  8
11
  2
STDGX5
 10
1308.54693574672
 20
446.70710174284778
 30
0.0
  0
INSERT
  5
167B
  8
11
  2
STDGX5
 10
1346.0320343629371
 20
410.70710146624492
 30
0.0
  0
INSERT
  5
167C
  8
11
  2
STDGX5
 10
1279.5811773013479
 20
378.35575049581752
 30
0.0
  0
INSERT
  5
167E
  8
0
  2
STDGX5
 10
193.03393706410051
 20
4.885943692792579
 30
0.0
  0
INSERT
  5
167F
  8
0
  2
STDGX5
 10
193.03393706410051
 20
4.885943692792579
 30
0.0
  0
INSERT
  5
1680
  8
0
  2
STDGX5
 10
468.03393706410048
 20
4.885943692792579
 30
0.0
  0
INSERT
  5
1681
  8
0
  2
STDGX5
 10
468.03393706410048
 20
4.885943692792579
 30
0.0
  0
INSERT
  5
1682
  8
0
  2
STDGX5
 10
193.03393706410051
 20
4.885943692792579
 30
0.0
 41
0.5
 42
0.5
 43
0.5
  0
INSERT
  5
1683
  8
0
  2
STDGX5
 10
193.03393706410051
 20
4.885943692792579
 30
0.0
 41
0.5
 42
0.5
 43
0.5
  0
INSERT
  5
1684
  8
0
  2
STDGX5
 10
330.53393706410048
 20
4.885943692792579
 30
0.0
 41
0.5
 42
0.5
 43
0.5
  0
INSERT
  5
1685
  8
0
  2
STDGX5
 10
330.53393706410048
 20
4.885943692792579
 30
0.0
 41
0.5
 42
0.5
 43
0.5
  0
INSERT
  5
1686
  8
0
  2
STDGX5
 10
193.03393706410051
 20
4.885943692792579
 30
0.0
  0
INSERT
  5
1687
  8
0
  2
STDGX5
 10
193.03393706410051
 20
4.885943692792579
 30
0.0
  0
INSERT
  5
1688
  8
0
  2
STDGX5
 10
468.03393706410048
 20
4.885943692792579
 30
0.0
  0
INSERT
  5
1689
  8
0
  2
STDGX5
 10
468.03393706410048
 20
4.885943692792579
 30
0.0
  0
INSERT
  5
168A
  8
0
  2
STDGX5
 10
193.03393706410051
 20
4.885943692792579
 30
0.0
 41
0.5
 42
0.5
 43
0.5
  0
INSERT
  5
168B
  8
0
  2
STDGX5
 10
193.03393706410051
 20
4.885943692792579
 30
0.0
 41
0.5
 42
0.5
 43
0.5
  0
INSERT
  5
168C
  8
0
  2
STDGX5
 10
330.53393706410048
 20
4.885943692792579
 30
0.0
 41
0.5
 42
0.5
 43
0.5
  0
INSERT
  5
168D
  8
0
  2
STDGX5
 10
330.53393706410048
 20
4.885943692792579
 30
0.0
 41
0.5
 42
0.5
 43
0.5
  0
INSERT
  5
168E
  8
0
  2
STDGX5
 10
193.03393706410051
 20
4.885943692792579
 30
0.0
  0
INSERT
  5
168F
  8
0
  2
STDGX5
 10
193.03393706410051
 20
4.885943692792579
 30
0.0
  0
INSERT
  5
1690
  8
0
  2
STDGX5
 10
468.03393706410048
 20
4.885943692792579
 30
0.0
  0
INSERT
  5
1691
  8
0
  2
STDGX5
 10
468.03393706410048
 20
4.885943692792579
 30
0.0
  0
INSERT
  5
1692
  8
0
  2
STDGX5
 10
193.03393706410051
 20
4.885943692792579
 30
0.0
 41
0.5
 42
0.5
 43
0.5
  0
INSERT
  5
1693
  8
0
  2
STDGX5
 10
193.03393706410051
 20
4.885943692792579
 30
0.0
 41
0.5
 42
0.5
 43
0.5
  0
INSERT
  5
1694
  8
0
  2
STDGX5
 10
330.53393706410048
 20
4.885943692792579
 30
0.0
 41
0.5
 42
0.5
 43
0.5
  0
INSERT
  5
1695
  8
0
  2
STDGX5
 10
330.53393706410048
 20
4.885943692792579
 30
0.0
 41
0.5
 42
0.5
 43
0.5
  0
INSERT
  5
1696
  8
0
  2
STDGX5
 10
193.03393706410051
 20
4.885943692792579
 30
0.0
 41
0.5
 42
0.5
 43
0.5
  0
INSERT
  5
1697
  8
0
  2
STDGX5
 10
193.03393706410051
 20
4.885943692792579
 30
0.0
 41
0.5
 42
0.5
 43
0.5
  0
INSERT
  5
1698
  8
0
  2
STDGX5
 10
330.53393706410048
 20
4.885943692792579
 30
0.0
 41
0.5
 42
0.5
 43
0.5
  0
INSERT
  5
1699
  8
0
  2
STDGX5
 10
330.53393706410048
 20
4.885943692792579
 30
0.0
 41
0.5
 42
0.5
 43
0.5
  0
LINE
  5
1787
  8
0
 10
107.2576422241128
 20
112.00000383601839
 30
0.0
 11
107.2576422241128
 21
108.00000383601839
 31
0.0
  0
LINE
  5
1788
  8
0
 10
107.9576422241129
 20
108.7000038360184
 30
0.0
 11
107.9576422241129
 21
111.3000038360184
 31
0.0
  0
LINE
  5
1789
  8
0
 10
94.291610176149476
 20
111.4999999999999
 30
0.0
 11
94.291610176149575
 21
108.4999999999999
 31
0.0
  0
LINE
  5
178A
  8
0
 10
95.157642224112834
 20
108.00000383601849
 30
0.0
 11
95.157642224112834
 21
112.00000383601849
 31
0.0
  0
LINE
  5
178B
  8
0
 10
92.957642224112774
 20
106.40000000000001
 30
0.0
 11
92.957642224112917
 21
113.59999999999989
 31
0.0
  0
LINE
  5
178C
  8
0
 10
92.557642224112811
 20
113.9999999999999
 30
0.0
 11
92.557642224112811
 21
106.0
 31
0.0
  0
LINE
  5
178D
  8
0
 10
83.457642224112874
 20
102.40000000000001
 30
0.0
 11
83.457642224112874
 21
117.59999999999999
 31
0.0
  0
LINE
  5
178E
  8
0
 10
86.957642224112874
 20
102.40000000000001
 30
0.0
 11
86.957642224112817
 21
117.60000000000009
 31
0.0
  0
LINE
  5
178F
  8
0
 10
83.857642224112851
 20
117.9999999999999
 30
0.0
 11
83.857642224112851
 21
102.0
 31
0.0
  0
LINE
  5
1790
  8
0
 10
86.557642224112826
 20
102.0
 30
0.0
 11
86.557642224112826
 21
117.9999999999999
 31
0.0
  0
LINE
  5
1791
  8
0
 10
87.457642224112874
 20
105.9999999999999
 30
0.0
 11
92.557642224112811
 21
106.0
 31
0.0
  0
LINE
  5
1792
  8
3
 10
83.857642224112851
 20
103.8358940577936
 30
0.0
 11
86.557642224112783
 21
103.8358940577936
 31
0.0
  0
LINE
  5
1793
  8
0
 10
83.857642224112851
 20
102.0
 30
0.0
 11
86.557642224112826
 21
102.0
 31
0.0
  0
LINE
  5
1794
  8
3
 10
83.857642224112908
 20
102.1417019941704
 30
0.0
 11
86.557642224112826
 21
102.1417019941705
 31
0.0
  0
LINE
  5
1795
  8
3
 10
83.857642224112851
 20
102.3915478696387
 30
0.0
 11
86.557642224112826
 21
102.3915478696387
 31
0.0
  0
LINE
  5
1796
  8
3
 10
83.857642224112908
 20
102.7613835802717
 30
0.0
 11
86.557642224112826
 21
102.7613835802718
 31
0.0
  0
LINE
  5
1797
  8
3
 10
83.857642224112851
 20
103.2453765959839
 30
0.0
 11
86.557642224112826
 21
103.2453765959839
 31
0.0
  0
LINE
  5
1798
  8
0
 10
83.457642224112874
 20
102.40000000000001
 30
0.0
 11
83.857642224112851
 21
102.0
 31
0.0
  0
LINE
  5
1799
  8
0
 10
86.557642224112826
 20
102.0
 30
0.0
 11
86.957642224112874
 21
102.40000000000001
 31
0.0
  0
LINE
  5
179A
  8
3
 10
83.857642224112851
 20
105.2977179816602
 30
0.0
 11
86.557642224112826
 21
105.2977179816602
 31
0.0
  0
LINE
  5
179B
  8
3
 10
83.857642224112851
 20
106.1459706071863
 30
0.0
 11
86.557642224112826
 21
106.1459706071863
 31
0.0
  0
LINE
  5
179C
  8
3
 10
83.857642224112851
 20
104.52362315257039
 30
0.0
 11
86.557642224112897
 21
104.52362315257039
 31
0.0
  0
LINE
  5
179D
  8
0
 10
87.457642224112874
 20
105.9999999999999
 30
0.0
 11
87.457642224112817
 21
106.0
 31
0.0
  0
ARC
  5
179E
  8
0
 10
87.457642224112874
 20
105.4999999999999
 30
0.0
 40
0.5
 50
89.999999999996746
 51
180.0
  0
LINE
  5
179F
  8
3
 10
83.857642224112851
 20
107.0550035785225
 30
0.0
 11
86.557642224112826
 21
107.0550035785225
 31
0.0
  0
LINE
  5
17A0
  8
3
 10
83.857642224112851
 20
108.0104809026811
 30
0.0
 11
86.557642224112826
 21
108.0104809026811
 31
0.0
  0
LINE
  5
17A1
  8
3
 10
83.857642224112851
 20
108.9973341314855
 30
0.0
 11
86.557642224112826
 21
108.9973341314855
 31
0.0
  0
LINE
  5
17A2
  8
3
 10
94.464815256906405
 20
108.40000000000001
 30
0.0
 11
107.6576383880945
 21
108.40000000000001
 31
0.0
1001
_CALL_MAC$
1000
040M4
  0
LINE
  5
17A3
  8
0
 10
95.157628935755071
 20
108.00000383601849
 30
0.0
 11
107.2576422241128
 21
108.00000383601829
 31
0.0
  0
LINE
  5
17A4
  8
0
 10
94.291610176149575
 20
108.5
 30
0.0
 11
95.157628935755071
 21
108.00000383601839
 31
0.0
  0
LINE
  5
17A5
  8
0
 10
92.957642224112917
 20
106.40000000000001
 30
0.0
 11
92.557642224112811
 21
106.0
 31
0.0
  0
ARC
  5
17A6
  8
0
 10
93.35764222411288
 20
108.09999999999999
 30
0.0
 40
0.4
 50
89.999999999998764
 51
180.0
  0
LINE
  5
17A7
  8
0
 10
93.35764222411288
 20
108.5
 30
0.0
 11
94.291610176149476
 21
108.4999999999999
 31
0.0
  0
LINE
  5
17A8
  8
0
 10
107.9576422241129
 20
108.7000038360184
 30
0.0
 11
107.2576422241128
 21
108.00000383601839
 31
0.0
  0
LINE
  5
17A9
  8
0
 10
87.457642224112874
 20
113.9999999999999
 30
0.0
 11
92.557642224112811
 21
113.9999999999999
 31
0.0
  0
LINE
  5
17AA
  8
1
 10
80.957642224112874
 20
110.0
 30
0.0
 11
110.4576422241129
 21
110.0
 31
0.0
  0
LINE
  5
17AB
  8
3
 10
83.857642224112851
 20
110.0
 30
0.0
 11
86.557642224112826
 21
110.0
 31
0.0
  0
LINE
  5
17AC
  8
3
 10
83.857642224112851
 20
111.98951909731881
 30
0.0
 11
86.557642224112826
 21
111.98951909731881
 31
0.0
  0
LINE
  5
17AD
  8
3
 10
83.857642224112851
 20
111.0026658685145
 30
0.0
 11
86.557642224112826
 21
111.0026658685145
 31
0.0
  0
LINE
  5
17AE
  8
3
 10
83.857642224112851
 20
112.9449964214774
 30
0.0
 11
86.557642224112826
 21
112.9449964214774
 31
0.0
  0
LINE
  5
17AF
  8
3
 10
83.857642224112851
 20
113.8540293928137
 30
0.0
 11
86.557642224112826
 21
113.8540293928137
 31
0.0
  0
LINE
  5
17B0
  8
3
 10
83.857642224112851
 20
114.7022820183398
 30
0.0
 11
86.557642224112826
 21
114.7022820183398
 31
0.0
  0
LINE
  5
17B1
  8
0
 10
87.457642224112874
 20
114.0
 30
0.0
 11
87.457642224112817
 21
114.0
 31
0.0
  0
ARC
  5
17B2
  8
0
 10
87.457642224112874
 20
114.5
 30
0.0
 40
0.5
 50
180.0
 51
270.0
  0
LINE
  5
17B3
  8
0
 10
86.557642224112826
 20
117.9999999999999
 30
0.0
 11
86.957642224112874
 21
117.59999999999999
 31
0.0
  0
LINE
  5
17B4
  8
0
 10
83.857642224112851
 20
117.9999999999999
 30
0.0
 11
83.457642224112874
 21
117.59999999999999
 31
0.0
  0
LINE
  5
17B5
  8
3
 10
83.857642224112851
 20
115.47637684742951
 30
0.0
 11
86.557642224112897
 21
115.47637684742951
 31
0.0
  0
LINE
  5
17B6
  8
3
 10
83.857642224112851
 20
116.16410594220631
 30
0.0
 11
86.557642224112783
 21
116.16410594220631
 31
0.0
  0
LINE
  5
17B7
  8
3
 10
83.857642224112851
 20
116.7546234040161
 30
0.0
 11
86.557642224112826
 21
116.7546234040161
 31
0.0
  0
LINE
  5
17B8
  8
3
 10
83.857642224112908
 20
117.2386164197282
 30
0.0
 11
86.557642224112826
 21
117.2386164197282
 31
0.0
  0
LINE
  5
17B9
  8
3
 10
83.857642224112851
 20
117.6084521303613
 30
0.0
 11
86.557642224112826
 21
117.6084521303613
 31
0.0
  0
LINE
  5
17BA
  8
3
 10
83.857642224112908
 20
117.8582980058296
 30
0.0
 11
86.557642224112826
 21
117.8582980058294
 31
0.0
  0
LINE
  5
17BB
  8
0
 10
83.857642224112851
 20
117.9999999999999
 30
0.0
 11
86.557642224112826
 21
117.9999999999999
 31
0.0
  0
LINE
  5
17BC
  8
3
 10
94.464815256906519
 20
111.59999999999999
 30
0.0
 11
107.6576460601312
 21
111.59999999999999
 31
0.0
1001
_CALL_MAC$
1000
040M4
  0
LINE
  5
17BD
  8
0
 10
107.257642224113
 20
112.00000383601829
 30
0.0
 11
95.157642224112948
 21
112.00000383601839
 31
0.0
  0
LINE
  5
17BE
  8
0
 10
94.291610176149575
 20
111.5
 30
0.0
 11
95.157642224112905
 21
112.00000383601849
 31
0.0
  0
ARC
  5
17BF
  8
0
 10
93.35764222411288
 20
111.90000000000001
 30
0.0
 40
0.4
 50
180.0
 51
269.99999999999881
  0
LINE
  5
17C0
  8
0
 10
93.35764222411288
 20
111.5
 30
0.0
 11
94.291610176149476
 21
111.4999999999999
 31
0.0
  0
LINE
  5
17C1
  8
0
 10
92.557642224112811
 20
113.9999999999999
 30
0.0
 11
92.957642224112917
 21
113.59999999999989
 31
0.0
  0
LINE
  5
17C2
  8
0
 10
107.2576422241128
 20
112.00000383601839
 30
0.0
 11
107.9576422241129
 21
111.3000038360184
 31
0.0
  0
LINE
  5
1805
  8
0
 10
93.35764222411288
 20
68.5
 30
0.0
 11
94.291610176149476
 21
68.499999999999972
 31
0.0
  0
LINE
  5
1806
  8
0
 10
93.35764222411288
 20
71.5
 30
0.0
 11
94.291610176149476
 21
71.499999999999972
 31
0.0
  0
LINE
  5
1807
  8
1
 10
80.957642224112874
 20
70.0
 30
0.0
 11
110.4576422241129
 21
70.0
 31
0.0
  0
LINE
  5
1808
  8
0
 10
86.957642224112874
 20
62.400000000000013
 30
0.0
 11
86.957642224112817
 21
77.600000000000108
 31
0.0
  0
LINE
  5
1809
  8
0
 10
86.557642224112826
 20
62.0
 30
0.0
 11
86.557642224112826
 21
77.999999999999972
 31
0.0
  0
LINE
  5
180A
  8
0
 10
92.957642224112774
 20
66.399999999999963
 30
0.0
 11
92.957642224112917
 21
73.599999999999966
 31
0.0
  0
LINE
  5
180B
  8
0
 10
92.557642224112811
 20
73.999999999999972
 30
0.0
 11
92.557642224112811
 21
66.0
 31
0.0
  0
LINE
  5
180C
  8
0
 10
83.457642224112874
 20
62.399999999999977
 30
0.0
 11
83.457642224112874
 21
77.599999999999994
 31
0.0
  0
LINE
  5
180D
  8
0
 10
83.857642224112851
 20
77.999999999999972
 30
0.0
 11
83.857642224112851
 21
61.999999999999972
 31
0.0
  0
LINE
  5
180E
  8
0
 10
86.557642224112826
 20
62.0
 30
0.0
 11
86.957642224112874
 21
62.400000000000013
 31
0.0
  0
LINE
  5
180F
  8
0
 10
83.457642224112874
 20
62.399999999999977
 30
0.0
 11
83.857642224112851
 21
61.999999999999972
 31
0.0
  0
LINE
  5
1810
  8
0
 10
83.857642224112851
 20
61.999999999999972
 30
0.0
 11
86.557642224112826
 21
62.0
 31
0.0
  0
LINE
  5
1811
  8
3
 10
83.857642224112851
 20
71.002665868514498
 30
0.0
 11
86.557642224112826
 21
71.002665868514498
 31
0.0
  0
LINE
  5
1812
  8
3
 10
83.857642224112851
 20
71.989519097318833
 30
0.0
 11
86.557642224112826
 21
71.989519097318833
 31
0.0
  0
LINE
  5
1813
  8
3
 10
83.857642224112851
 20
70.0
 30
0.0
 11
86.557642224112826
 21
70.0
 31
0.0
  0
LINE
  5
1814
  8
3
 10
83.857642224112851
 20
68.997334131485502
 30
0.0
 11
86.557642224112826
 21
68.997334131485502
 31
0.0
  0
LINE
  5
1815
  8
3
 10
83.857642224112851
 20
68.010480902681167
 30
0.0
 11
86.557642224112826
 21
68.010480902681167
 31
0.0
  0
LINE
  5
1816
  8
3
 10
83.857642224112851
 20
67.055003578522559
 30
0.0
 11
86.557642224112826
 21
67.055003578522559
 31
0.0
  0
LINE
  5
1817
  8
3
 10
83.857642224112851
 20
64.523623152570451
 30
0.0
 11
86.557642224112897
 21
64.523623152570451
 31
0.0
  0
LINE
  5
1818
  8
3
 10
83.857642224112851
 20
66.145970607186314
 30
0.0
 11
86.557642224112826
 21
66.145970607186285
 31
0.0
  0
LINE
  5
1819
  8
3
 10
83.857642224112851
 20
65.297717981660185
 30
0.0
 11
86.557642224112826
 21
65.297717981660185
 31
0.0
  0
LINE
  5
181A
  8
3
 10
83.857642224112851
 20
63.245376595983878
 30
0.0
 11
86.557642224112826
 21
63.245376595983878
 31
0.0
  0
LINE
  5
181B
  8
3
 10
83.857642224112908
 20
62.76138358027174
 30
0.0
 11
86.557642224112826
 21
62.76138358027179
 31
0.0
  0
LINE
  5
181C
  8
3
 10
83.857642224112851
 20
62.391547869638707
 30
0.0
 11
86.557642224112826
 21
62.391547869638707
 31
0.0
  0
LINE
  5
181D
  8
3
 10
83.857642224112908
 20
62.141701994170432
 30
0.0
 11
86.557642224112826
 21
62.141701994170489
 31
0.0
  0
LINE
  5
181E
  8
3
 10
83.857642224112851
 20
63.835894057793674
 30
0.0
 11
86.557642224112783
 21
63.835894057793674
 31
0.0
  0
LINE
  5
181F
  8
0
 10
87.457642224112874
 20
65.999999999999943
 30
0.0
 11
92.557642224112811
 21
66.0
 31
0.0
  0
LINE
  5
1820
  8
0
 10
87.457642224112874
 20
65.999999999999943
 30
0.0
 11
87.457642224112817
 21
65.999999999999972
 31
0.0
  0
ARC
  5
1821
  8
0
 10
87.457642224112874
 20
65.499999999999943
 30
0.0
 40
0.5
 50
89.999999999996746
 51
180.0
  0
LINE
  5
1822
  8
0
 10
92.957642224112917
 20
66.400000000000006
 30
0.0
 11
92.557642224112811
 21
66.0
 31
0.0
  0
ARC
  5
1823
  8
0
 10
93.35764222411288
 20
68.099999999999994
 30
0.0
 40
0.4
 50
89.999999999998764
 51
180.0
  0
ARC
  5
1824
  8
0
 10
93.35764222411288
 20
71.900000000000006
 30
0.0
 40
0.4
 50
180.0
 51
269.99999999999881
  0
LINE
  5
1825
  8
0
 10
83.857642224112851
 20
77.999999999999972
 30
0.0
 11
86.557642224112826
 21
77.999999999999972
 31
0.0
  0
LINE
  5
1826
  8
3
 10
83.857642224112908
 20
77.858298005829596
 30
0.0
 11
86.557642224112826
 21
77.858298005829482
 31
0.0
  0
LINE
  5
1827
  8
3
 10
83.857642224112851
 20
77.608452130361314
 30
0.0
 11
86.557642224112826
 21
77.608452130361314
 31
0.0
  0
LINE
  5
1828
  8
3
 10
83.857642224112908
 20
77.238616419728231
 30
0.0
 11
86.557642224112826
 21
77.238616419728231
 31
0.0
  0
LINE
  5
1829
  8
3
 10
83.857642224112851
 20
76.754623404016087
 30
0.0
 11
86.557642224112826
 21
76.754623404016087
 31
0.0
  0
LINE
  5
182A
  8
3
 10
83.857642224112851
 20
76.164105942206305
 30
0.0
 11
86.557642224112783
 21
76.164105942206305
 31
0.0
  0
LINE
  5
182B
  8
3
 10
83.857642224112851
 20
75.476376847429577
 30
0.0
 11
86.557642224112897
 21
75.476376847429577
 31
0.0
  0
LINE
  5
182C
  8
3
 10
83.857642224112851
 20
74.702282018339787
 30
0.0
 11
86.557642224112826
 21
74.702282018339787
 31
0.0
  0
LINE
  5
182D
  8
3
 10
83.857642224112851
 20
73.854029392813686
 30
0.0
 11
86.557642224112826
 21
73.854029392813715
 31
0.0
  0
LINE
  5
182E
  8
3
 10
83.857642224112851
 20
72.944996421477441
 30
0.0
 11
86.557642224112826
 21
72.944996421477441
 31
0.0
  0
LINE
  5
182F
  8
0
 10
83.857642224112851
 20
77.999999999999972
 30
0.0
 11
83.457642224112874
 21
77.599999999999994
 31
0.0
  0
LINE
  5
1830
  8
0
 10
87.457642224112874
 20
73.999999999999972
 30
0.0
 11
92.557642224112811
 21
73.999999999999972
 31
0.0
  0
LINE
  5
1831
  8
0
 10
87.457642224112874
 20
74.0
 30
0.0
 11
87.457642224112817
 21
74.0
 31
0.0
  0
ARC
  5
1832
  8
0
 10
87.457642224112874
 20
74.499999999999972
 30
0.0
 40
0.5
 50
180.0
 51
270.0
  0
LINE
  5
1833
  8
0
 10
86.557642224112826
 20
77.999999999999972
 30
0.0
 11
86.957642224112874
 21
77.599999999999994
 31
0.0
  0
LINE
  5
1834
  8
0
 10
92.557642224112811
 20
73.999999999999972
 30
0.0
 11
92.957642224112917
 21
73.599999999999966
 31
0.0
  0
LINE
  5
1835
  8
0
 10
107.257642224113
 20
72.000003836018365
 30
0.0
 11
95.157642224112948
 21
72.000003836018465
 31
0.0
  0
LINE
  5
1836
  8
0
 10
95.157628935755071
 20
68.000003836018493
 30
0.0
 11
107.2576422241128
 21
68.000003836018351
 31
0.0
  0
LINE
  5
1837
  8
3
 10
94.464815256906519
 20
71.600000000000051
 30
0.0
 11
107.6576460601312
 21
71.600000000000051
 31
0.0
1001
_CALL_MAC$
1000
040M4
  0
LINE
  5
1838
  8
3
 10
94.464815256906405
 20
68.400000000000034
 30
0.0
 11
107.6576383880945
 21
68.400000000000048
 31
0.0
1001
_CALL_MAC$
1000
040M4
  0
LINE
  5
1839
  8
0
 10
94.291610176149476
 20
71.499999999999972
 30
0.0
 11
94.291610176149575
 21
68.499999999999972
 31
0.0
  0
LINE
  5
183A
  8
0
 10
95.157642224112834
 20
68.000003836018493
 30
0.0
 11
95.157642224112834
 21
72.000003836018521
 31
0.0
  0
LINE
  5
183B
  8
0
 10
94.291610176149575
 20
68.5
 30
0.0
 11
95.157628935755071
 21
68.000003836018465
 31
0.0
  0
LINE
  5
183C
  8
0
 10
94.291610176149575
 20
71.5
 30
0.0
 11
95.157642224112905
 21
72.000003836018479
 31
0.0
  0
LINE
  5
183D
  8
0
 10
107.9576422241129
 20
68.700003836018396
 30
0.0
 11
107.9576422241129
 21
71.300003836018419
 31
0.0
  0
LINE
  5
183E
  8
0
 10
107.2576422241128
 20
72.000003836018408
 30
0.0
 11
107.2576422241128
 21
68.000003836018394
 31
0.0
  0
LINE
  5
183F
  8
0
 10
107.9576422241129
 20
68.700003836018396
 30
0.0
 11
107.2576422241128
 21
68.000003836018394
 31
0.0
  0
LINE
  5
1840
  8
0
 10
107.2576422241128
 20
72.000003836018408
 30
0.0
 11
107.9576422241129
 21
71.300003836018419
 31
0.0
  0
LINE
  5
1841
  8
1
 10
80.957642224113073
 20
30.000000000000011
 30
0.0
 11
110.4576422241131
 21
30.000000000000011
 31
0.0
  0
LINE
  5
1842
  8
0
 10
93.357642224113079
 20
31.500000000000011
 30
0.0
 11
94.291610176149675
 21
31.499999999999979
 31
0.0
  0
LINE
  5
1843
  8
0
 10
93.357642224113079
 20
28.500000000000011
 30
0.0
 11
94.291610176149675
 21
28.499999999999979
 31
0.0
  0
LINE
  5
1844
  8
0
 10
83.85764222411305
 20
37.999999999999979
 30
0.0
 11
83.85764222411305
 21
21.999999999999979
 31
0.0
  0
LINE
  5
1845
  8
0
 10
83.457642224113073
 20
22.399999999999981
 30
0.0
 11
83.457642224113073
 21
37.600000000000001
 31
0.0
  0
LINE
  5
1846
  8
0
 10
92.55764222411301
 20
33.999999999999979
 30
0.0
 11
92.55764222411301
 21
26.000000000000011
 31
0.0
  0
LINE
  5
1847
  8
0
 10
92.957642224112973
 20
26.399999999999991
 30
0.0
 11
92.957642224113101
 21
33.59999999999998
 31
0.0
  0
LINE
  5
1848
  8
0
 10
86.557642224113039
 20
22.000000000000011
 30
0.0
 11
86.557642224113039
 21
37.999999999999979
 31
0.0
  0
LINE
  5
1849
  8
0
 10
86.957642224113073
 20
22.400000000000009
 30
0.0
 11
86.957642224113016
 21
37.600000000000122
 31
0.0
  0
LINE
  5
184A
  8
3
 10
83.85764222411305
 20
23.835894057793681
 30
0.0
 11
86.557642224112968
 21
23.835894057793681
 31
0.0
  0
LINE
  5
184B
  8
3
 10
83.857642224113107
 20
22.14170199417044
 30
0.0
 11
86.557642224113039
 21
22.1417019941705
 31
0.0
  0
LINE
  5
184C
  8
3
 10
83.85764222411305
 20
22.391547869638721
 30
0.0
 11
86.557642224113039
 21
22.391547869638721
 31
0.0
  0
LINE
  5
184D
  8
3
 10
83.857642224113107
 20
22.761383580271751
 30
0.0
 11
86.557642224113039
 21
22.761383580271801
 31
0.0
  0
LINE
  5
184E
  8
3
 10
83.85764222411305
 20
23.245376595983888
 30
0.0
 11
86.557642224113039
 21
23.245376595983888
 31
0.0
  0
LINE
  5
184F
  8
3
 10
83.85764222411305
 20
25.297717981660188
 30
0.0
 11
86.557642224113039
 21
25.297717981660188
 31
0.0
  0
LINE
  5
1850
  8
3
 10
83.85764222411305
 20
26.145970607186321
 30
0.0
 11
86.557642224113039
 21
26.145970607186289
 31
0.0
  0
LINE
  5
1851
  8
3
 10
83.85764222411305
 20
24.523623152570462
 30
0.0
 11
86.557642224113096
 21
24.523623152570462
 31
0.0
  0
LINE
  5
1852
  8
3
 10
83.85764222411305
 20
27.05500357852257
 30
0.0
 11
86.557642224113039
 21
27.05500357852257
 31
0.0
  0
LINE
  5
1853
  8
3
 10
83.85764222411305
 20
28.010480902681181
 30
0.0
 11
86.557642224113039
 21
28.010480902681181
 31
0.0
  0
LINE
  5
1854
  8
3
 10
83.85764222411305
 20
28.997334131485509
 30
0.0
 11
86.557642224113039
 21
28.997334131485509
 31
0.0
  0
LINE
  5
1855
  8
0
 10
83.85764222411305
 20
21.999999999999979
 30
0.0
 11
86.557642224113039
 21
22.000000000000011
 31
0.0
  0
LINE
  5
1856
  8
0
 10
83.457642224113073
 20
22.399999999999981
 30
0.0
 11
83.85764222411305
 21
21.999999999999979
 31
0.0
  0
LINE
  5
1857
  8
0
 10
86.557642224113039
 20
22.000000000000011
 30
0.0
 11
86.957642224113073
 21
22.400000000000009
 31
0.0
  0
LINE
  5
1858
  8
0
 10
87.457642224113087
 20
25.99999999999995
 30
0.0
 11
92.55764222411301
 21
26.000000000000011
 31
0.0
  0
ARC
  5
1859
  8
0
 10
87.457642224113087
 20
25.49999999999995
 30
0.0
 40
0.5
 50
89.999999999996746
 51
180.0
  0
LINE
  5
185A
  8
0
 10
87.457642224113087
 20
25.99999999999995
 30
0.0
 11
87.457642224113016
 21
25.999999999999979
 31
0.0
  0
LINE
  5
185B
  8
0
 10
92.957642224113101
 20
26.400000000000009
 30
0.0
 11
92.55764222411301
 21
26.000000000000011
 31
0.0
  0
ARC
  5
185C
  8
0
 10
93.357642224113079
 20
28.100000000000001
 30
0.0
 40
0.4
 50
89.999999999998764
 51
180.0
  0
LINE
  5
185D
  8
3
 10
83.85764222411305
 20
32.944996421477448
 30
0.0
 11
86.557642224113039
 21
32.944996421477448
 31
0.0
  0
LINE
  5
185E
  8
3
 10
83.85764222411305
 20
33.8540293928137
 30
0.0
 11
86.557642224113039
 21
33.854029392813722
 31
0.0
  0
LINE
  5
185F
  8
3
 10
83.85764222411305
 20
34.702282018339787
 30
0.0
 11
86.557642224113039
 21
34.702282018339787
 31
0.0
  0
LINE
  5
1860
  8
3
 10
83.85764222411305
 20
35.476376847429592
 30
0.0
 11
86.557642224113096
 21
35.476376847429592
 31
0.0
  0
LINE
  5
1861
  8
3
 10
83.85764222411305
 20
36.164105942206312
 30
0.0
 11
86.557642224112968
 21
36.164105942206312
 31
0.0
  0
LINE
  5
1862
  8
3
 10
83.85764222411305
 20
36.754623404016101
 30
0.0
 11
86.557642224113039
 21
36.754623404016101
 31
0.0
  0
LINE
  5
1863
  8
3
 10
83.857642224113107
 20
37.238616419728238
 30
0.0
 11
86.557642224113039
 21
37.238616419728238
 31
0.0
  0
LINE
  5
1864
  8
3
 10
83.85764222411305
 20
37.608452130361322
 30
0.0
 11
86.557642224113039
 21
37.608452130361322
 31
0.0
  0
LINE
  5
1865
  8
3
 10
83.857642224113107
 20
37.858298005829603
 30
0.0
 11
86.557642224113039
 21
37.858298005829489
 31
0.0
  0
LINE
  5
1866
  8
0
 10
83.85764222411305
 20
37.999999999999979
 30
0.0
 11
86.557642224113039
 21
37.999999999999979
 31
0.0
  0
LINE
  5
1867
  8
3
 10
83.85764222411305
 20
30.000000000000011
 30
0.0
 11
86.557642224113039
 21
30.000000000000011
 31
0.0
  0
LINE
  5
1868
  8
3
 10
83.85764222411305
 20
31.989519097318841
 30
0.0
 11
86.557642224113039
 21
31.989519097318841
 31
0.0
  0
LINE
  5
1869
  8
3
 10
83.85764222411305
 20
31.002665868514502
 30
0.0
 11
86.557642224113039
 21
31.002665868514502
 31
0.0
  0
LINE
  5
186A
  8
0
 10
83.85764222411305
 20
37.999999999999979
 30
0.0
 11
83.457642224113073
 21
37.600000000000001
 31
0.0
  0
LINE
  5
186B
  8
0
 10
87.457642224113087
 20
33.999999999999979
 30
0.0
 11
92.55764222411301
 21
33.999999999999979
 31
0.0
  0
ARC
  5
186C
  8
0
 10
87.457642224113087
 20
34.499999999999979
 30
0.0
 40
0.5
 50
180.0
 51
270.0
  0
LINE
  5
186D
  8
0
 10
87.457642224113087
 20
34.000000000000007
 30
0.0
 11
87.457642224113016
 21
34.000000000000007
 31
0.0
  0
ARC
  5
186E
  8
0
 10
93.357642224113079
 20
31.900000000000009
 30
0.0
 40
0.4
 50
180.0
 51
269.99999999999881
  0
LINE
  5
186F
  8
0
 10
92.55764222411301
 20
33.999999999999979
 30
0.0
 11
92.957642224113101
 21
33.59999999999998
 31
0.0
  0
LINE
  5
1870
  8
0
 10
86.557642224113039
 20
37.999999999999979
 30
0.0
 11
86.957642224113073
 21
37.600000000000001
 31
0.0
  0
LINE
  5
1871
  8
0
 10
107.257642224113
 20
32.000003836018422
 30
0.0
 11
107.257642224113
 21
28.000003836018418
 31
0.0
  0
LINE
  5
1872
  8
0
 10
107.9576422241131
 20
28.700003836018411
 30
0.0
 11
107.9576422241131
 21
31.30000383601843
 31
0.0
  0
LINE
  5
1873
  8
0
 10
95.157642224113033
 20
28.0000038360185
 30
0.0
 11
95.157642224113033
 21
32.000003836018529
 31
0.0
  0
LINE
  5
1874
  8
0
 10
94.291610176149675
 20
31.499999999999979
 30
0.0
 11
94.291610176149774
 21
28.499999999999979
 31
0.0
  0
LINE
  5
1875
  8
3
 10
94.464815256906604
 20
28.400000000000041
 30
0.0
 11
107.6576383880947
 21
28.400000000000059
 31
0.0
1001
_CALL_MAC$
1000
040M4
  0
LINE
  5
1876
  8
0
 10
95.157628935755255
 20
28.0000038360185
 30
0.0
 11
107.257642224113
 21
28.000003836018362
 31
0.0
  0
LINE
  5
1877
  8
0
 10
94.291610176149774
 20
28.500000000000011
 30
0.0
 11
95.157628935755255
 21
28.000003836018472
 31
0.0
  0
LINE
  5
1878
  8
0
 10
107.9576422241131
 20
28.700003836018411
 30
0.0
 11
107.257642224113
 21
28.000003836018418
 31
0.0
  0
LINE
  5
1879
  8
3
 10
94.464815256906704
 20
31.600000000000058
 30
0.0
 11
107.6576460601314
 21
31.600000000000058
 31
0.0
1001
_CALL_MAC$
1000
040M4
  0
LINE
  5
187A
  8
0
 10
107.2576422241132
 20
32.000003836018379
 30
0.0
 11
95.157642224113147
 21
32.000003836018472
 31
0.0
  0
LINE
  5
187B
  8
0
 10
94.291610176149774
 20
31.500000000000011
 30
0.0
 11
95.15764222411309
 21
32.000003836018493
 31
0.0
  0
LINE
  5
187C
  8
0
 10
107.257642224113
 20
32.000003836018422
 30
0.0
 11
107.9576422241131
 21
31.30000383601843
 31
0.0
  0
TEXT
  5
19D4
  8
0
 62
     3
 10
0.0
 20
0.0
 30
0.0
 40
10.0
  1
TKS4X15-SUS
  7
STANDARD1
  0
ENDSEC
  0
EOF
