  0
SECTION
  2
HEADER
  9
$ACADVER
  1
AC1009
  9
$INSBASE
 10
0.0
 20
0.0
 30
0.0
  9
$EXTMIN
 10
0.0
 20
-2.960436562073669
 30
0.0
  9
$EXTMAX
 10
208.4304730960738
 20
176.4927188088119
 30
0.0
  9
$LIMMIN
 10
0.0
 20
0.0
  9
$LIMMAX
 10
375.0
 20
270.0
  9
$ORTHOMODE
 70
     1
  9
$REGENMODE
 70
     1
  9
$FILLMODE
 70
     1
  9
$QTEXTMODE
 70
     0
  9
$MIRRTEXT
 70
     0
  9
$DRAGMODE
 70
     2
  9
$LTSCALE
 40
10.0
  9
$OSMODE
 70
    55
  9
$ATTMODE
 70
     1
  9
$TEXTSIZE
 40
0.2
  9
$TRACEWID
 40
0.05
  9
$TEXTSTYLE
  7
STANDARD
  9
$CLAYER
  8
0
  9
$CELTYPE
  6
BYLAYER
  9
$CECOLOR
 62
   256
  9
$DIMSCALE
 40
1.0
  9
$DIMASZ
 40
3.0
  9
$DIMEXO
 40
2.0
  9
$DIMDLI
 40
0.38
  9
$DIMRND
 40
0.0
  9
$DIMDLE
 40
0.0
  9
$DIMEXE
 40
2.0
  9
$DIMTP
 40
0.0
  9
$DIMTM
 40
0.0
  9
$DIMTXT
 40
3.2000000000000002
  9
$DIMCEN
 40
0.09
  9
$DIMTSZ
 40
0.0
  9
$DIMTOL
 70
     0
  9
$DIMLIM
 70
     0
  9
$DIMTIH
 70
     0
  9
$DIMTOH
 70
     0
  9
$DIMSE1
 70
     0
  9
$DIMSE2
 70
     0
  9
$DIMTAD
 70
     1
  9
$DIMZIN
 70
     0
  9
$DIMBLK
  1

  9
$DIMASO
 70
     1
  9
$DIMSHO
 70
     0
  9
$DIMPOST
  1

  9
$DIMAPOST
  1

  9
$DIMALT
 70
     0
  9
$DIMALTD
 70
     2
  9
$DIMALTF
 40
25.399999999999999
  9
$DIMLFAC
 40
1.0
  9
$DIMTOFL
 70
     0
  9
$DIMTVP
 40
0.0
  9
$DIMTIX
 70
     0
  9
$DIMSOXD
 70
     0
  9
$DIMSAH
 70
     0
  9
$DIMBLK1
  1

  9
$DIMBLK2
  1

  9
$DIMSTYLE
  2
STANDARD
  9
$DIMCLRD
 70
     0
  9
$DIMCLRE
 70
     0
  9
$DIMCLRT
 70
     0
  9
$DIMTFAC
 40
1.0
  9
$DIMGAP
 40
0.09
  9
$LUNITS
 70
     2
  9
$LUPREC
 70
     4
  9
$SKETCHINC
 40
0.1
  9
$FILLETRAD
 40
1.1999999999999991
  9
$AUNITS
 70
     0
  9
$AUPREC
 70
     0
  9
$MENU
  1
E:\r13\win\SUPPORT\ACAD
  9
$ELEVATION
 40
0.0
  9
$PELEVATION
 40
0.0
  9
$THICKNESS
 40
0.0
  9
$LIMCHECK
 70
     0
  9
$BLIPMODE
 70
     0
  9
$CHAMFERA
 40
0.0
  9
$CHAMFERB
 40
0.0
  9
$SKPOLY
 70
     0
  9
$TDCREATE
 40
2449840.6051504631
  9
$TDUPDATE
 40
2456598.4466867712
  9
$TDINDWG
 40
0.008867338
  9
$TDUSRTIMER
 40
0.008867338
  9
$USRTIMER
 70
     1
  9
$ANGBASE
 50
0.0
  9
$ANGDIR
 70
     0
  9
$PDMODE
 70
     0
  9
$PDSIZE
 40
0.0
  9
$PLINEWID
 40
0.0
  9
$COORDS
 70
     1
  9
$SPLFRAME
 70
     0
  9
$SPLINETYPE
 70
     6
  9
$SPLINESEGS
 70
     8
  9
$ATTDIA
 70
     0
  9
$ATTREQ
 70
     1
  9
$HANDLING
 70
     1
  9
$HANDSEED
  5
4A1
  9
$SURFTAB1
 70
     6
  9
$SURFTAB2
 70
     6
  9
$SURFTYPE
 70
     6
  9
$SURFU
 70
     6
  9
$SURFV
 70
     6
  9
$UCSNAME
  2

  9
$UCSORG
 10
0.0
 20
0.0
 30
0.0
  9
$UCSXDIR
 10
1.0
 20
0.0
 30
0.0
  9
$UCSYDIR
 10
0.0
 20
1.0
 30
0.0
  9
$PUCSNAME
  2

  9
$PUCSORG
 10
0.0
 20
0.0
 30
0.0
  9
$PUCSXDIR
 10
1.0
 20
0.0
 30
0.0
  9
$PUCSYDIR
 10
0.0
 20
1.0
 30
0.0
  9
$USERI1
 70
     0
  9
$USERI2
 70
     1
  9
$USERI3
 70
     1
  9
$USERI4
 70
     0
  9
$USERI5
 70
     0
  9
$USERR1
 40
0.0
  9
$USERR2
 40
0.0
  9
$USERR3
 40
0.0
  9
$USERR4
 40
0.0
  9
$USERR5
 40
0.0
  9
$WORLDVIEW
 70
     1
  9
$SHADEDGE
 70
     3
  9
$SHADEDIF
 70
    70
  9
$TILEMODE
 70
     1
  9
$MAXACTVP
 70
    16
  9
$PLIMCHECK
 70
     0
  9
$PEXTMIN
 10
1.0000000000000000E+020
 20
1.0000000000000000E+020
 30
1.0000000000000000E+020
  9
$PEXTMAX
 10
-1.0000000000000000E+020
 20
-1.0000000000000000E+020
 30
-1.0000000000000000E+020
  9
$PLIMMIN
 10
0.0
 20
0.0
  9
$PLIMMAX
 10
12.0
 20
9.0
  9
$UNITMODE
 70
     0
  9
$VISRETAIN
 70
     0
  9
$PLINEGEN
 70
     0
  9
$PSLTSCALE
 70
     0
  0
ENDSEC
  0
SECTION
  2
TABLES
  0
TABLE
  2
VPORT
 70
     1
  0
VPORT
  2
*ACTIVE
 70
     0
 10
0.0
 20
0.0
 11
1.0
 21
1.0
 12
187.4942783906524
 22
197.0509055860143
 13
0.0
 23
0.0
 14
5.0
 24
5.0
 15
10.0
 25
10.0
 16
0.0
 26
0.0
 36
1.0
 17
0.0
 27
0.0
 37
0.0
 40
403.57315882993248
 41
1.7807262569832401
 42
50.0
 43
0.0
 44
0.0
 50
0.0
 51
0.0
 71
     0
 72
   100
 73
     1
 74
     0
 75
     0
 76
     0
 77
     0
 78
     0
  0
ENDTAB
  0
TABLE
  2
LTYPE
 70
     4
  0
LTYPE
  2
CONTINUOUS
 70
     0
  3
Solid Line
 72
    65
 73
     0
 40
0.0
  0
LTYPE
  2
CENTER
 70
     0
  3
____ _ ____ _ ____ _ ____ _ ____ _ ____ _ ____
 72
    65
 73
     4
 40
2.0
 49
1.25
 49
-0.25
 49
0.25
 49
-0.25
  0
LTYPE
  2
HIDDEN
 70
     0
  3
_ _ _ _ _ _ _ _ _ _ _ _ _ _ _ _ _ _ _ _ _ _ _
 72
    65
 73
     2
 40
0.375
 49
0.25
 49
-0.125
  0
LTYPE
  2
PHANTOM2
 70
     0
  3
___ _ _ ___ _ _ ___ _ _ ___ _ _
 72
    65
 73
     6
 40
1.25
 49
0.625
 49
-0.125
 49
0.125
 49
-0.125
 49
0.125
 49
-0.125
  0
ENDTAB
  0
TABLE
  2
LAYER
 70
     5
  0
LAYER
  2
0
 70
     0
 62
     7
  6
CONTINUOUS
  0
LAYER
  2
1
 70
     0
 62
     1
  6
CENTER
  0
LAYER
  2
2
 70
     0
 62
     2
  6
HIDDEN
  0
LAYER
  2
3
 70
     0
 62
     3
  6
CONTINUOUS
  0
LAYER
  2
DEFPOINTS
 70
     0
 62
     7
  6
CONTINUOUS
  0
ENDTAB
  0
TABLE
  2
STYLE
 70
     2
  0
STYLE
  2
STANDARD
 70
     0
 40
0.0
 41
1.0
 50
0.0
 71
     0
 42
0.2
  3
TXT
  4
BIGFONT
  0
STYLE
  2
STANDARD1
 70
     0
 40
0.0
 41
1.0
 50
0.0
 71
     0
 42
3.0
  3
txt
  4

  0
ENDTAB
  0
TABLE
  2
VIEW
 70
     1
  0
VIEW
  2
ALL
 70
     0
 40
270.0
 10
220.99159700000001
 20
135.0
 41
0.0
 11
0.0
 21
0.0
 31
1.0
 12
0.0
 22
0.0
 32
0.0
 42
0.0
 43
0.0
 44
0.0
 50
0.0
 71
     0
  0
ENDTAB
  0
TABLE
  2
UCS
 70
     0
  0
ENDTAB
  0
TABLE
  2
APPID
 70
     3
  0
APPID
  2
ACAD
 70
     0
  0
APPID
  2
ACAD_MLEADERVER
 70
     0
  0
APPID
  2
ACAD_NAV_VCDISPLAY
 70
     0
  0
ENDTAB
  0
TABLE
  2
DIMSTYLE
 70
     1
  0
DIMSTYLE
  2
STANDARD
 70
     0
  3

  4

  5

  6

  7

 40
1.0
 41
0.18
 42
0.0625
 43
0.38
 44
0.18
 45
0.0
 46
0.0
 47
0.0
 48
0.0
140
0.18
141
0.09
142
0.0
143
25.399999999999999
144
1.0
145
0.0
146
1.0
147
0.09
 71
     0
 72
     0
 73
     1
 74
     1
 75
     0
 76
     0
 77
     0
 78
     0
170
     0
171
     2
172
     0
173
     0
174
     0
175
     0
176
     0
177
     0
178
     0
  0
ENDTAB
  0
ENDSEC
  0
SECTION
  2
BLOCKS
  0
BLOCK
  8
0
  2
$MODEL_SPACE
 70
     0
 10
0.0
 20
0.0
 30
0.0
  3
$MODEL_SPACE
  1

  0
ENDBLK
  5
16D
  8
0
  0
BLOCK
 67
     1
  8
0
  2
$PAPER_SPACE
 70
     0
 10
0.0
 20
0.0
 30
0.0
  3
$PAPER_SPACE
  1

  0
ENDBLK
  5
16B
 67
     1
  8
0
  0
ENDSEC
  0
SECTION
  2
ENTITIES
  0
LINE
  5
36
  8
0
 10
95.430473096073797
 20
110.89271880881191
 30
0.0
 11
96.030473096073791
 21
111.4927188088119
 31
0.0
  0
LINE
  5
37
  8
0
 10
96.030473096073791
 20
111.4927188088119
 30
0.0
 11
100.8304730960738
 21
111.4927188088119
 31
0.0
  0
LINE
  5
38
  8
0
 10
100.8304730960738
 20
111.4927188088119
 30
0.0
 11
101.4304730960738
 21
110.89271880881191
 31
0.0
  0
LINE
  5
3E
  8
0
 10
100.8304730960738
 20
81.492718808811958
 30
0.0
 11
101.4304730960738
 21
82.092718808811938
 31
0.0
  0
LINE
  5
3F
  8
0
 10
96.030473096073791
 20
81.492718808811958
 30
0.0
 11
100.8304730960738
 21
81.492718808811958
 31
0.0
  0
LINE
  5
40
  8
0
 10
95.430473096073797
 20
82.092718808811938
 30
0.0
 11
96.030473096073791
 21
81.492718808811958
 31
0.0
  0
LINE
  5
41
  8
0
 10
95.430473096073797
 20
110.89271880881191
 30
0.0
 11
95.430473096073797
 21
82.092718808811938
 31
0.0
  0
LINE
  5
42
  8
0
 10
96.030473096073791
 20
111.4927188088119
 30
0.0
 11
96.030473096073791
 21
81.492718808811958
 31
0.0
  0
LINE
  5
43
  8
0
 10
100.8304730960738
 20
111.4927188088119
 30
0.0
 11
100.8304730960738
 21
81.492718808811958
 31
0.0
  0
LINE
  5
44
  8
0
 10
101.4304730960738
 20
110.89271880881191
 30
0.0
 11
101.4304730960738
 21
82.092718808811938
 31
0.0
  0
LINE
  5
47
  8
1
 10
90.430473096073797
 20
96.492718808811958
 30
0.0
 11
108.4304730960738
 21
96.492718808811958
 31
0.0
  0
LINE
  5
4F
  8
3
 10
100.8304730960738
 20
97.434576808811954
 30
0.0
 11
96.030473096073791
 21
97.434576808811954
 31
0.0
  0
LINE
  5
50
  8
3
 10
100.8304730960738
 20
98.372717808811956
 30
0.0
 11
96.030473096073791
 21
98.372717808811956
 31
0.0
  0
LINE
  5
51
  8
3
 10
100.8304730960738
 20
99.303438808811961
 30
0.0
 11
96.030473096073791
 21
99.303438808811961
 31
0.0
  0
LINE
  5
52
  8
3
 10
100.8304730960738
 20
100.22306680881189
 30
0.0
 11
96.030473096073791
 21
100.22306680881189
 31
0.0
  0
LINE
  5
53
  8
3
 10
100.8304730960738
 20
101.1279738088119
 30
0.0
 11
96.030473096073791
 21
101.1279738088119
 31
0.0
  0
LINE
  5
54
  8
3
 10
100.8304730960738
 20
101.9893818088119
 30
0.0
 11
96.030473096073791
 21
101.9893818088119
 31
0.0
  0
LINE
  5
55
  8
3
 10
100.8304730960738
 20
102.8481048088119
 30
0.0
 11
96.030473096073791
 21
102.8481048088119
 31
0.0
  0
LINE
  5
56
  8
3
 10
100.8304730960738
 20
103.7190238088119
 30
0.0
 11
96.030473096073791
 21
103.7190238088119
 31
0.0
  0
LINE
  5
57
  8
3
 10
100.8304730960738
 20
104.5301208088119
 30
0.0
 11
96.030473096073791
 21
104.5301208088119
 31
0.0
  0
LINE
  5
58
  8
3
 10
100.8304730960738
 20
105.3094978088119
 30
0.0
 11
96.030473096073791
 21
105.3094978088119
 31
0.0
  0
LINE
  5
59
  8
3
 10
100.8304730960738
 20
106.05407880881189
 30
0.0
 11
96.030473096073791
 21
106.05407880881189
 31
0.0
  0
LINE
  5
5A
  8
3
 10
100.8304730960738
 20
106.760925808812
 30
0.0
 11
96.030473096073791
 21
106.760925808812
 31
0.0
  0
LINE
  5
5B
  8
3
 10
100.8304730960738
 20
111.3744398088119
 30
0.0
 11
96.030473096073791
 21
111.3744398088119
 31
0.0
  0
LINE
  5
5C
  8
3
 10
100.8304730960738
 20
111.3406668088119
 30
0.0
 11
96.030473096073791
 21
111.3406668088119
 31
0.0
  0
LINE
  5
5D
  8
3
 10
100.8304730960738
 20
111.2270278088119
 30
0.0
 11
96.030473096073791
 21
111.2270278088119
 31
0.0
  0
LINE
  5
5E
  8
3
 10
100.8304730960738
 20
111.021465808812
 30
0.0
 11
96.030473096073791
 21
111.021465808812
 31
0.0
  0
LINE
  5
5F
  8
3
 10
100.8304730960738
 20
110.75856680881191
 30
0.0
 11
96.030473096073791
 21
110.75856680881191
 31
0.0
  0
LINE
  5
60
  8
3
 10
100.8304730960738
 20
110.4393658088119
 30
0.0
 11
96.030473096073791
 21
110.4393658088119
 31
0.0
  0
LINE
  5
61
  8
3
 10
100.8304730960738
 20
110.0651248088119
 30
0.0
 11
96.030473096073791
 21
110.0651248088119
 31
0.0
  0
LINE
  5
62
  8
3
 10
100.8304730960738
 20
109.6373188088119
 30
0.0
 11
96.030473096073791
 21
109.6373188088119
 31
0.0
  0
LINE
  5
63
  8
3
 10
100.8304730960738
 20
109.1576378088119
 30
0.0
 11
96.030473096073791
 21
109.1576378088119
 31
0.0
  0
LINE
  5
64
  8
3
 10
100.8304730960738
 20
108.6279738088119
 30
0.0
 11
96.030473096073791
 21
108.6279738088119
 31
0.0
  0
LINE
  5
65
  8
3
 10
100.8304730960738
 20
108.0504178088119
 30
0.0
 11
96.030473096073791
 21
108.0504178088119
 31
0.0
  0
LINE
  5
66
  8
3
 10
100.8304730960738
 20
107.4272478088119
 30
0.0
 11
96.030473096073791
 21
107.4272478088119
 31
0.0
  0
LINE
  5
6D
  8
3
 10
100.8304730960738
 20
85.558189808811974
 30
0.0
 11
96.030473096073791
 21
85.558189808811974
 31
0.0
  0
LINE
  5
6E
  8
3
 10
100.8304730960738
 20
84.935019808811958
 30
0.0
 11
96.030473096073791
 21
84.935019808811958
 31
0.0
  0
LINE
  5
6F
  8
3
 10
100.8304730960738
 20
84.357463808811957
 30
0.0
 11
96.030473096073791
 21
84.357463808811957
 31
0.0
  0
LINE
  5
70
  8
3
 10
100.8304730960738
 20
83.82779980881196
 30
0.0
 11
96.030473096073791
 21
83.82779980881196
 31
0.0
  0
LINE
  5
71
  8
3
 10
100.8304730960738
 20
83.348118808811947
 30
0.0
 11
96.030473096073791
 21
83.348118808811947
 31
0.0
  0
LINE
  5
72
  8
3
 10
100.8304730960738
 20
82.920312808811957
 30
0.0
 11
96.030473096073791
 21
82.920312808811957
 31
0.0
  0
LINE
  5
73
  8
3
 10
100.8304730960738
 20
82.546071808811959
 30
0.0
 11
96.030473096073791
 21
82.546071808811959
 31
0.0
  0
LINE
  5
74
  8
3
 10
100.8304730960738
 20
82.226870808811967
 30
0.0
 11
96.030473096073791
 21
82.226870808811967
 31
0.0
  0
LINE
  5
75
  8
3
 10
100.8304730960738
 20
81.963971808811976
 30
0.0
 11
96.030473096073791
 21
81.963971808811976
 31
0.0
  0
LINE
  5
76
  8
3
 10
100.8304730960738
 20
81.758409808811948
 30
0.0
 11
96.030473096073791
 21
81.758409808811948
 31
0.0
  0
LINE
  5
77
  8
3
 10
100.8304730960738
 20
81.644770808811955
 30
0.0
 11
96.030473096073791
 21
81.644770808811955
 31
0.0
  0
LINE
  5
78
  8
3
 10
100.8304730960738
 20
81.610997808811959
 30
0.0
 11
96.030473096073791
 21
81.610997808811959
 31
0.0
  0
LINE
  5
79
  8
3
 10
100.8304730960738
 20
86.224511808811954
 30
0.0
 11
96.030473096073791
 21
86.224511808811954
 31
0.0
  0
LINE
  5
7A
  8
3
 10
100.8304730960738
 20
86.93135880881195
 30
0.0
 11
96.030473096073791
 21
86.93135880881195
 31
0.0
  0
LINE
  5
7B
  8
3
 10
100.8304730960738
 20
87.675939808811961
 30
0.0
 11
96.030473096073791
 21
87.675939808811961
 31
0.0
  0
LINE
  5
7C
  8
3
 10
100.8304730960738
 20
88.455316808811958
 30
0.0
 11
96.030473096073791
 21
88.455316808811958
 31
0.0
  0
LINE
  5
7D
  8
3
 10
100.8304730960738
 20
89.266413808811947
 30
0.0
 11
96.030473096073791
 21
89.266413808811947
 31
0.0
  0
LINE
  5
7E
  8
3
 10
100.8304730960738
 20
90.137332808811948
 30
0.0
 11
96.030473096073791
 21
90.137332808811948
 31
0.0
  0
LINE
  5
7F
  8
3
 10
100.8304730960738
 20
90.996055808811974
 30
0.0
 11
96.030473096073791
 21
90.996055808811974
 31
0.0
  0
LINE
  5
80
  8
3
 10
100.8304730960738
 20
91.857463808811957
 30
0.0
 11
96.030473096073791
 21
91.857463808811957
 31
0.0
  0
LINE
  5
81
  8
3
 10
100.8304730960738
 20
92.762370808811966
 30
0.0
 11
96.030473096073791
 21
92.762370808811966
 31
0.0
  0
LINE
  5
82
  8
3
 10
100.8304730960738
 20
93.681998808811954
 30
0.0
 11
96.030473096073791
 21
93.681998808811954
 31
0.0
  0
LINE
  5
83
  8
3
 10
100.8304730960738
 20
94.61271980881196
 30
0.0
 11
96.030473096073791
 21
94.61271980881196
 31
0.0
  0
LINE
  5
84
  8
3
 10
100.8304730960738
 20
95.550860808811962
 30
0.0
 11
96.030473096073791
 21
95.550860808811962
 31
0.0
  0
CIRCLE
  5
85
  8
0
 10
23.430473096073801
 20
96.492718808811958
 30
0.0
 40
15.0
  0
CIRCLE
  5
86
  8
0
 10
188.4304730960738
 20
96.492718808811958
 30
0.0
 40
15.0
  0
CIRCLE
  5
87
  8
0
 10
188.4304730960738
 20
96.492718808811958
 30
0.0
 40
8.0
  0
LINE
  5
88
  8
1
 10
43.430473096073797
 20
96.492718808811958
 30
0.0
 11
3.430473096073797
 21
96.492718808811958
 31
0.0
  0
LINE
  5
89
  8
1
 10
23.430473096073801
 20
116.4927188088119
 30
0.0
 11
23.430473096073801
 21
76.492718808811958
 31
0.0
  0
LINE
  5
8A
  8
1
 10
208.4304730960738
 20
96.492718808811958
 30
0.0
 11
168.4304730960738
 21
96.492718808811958
 31
0.0
  0
LINE
  5
8B
  8
1
 10
188.4304730960738
 20
116.4927188088119
 30
0.0
 11
188.4304730960738
 21
76.492718808811958
 31
0.0
  0
CIRCLE
  5
12A
  8
0
 10
23.430473096073801
 20
96.492718808811958
 30
0.0
 40
14.4
  0
CIRCLE
  5
12B
  8
3
 10
23.430473096073801
 20
96.492718808811958
 30
0.0
 40
4.0
  0
CIRCLE
  5
12C
  8
0
 10
23.430473096073801
 20
96.492718808811958
 30
0.0
 40
3.3235000000000001
  0
CIRCLE
  5
12D
  8
0
 10
188.4304730960738
 20
96.492718808811958
 30
0.0
 40
14.4
  0
CIRCLE
  5
12E
  8
0
 10
188.4304730960738
 20
96.492718808811958
 30
0.0
 40
8.4900000000000091
  0
CIRCLE
  5
12F
  8
3
 10
188.4304730960738
 20
96.492718808811958
 30
0.0
 40
4.0
  0
CIRCLE
  5
130
  8
0
 10
188.4304730960738
 20
96.492718808811958
 30
0.0
 40
3.3235000000000001
  0
LINE
  5
1D9
  8
0
  6
CONTINUOUS
 62
     0
 10
103.4304730960738
 20
104.4927188088119
 30
0.0
 11
103.4304730960738
 21
88.492718808811944
 31
0.0
  0
ARC
  5
1DA
  8
0
  6
CONTINUOUS
 62
     0
 10
101.92047309607381
 20
104.9827188088119
 30
0.0
 40
0.4899999999999998
 50
180.0
 51
270.0
  0
LINE
  5
1DB
  8
0
  6
CONTINUOUS
 62
     0
 10
103.4304730960738
 20
104.4927188088119
 30
0.0
 11
101.92047309607381
 21
104.4927188088119
 31
0.0
  0
ARC
  5
1DC
  8
0
  6
CONTINUOUS
 62
     0
 10
101.92047309607381
 20
88.002718808811949
 30
0.0
 40
0.4900000000000003
 50
90.0
 51
180.0
  0
LINE
  5
1DD
  8
0
  6
CONTINUOUS
 62
     0
 10
101.92047309607381
 20
88.492718808811944
 30
0.0
 11
103.4304730960738
 21
88.492718808811944
 31
0.0
  0
LINE
  5
1DF
  8
2
 10
95.430473096073797
 20
100.4927188088119
 30
0.0
 11
103.4304730960738
 21
100.4927188088119
 31
0.0
  0
LINE
  5
1E0
  8
2
 10
95.430473096073797
 20
92.492718808811944
 30
0.0
 11
103.4304730960738
 21
92.492718808811944
 31
0.0
  0
LINE
  5
1E1
  8
2
 10
102.75397309607381
 20
99.816218808811954
 30
0.0
 11
102.75397309607381
 21
93.169218808811962
 31
0.0
  0
LINE
  5
1E2
  8
2
 10
103.4304730960738
 20
100.4927188088119
 30
0.0
 11
102.75397309607381
 21
99.816218808811954
 31
0.0
  0
LINE
  5
1E3
  8
2
 10
102.75397309607381
 20
93.169218808811962
 30
0.0
 11
103.4304730960738
 21
92.492718808811944
 31
0.0
  0
LINE
  5
1E4
  8
2
 10
102.75397309607381
 20
99.816218808811954
 30
0.0
 11
96.106973096073816
 21
99.816218808811954
 31
0.0
  0
LINE
  5
1E5
  8
2
 10
96.106973096073816
 20
93.169218808811962
 30
0.0
 11
102.75397309607381
 21
93.169218808811962
 31
0.0
  0
LINE
  5
1E6
  8
2
 10
96.106973096073816
 20
99.816218808811954
 30
0.0
 11
95.430473096073797
 21
100.4927188088119
 31
0.0
  0
LINE
  5
1E7
  8
2
 10
95.430473096073797
 20
92.492718808811944
 30
0.0
 11
96.106973096073816
 21
93.169218808811962
 31
0.0
  0
LINE
  5
1E8
  8
2
 10
96.106973096073816
 20
99.816218808811954
 30
0.0
 11
96.106973096073816
 21
93.169218808811962
 31
0.0
  0
LINE
  5
236
  8
2
 10
96.106973096073816
 20
164.8162188088119
 30
0.0
 11
96.106973096073816
 21
158.16921880881191
 31
0.0
  0
LINE
  5
237
  8
2
 10
95.430473096073797
 20
157.4927188088119
 30
0.0
 11
96.106973096073816
 21
158.16921880881191
 31
0.0
  0
LINE
  5
238
  8
2
 10
96.106973096073816
 20
164.8162188088119
 30
0.0
 11
95.430473096073797
 21
165.4927188088119
 31
0.0
  0
LINE
  5
239
  8
2
 10
96.106973096073816
 20
158.16921880881191
 30
0.0
 11
102.75397309607381
 21
158.16921880881191
 31
0.0
  0
LINE
  5
23A
  8
2
 10
102.75397309607381
 20
164.8162188088119
 30
0.0
 11
96.106973096073816
 21
164.8162188088119
 31
0.0
  0
LINE
  5
23B
  8
2
 10
102.75397309607381
 20
158.16921880881191
 30
0.0
 11
103.4304730960738
 21
157.4927188088119
 31
0.0
  0
LINE
  5
23C
  8
2
 10
103.4304730960738
 20
165.4927188088119
 30
0.0
 11
102.75397309607381
 21
164.8162188088119
 31
0.0
  0
LINE
  5
23D
  8
2
 10
102.75397309607381
 20
164.8162188088119
 30
0.0
 11
102.75397309607381
 21
158.16921880881191
 31
0.0
  0
LINE
  5
23E
  8
2
 10
95.430473096073797
 20
157.4927188088119
 30
0.0
 11
103.4304730960738
 21
157.4927188088119
 31
0.0
  0
LINE
  5
23F
  8
2
 10
95.430473096073797
 20
165.4927188088119
 30
0.0
 11
103.4304730960738
 21
165.4927188088119
 31
0.0
  0
LINE
  5
240
  8
0
  6
CONTINUOUS
 62
     0
 10
101.92047309607381
 20
153.4927188088119
 30
0.0
 11
103.4304730960738
 21
153.4927188088119
 31
0.0
  0
ARC
  5
241
  8
0
  6
CONTINUOUS
 62
     0
 10
101.92047309607381
 20
153.00271880881189
 30
0.0
 40
0.4900000000000003
 50
90.0
 51
180.0
  0
LINE
  5
242
  8
0
  6
CONTINUOUS
 62
     0
 10
103.4304730960738
 20
169.4927188088119
 30
0.0
 11
101.92047309607381
 21
169.4927188088119
 31
0.0
  0
ARC
  5
243
  8
0
  6
CONTINUOUS
 62
     0
 10
101.92047309607381
 20
169.98271880881191
 30
0.0
 40
0.4899999999999998
 50
180.0
 51
270.0
  0
LINE
  5
244
  8
0
  6
CONTINUOUS
 62
     0
 10
103.4304730960738
 20
169.4927188088119
 30
0.0
 11
103.4304730960738
 21
153.4927188088119
 31
0.0
  0
LINE
  5
246
  8
3
 10
100.8304730960738
 20
160.5508608088119
 30
0.0
 11
96.030473096073791
 21
160.5508608088119
 31
0.0
  0
LINE
  5
247
  8
3
 10
100.8304730960738
 20
159.6127198088119
 30
0.0
 11
96.030473096073791
 21
159.6127198088119
 31
0.0
  0
LINE
  5
248
  8
3
 10
100.8304730960738
 20
158.6819988088119
 30
0.0
 11
96.030473096073791
 21
158.6819988088119
 31
0.0
  0
LINE
  5
249
  8
3
 10
100.8304730960738
 20
157.76237080881191
 30
0.0
 11
96.030473096073791
 21
157.76237080881191
 31
0.0
  0
LINE
  5
24A
  8
3
 10
100.8304730960738
 20
156.8574638088119
 30
0.0
 11
96.030473096073791
 21
156.8574638088119
 31
0.0
  0
LINE
  5
24B
  8
3
 10
100.8304730960738
 20
155.99605580881189
 30
0.0
 11
96.030473096073791
 21
155.99605580881189
 31
0.0
  0
LINE
  5
24C
  8
3
 10
100.8304730960738
 20
155.13733280881189
 30
0.0
 11
96.030473096073791
 21
155.13733280881189
 31
0.0
  0
LINE
  5
24D
  8
3
 10
100.8304730960738
 20
154.2664138088119
 30
0.0
 11
96.030473096073791
 21
154.2664138088119
 31
0.0
  0
LINE
  5
24E
  8
3
 10
100.8304730960738
 20
153.45531680881189
 30
0.0
 11
96.030473096073791
 21
153.45531680881189
 31
0.0
  0
LINE
  5
24F
  8
3
 10
100.8304730960738
 20
152.6759398088119
 30
0.0
 11
96.030473096073791
 21
152.6759398088119
 31
0.0
  0
LINE
  5
250
  8
3
 10
100.8304730960738
 20
151.93135880881189
 30
0.0
 11
96.030473096073791
 21
151.93135880881189
 31
0.0
  0
LINE
  5
251
  8
3
 10
100.8304730960738
 20
151.22451180881191
 30
0.0
 11
96.030473096073791
 21
151.22451180881191
 31
0.0
  0
LINE
  5
252
  8
3
 10
100.8304730960738
 20
146.6109978088119
 30
0.0
 11
96.030473096073791
 21
146.6109978088119
 31
0.0
  0
LINE
  5
253
  8
3
 10
100.8304730960738
 20
146.6447708088119
 30
0.0
 11
96.030473096073791
 21
146.6447708088119
 31
0.0
  0
LINE
  5
254
  8
3
 10
100.8304730960738
 20
146.7584098088119
 30
0.0
 11
96.030473096073791
 21
146.7584098088119
 31
0.0
  0
LINE
  5
255
  8
3
 10
100.8304730960738
 20
146.96397180881189
 30
0.0
 11
96.030473096073791
 21
146.96397180881189
 31
0.0
  0
LINE
  5
256
  8
3
 10
100.8304730960738
 20
147.2268708088119
 30
0.0
 11
96.030473096073791
 21
147.2268708088119
 31
0.0
  0
LINE
  5
257
  8
3
 10
100.8304730960738
 20
147.546071808812
 30
0.0
 11
96.030473096073791
 21
147.546071808812
 31
0.0
  0
LINE
  5
258
  8
3
 10
100.8304730960738
 20
147.9203128088119
 30
0.0
 11
96.030473096073791
 21
147.9203128088119
 31
0.0
  0
LINE
  5
259
  8
3
 10
100.8304730960738
 20
148.3481188088119
 30
0.0
 11
96.030473096073791
 21
148.3481188088119
 31
0.0
  0
LINE
  5
25A
  8
3
 10
100.8304730960738
 20
148.8277998088119
 30
0.0
 11
96.030473096073791
 21
148.8277998088119
 31
0.0
  0
LINE
  5
25B
  8
3
 10
100.8304730960738
 20
149.3574638088119
 30
0.0
 11
96.030473096073791
 21
149.3574638088119
 31
0.0
  0
LINE
  5
25C
  8
3
 10
100.8304730960738
 20
149.93501980881189
 30
0.0
 11
96.030473096073791
 21
149.93501980881189
 31
0.0
  0
LINE
  5
25D
  8
3
 10
100.8304730960738
 20
150.5581898088119
 30
0.0
 11
96.030473096073791
 21
150.5581898088119
 31
0.0
  0
LINE
  5
25E
  8
3
 10
100.8304730960738
 20
172.4272478088119
 30
0.0
 11
96.030473096073791
 21
172.4272478088119
 31
0.0
  0
LINE
  5
25F
  8
3
 10
100.8304730960738
 20
173.05041780881189
 30
0.0
 11
96.030473096073791
 21
173.05041780881189
 31
0.0
  0
LINE
  5
260
  8
3
 10
100.8304730960738
 20
173.6279738088119
 30
0.0
 11
96.030473096073791
 21
173.6279738088119
 31
0.0
  0
LINE
  5
261
  8
3
 10
100.8304730960738
 20
174.1576378088119
 30
0.0
 11
96.030473096073791
 21
174.1576378088119
 31
0.0
  0
LINE
  5
262
  8
3
 10
100.8304730960738
 20
174.6373188088119
 30
0.0
 11
96.030473096073791
 21
174.6373188088119
 31
0.0
  0
LINE
  5
263
  8
3
 10
100.8304730960738
 20
175.0651248088119
 30
0.0
 11
96.030473096073791
 21
175.0651248088119
 31
0.0
  0
LINE
  5
264
  8
3
 10
100.8304730960738
 20
175.43936580881191
 30
0.0
 11
96.030473096073791
 21
175.43936580881191
 31
0.0
  0
LINE
  5
265
  8
3
 10
100.8304730960738
 20
175.75856680881191
 30
0.0
 11
96.030473096073791
 21
175.75856680881191
 31
0.0
  0
LINE
  5
266
  8
3
 10
100.8304730960738
 20
176.02146580881191
 30
0.0
 11
96.030473096073791
 21
176.02146580881191
 31
0.0
  0
LINE
  5
267
  8
3
 10
100.8304730960738
 20
176.2270278088119
 30
0.0
 11
96.030473096073791
 21
176.2270278088119
 31
0.0
  0
LINE
  5
268
  8
3
 10
100.8304730960738
 20
176.3406668088119
 30
0.0
 11
96.030473096073791
 21
176.3406668088119
 31
0.0
  0
LINE
  5
269
  8
3
 10
100.8304730960738
 20
176.3744398088119
 30
0.0
 11
96.030473096073791
 21
176.3744398088119
 31
0.0
  0
LINE
  5
26A
  8
3
 10
100.8304730960738
 20
171.76092580881189
 30
0.0
 11
96.030473096073791
 21
171.76092580881189
 31
0.0
  0
LINE
  5
26B
  8
3
 10
100.8304730960738
 20
171.05407880881191
 30
0.0
 11
96.030473096073791
 21
171.05407880881191
 31
0.0
  0
LINE
  5
26C
  8
3
 10
100.8304730960738
 20
170.3094978088119
 30
0.0
 11
96.030473096073791
 21
170.3094978088119
 31
0.0
  0
LINE
  5
26D
  8
3
 10
100.8304730960738
 20
169.53012080881189
 30
0.0
 11
96.030473096073791
 21
169.53012080881189
 31
0.0
  0
LINE
  5
26E
  8
3
 10
100.8304730960738
 20
168.7190238088119
 30
0.0
 11
96.030473096073791
 21
168.7190238088119
 31
0.0
  0
LINE
  5
26F
  8
3
 10
100.8304730960738
 20
167.84810480881191
 30
0.0
 11
96.030473096073791
 21
167.84810480881191
 31
0.0
  0
LINE
  5
270
  8
3
 10
100.8304730960738
 20
166.98938180881191
 30
0.0
 11
96.030473096073791
 21
166.98938180881191
 31
0.0
  0
LINE
  5
271
  8
3
 10
100.8304730960738
 20
166.1279738088119
 30
0.0
 11
96.030473096073791
 21
166.1279738088119
 31
0.0
  0
LINE
  5
272
  8
3
 10
100.8304730960738
 20
165.22306680881189
 30
0.0
 11
96.030473096073791
 21
165.22306680881189
 31
0.0
  0
LINE
  5
273
  8
3
 10
100.8304730960738
 20
164.3034388088119
 30
0.0
 11
96.030473096073791
 21
164.3034388088119
 31
0.0
  0
LINE
  5
274
  8
3
 10
100.8304730960738
 20
163.3727178088119
 30
0.0
 11
96.030473096073791
 21
163.3727178088119
 31
0.0
  0
LINE
  5
275
  8
3
 10
100.8304730960738
 20
162.4345768088119
 30
0.0
 11
96.030473096073791
 21
162.4345768088119
 31
0.0
  0
LINE
  5
276
  8
1
 10
90.430473096073797
 20
161.4927188088119
 30
0.0
 11
108.4304730960738
 21
161.4927188088119
 31
0.0
  0
LINE
  5
277
  8
0
 10
101.4304730960738
 20
175.89271880881191
 30
0.0
 11
101.4304730960738
 21
147.0927188088119
 31
0.0
  0
LINE
  5
278
  8
0
 10
100.8304730960738
 20
176.4927188088119
 30
0.0
 11
100.8304730960738
 21
146.4927188088119
 31
0.0
  0
LINE
  5
279
  8
0
 10
96.030473096073791
 20
176.4927188088119
 30
0.0
 11
96.030473096073791
 21
146.4927188088119
 31
0.0
  0
LINE
  5
27A
  8
0
 10
95.430473096073797
 20
175.89271880881191
 30
0.0
 11
95.430473096073797
 21
147.0927188088119
 31
0.0
  0
LINE
  5
27B
  8
0
 10
95.430473096073797
 20
147.0927188088119
 30
0.0
 11
96.030473096073791
 21
146.4927188088119
 31
0.0
  0
LINE
  5
27C
  8
0
 10
96.030473096073791
 20
146.4927188088119
 30
0.0
 11
100.8304730960738
 21
146.4927188088119
 31
0.0
  0
LINE
  5
27D
  8
0
 10
100.8304730960738
 20
146.4927188088119
 30
0.0
 11
101.4304730960738
 21
147.0927188088119
 31
0.0
  0
LINE
  5
27E
  8
0
 10
100.8304730960738
 20
176.4927188088119
 30
0.0
 11
101.4304730960738
 21
175.89271880881191
 31
0.0
  0
LINE
  5
27F
  8
0
 10
96.030473096073791
 20
176.4927188088119
 30
0.0
 11
100.8304730960738
 21
176.4927188088119
 31
0.0
  0
LINE
  5
280
  8
0
 10
95.430473096073797
 20
175.89271880881191
 30
0.0
 11
96.030473096073791
 21
176.4927188088119
 31
0.0
  0
LINE
  5
281
  8
2
 10
96.106973096073773
 20
34.816218808811939
 30
0.0
 11
96.106973096073773
 21
28.169218808811952
 31
0.0
  0
LINE
  5
282
  8
2
 10
95.430473096073769
 20
27.49271880881194
 30
0.0
 11
96.106973096073773
 21
28.169218808811952
 31
0.0
  0
LINE
  5
283
  8
2
 10
96.106973096073773
 20
34.816218808811939
 30
0.0
 11
95.430473096073769
 21
35.492718808811951
 31
0.0
  0
LINE
  5
284
  8
2
 10
96.106973096073773
 20
28.169218808811952
 30
0.0
 11
102.75397309607369
 21
28.169218808811952
 31
0.0
  0
LINE
  5
285
  8
2
 10
102.75397309607369
 20
34.816218808811939
 30
0.0
 11
96.106973096073773
 21
34.816218808811939
 31
0.0
  0
LINE
  5
286
  8
2
 10
102.75397309607369
 20
28.169218808811952
 30
0.0
 11
103.4304730960737
 21
27.49271880881194
 31
0.0
  0
LINE
  5
287
  8
2
 10
103.4304730960737
 20
35.492718808811951
 30
0.0
 11
102.75397309607369
 21
34.816218808811939
 31
0.0
  0
LINE
  5
288
  8
2
 10
102.75397309607369
 20
34.816218808811939
 30
0.0
 11
102.75397309607369
 21
28.169218808811952
 31
0.0
  0
LINE
  5
289
  8
2
 10
95.430473096073769
 20
27.49271880881194
 30
0.0
 11
103.4304730960737
 21
27.49271880881194
 31
0.0
  0
LINE
  5
28A
  8
2
 10
95.430473096073769
 20
35.492718808811951
 30
0.0
 11
103.4304730960737
 21
35.492718808811951
 31
0.0
  0
LINE
  5
28B
  8
0
  6
CONTINUOUS
 62
     0
 10
101.92047309607371
 20
23.49271880881194
 30
0.0
 11
103.4304730960737
 21
23.49271880881194
 31
0.0
  0
ARC
  5
28C
  8
0
  6
CONTINUOUS
 62
     0
 10
101.92047309607371
 20
23.002718808811949
 30
0.0
 40
0.4900000000000003
 50
90.0
 51
180.0
  0
LINE
  5
28D
  8
0
  6
CONTINUOUS
 62
     0
 10
103.4304730960737
 20
39.492718808811951
 30
0.0
 11
101.92047309607371
 21
39.492718808811951
 31
0.0
  0
ARC
  5
28E
  8
0
  6
CONTINUOUS
 62
     0
 10
101.92047309607371
 20
39.982718808811953
 30
0.0
 40
0.4899999999999998
 50
180.0
 51
270.0
  0
LINE
  5
28F
  8
0
  6
CONTINUOUS
 62
     0
 10
103.4304730960737
 20
39.492718808811951
 30
0.0
 11
103.4304730960737
 21
23.49271880881194
 31
0.0
  0
LINE
  5
291
  8
3
 10
100.8304730960738
 20
30.550860808811951
 30
0.0
 11
96.030473096073763
 21
30.550860808811951
 31
0.0
  0
LINE
  5
292
  8
3
 10
100.8304730960738
 20
29.612719808811949
 30
0.0
 11
96.030473096073763
 21
29.612719808811949
 31
0.0
  0
LINE
  5
293
  8
3
 10
100.8304730960738
 20
28.68199880881194
 30
0.0
 11
96.030473096073763
 21
28.68199880881194
 31
0.0
  0
LINE
  5
294
  8
3
 10
100.8304730960738
 20
27.762370808811951
 30
0.0
 11
96.030473096073763
 21
27.762370808811951
 31
0.0
  0
LINE
  5
295
  8
3
 10
100.8304730960738
 20
26.857463808811939
 30
0.0
 11
96.030473096073763
 21
26.857463808811939
 31
0.0
  0
LINE
  5
296
  8
3
 10
100.8304730960738
 20
25.99605580881196
 30
0.0
 11
96.030473096073763
 21
25.99605580881196
 31
0.0
  0
LINE
  5
297
  8
3
 10
100.8304730960738
 20
25.137332808811941
 30
0.0
 11
96.030473096073763
 21
25.137332808811941
 31
0.0
  0
LINE
  5
298
  8
3
 10
100.8304730960738
 20
24.266413808811929
 30
0.0
 11
96.030473096073763
 21
24.266413808811929
 31
0.0
  0
LINE
  5
299
  8
3
 10
100.8304730960738
 20
23.45531680881194
 30
0.0
 11
96.030473096073763
 21
23.45531680881194
 31
0.0
  0
LINE
  5
29A
  8
3
 10
100.8304730960738
 20
22.67593980881195
 30
0.0
 11
96.030473096073763
 21
22.67593980881195
 31
0.0
  0
LINE
  5
29B
  8
3
 10
100.8304730960738
 20
21.93135880881194
 30
0.0
 11
96.030473096073763
 21
21.93135880881194
 31
0.0
  0
LINE
  5
29C
  8
3
 10
100.8304730960738
 20
21.22451180881194
 30
0.0
 11
96.030473096073763
 21
21.22451180881194
 31
0.0
  0
LINE
  5
29D
  8
3
 10
100.8304730960738
 20
16.610997808811941
 30
0.0
 11
96.030473096073763
 21
16.610997808811941
 31
0.0
  0
LINE
  5
29E
  8
3
 10
100.8304730960738
 20
16.644770808811941
 30
0.0
 11
96.030473096073763
 21
16.644770808811941
 31
0.0
  0
LINE
  5
29F
  8
3
 10
100.8304730960738
 20
16.75840980881193
 30
0.0
 11
96.030473096073763
 21
16.75840980881193
 31
0.0
  0
LINE
  5
2A0
  8
3
 10
100.8304730960738
 20
16.963971808811952
 30
0.0
 11
96.030473096073763
 21
16.963971808811952
 31
0.0
  0
LINE
  5
2A1
  8
3
 10
100.8304730960738
 20
17.226870808811949
 30
0.0
 11
96.030473096073763
 21
17.226870808811949
 31
0.0
  0
LINE
  5
2A2
  8
3
 10
100.8304730960738
 20
17.546071808811941
 30
0.0
 11
96.030473096073763
 21
17.546071808811941
 31
0.0
  0
LINE
  5
2A3
  8
3
 10
100.8304730960738
 20
17.920312808811939
 30
0.0
 11
96.030473096073763
 21
17.920312808811939
 31
0.0
  0
LINE
  5
2A4
  8
3
 10
100.8304730960738
 20
18.34811880881195
 30
0.0
 11
96.030473096073763
 21
18.34811880881195
 31
0.0
  0
LINE
  5
2A5
  8
3
 10
100.8304730960738
 20
18.827799808811939
 30
0.0
 11
96.030473096073763
 21
18.827799808811939
 31
0.0
  0
LINE
  5
2A6
  8
3
 10
100.8304730960738
 20
19.357463808811939
 30
0.0
 11
96.030473096073763
 21
19.357463808811939
 31
0.0
  0
LINE
  5
2A7
  8
3
 10
100.8304730960738
 20
19.935019808811941
 30
0.0
 11
96.030473096073763
 21
19.935019808811941
 31
0.0
  0
LINE
  5
2A8
  8
3
 10
100.8304730960738
 20
20.558189808811949
 30
0.0
 11
96.030473096073763
 21
20.558189808811949
 31
0.0
  0
LINE
  5
2A9
  8
3
 10
100.8304730960738
 20
42.427247808811941
 30
0.0
 11
96.030473096073763
 21
42.427247808811941
 31
0.0
  0
LINE
  5
2AA
  8
3
 10
100.8304730960738
 20
43.050417808811922
 30
0.0
 11
96.030473096073763
 21
43.050417808811922
 31
0.0
  0
LINE
  5
2AB
  8
3
 10
100.8304730960738
 20
43.627973808811937
 30
0.0
 11
96.030473096073763
 21
43.627973808811937
 31
0.0
  0
LINE
  5
2AC
  8
3
 10
100.8304730960738
 20
44.157637808811941
 30
0.0
 11
96.030473096073763
 21
44.157637808811941
 31
0.0
  0
LINE
  5
2AD
  8
3
 10
100.8304730960738
 20
44.637318808811933
 30
0.0
 11
96.030473096073763
 21
44.637318808811933
 31
0.0
  0
LINE
  5
2AE
  8
3
 10
100.8304730960738
 20
45.065124808811937
 30
0.0
 11
96.030473096073763
 21
45.065124808811937
 31
0.0
  0
LINE
  5
2AF
  8
3
 10
100.8304730960738
 20
45.439365808811928
 30
0.0
 11
96.030473096073763
 21
45.439365808811928
 31
0.0
  0
LINE
  5
2B0
  8
3
 10
100.8304730960738
 20
45.758566808811942
 30
0.0
 11
96.030473096073763
 21
45.758566808811942
 31
0.0
  0
LINE
  5
2B1
  8
3
 10
100.8304730960738
 20
46.021465808811953
 30
0.0
 11
96.030473096073763
 21
46.021465808811953
 31
0.0
  0
LINE
  5
2B2
  8
3
 10
100.8304730960738
 20
46.227027808811933
 30
0.0
 11
96.030473096073763
 21
46.227027808811933
 31
0.0
  0
LINE
  5
2B3
  8
3
 10
100.8304730960738
 20
46.340666808811939
 30
0.0
 11
96.030473096073763
 21
46.340666808811939
 31
0.0
  0
LINE
  5
2B4
  8
3
 10
100.8304730960738
 20
46.374439808811942
 30
0.0
 11
96.030473096073763
 21
46.374439808811942
 31
0.0
  0
LINE
  5
2B5
  8
3
 10
100.8304730960738
 20
41.760925808811962
 30
0.0
 11
96.030473096073763
 21
41.760925808811962
 31
0.0
  0
LINE
  5
2B6
  8
3
 10
100.8304730960738
 20
41.054078808811951
 30
0.0
 11
96.030473096073763
 21
41.054078808811951
 31
0.0
  0
LINE
  5
2B7
  8
3
 10
100.8304730960738
 20
40.30949780881194
 30
0.0
 11
96.030473096073763
 21
40.30949780881194
 31
0.0
  0
LINE
  5
2B8
  8
3
 10
100.8304730960738
 20
39.530120808811958
 30
0.0
 11
96.030473096073763
 21
39.530120808811958
 31
0.0
  0
LINE
  5
2B9
  8
3
 10
100.8304730960738
 20
38.71902380881194
 30
0.0
 11
96.030473096073763
 21
38.71902380881194
 31
0.0
  0
LINE
  5
2BA
  8
3
 10
100.8304730960738
 20
37.848104808811946
 30
0.0
 11
96.030473096073763
 21
37.848104808811946
 31
0.0
  0
LINE
  5
2BB
  8
3
 10
100.8304730960738
 20
36.989381808811927
 30
0.0
 11
96.030473096073763
 21
36.989381808811927
 31
0.0
  0
LINE
  5
2BC
  8
3
 10
100.8304730960738
 20
36.127973808811952
 30
0.0
 11
96.030473096073763
 21
36.127973808811952
 31
0.0
  0
LINE
  5
2BD
  8
3
 10
100.8304730960738
 20
35.223066808811943
 30
0.0
 11
96.030473096073763
 21
35.223066808811943
 31
0.0
  0
LINE
  5
2BE
  8
3
 10
100.8304730960738
 20
34.303438808811947
 30
0.0
 11
96.030473096073763
 21
34.303438808811947
 31
0.0
  0
LINE
  5
2BF
  8
3
 10
100.8304730960738
 20
33.372717808811942
 30
0.0
 11
96.030473096073763
 21
33.372717808811942
 31
0.0
  0
LINE
  5
2C0
  8
3
 10
100.8304730960738
 20
32.43457680881194
 30
0.0
 11
96.030473096073763
 21
32.43457680881194
 31
0.0
  0
LINE
  5
2C1
  8
1
 10
90.430473096073769
 20
31.49271880881194
 30
0.0
 11
108.4304730960737
 21
31.49271880881194
 31
0.0
  0
LINE
  5
2C2
  8
0
 10
101.4304730960738
 20
45.892718808811942
 30
0.0
 11
101.4304730960738
 21
17.092718808811941
 31
0.0
  0
LINE
  5
2C3
  8
0
 10
100.8304730960738
 20
46.492718808811937
 30
0.0
 11
100.8304730960738
 21
16.49271880881194
 31
0.0
  0
LINE
  5
2C4
  8
0
 10
96.030473096073763
 20
46.492718808811937
 30
0.0
 11
96.030473096073763
 21
16.49271880881194
 31
0.0
  0
LINE
  5
2C5
  8
0
 10
95.430473096073769
 20
45.892718808811942
 30
0.0
 11
95.430473096073769
 21
17.092718808811941
 31
0.0
  0
LINE
  5
2C6
  8
0
 10
95.430473096073769
 20
17.092718808811941
 30
0.0
 11
96.030473096073763
 21
16.49271880881194
 31
0.0
  0
LINE
  5
2C7
  8
0
 10
96.030473096073763
 20
16.49271880881194
 30
0.0
 11
100.8304730960738
 21
16.49271880881194
 31
0.0
  0
LINE
  5
2C8
  8
0
 10
100.8304730960738
 20
16.49271880881194
 30
0.0
 11
101.4304730960738
 21
17.092718808811941
 31
0.0
  0
LINE
  5
2C9
  8
0
 10
100.8304730960738
 20
46.492718808811937
 30
0.0
 11
101.4304730960738
 21
45.892718808811942
 31
0.0
  0
LINE
  5
2CA
  8
0
 10
96.030473096073763
 20
46.492718808811937
 30
0.0
 11
100.8304730960738
 21
46.492718808811937
 31
0.0
  0
LINE
  5
2CB
  8
0
 10
95.430473096073769
 20
45.892718808811942
 30
0.0
 11
96.030473096073763
 21
46.492718808811937
 31
0.0
  0
TEXT
  5
40A
  8
0
 62
     3
 10
0.0
 20
0.0
 30
0.0
 40
10.0
  1
TKN8SL-SUS
  7
STANDARD1
  0
ENDSEC
  0
EOF
