  0
SECTION
  2
HEADER
  9
$ACADVER
  1
AC1009
  9
$INSBASE
 10
0.0
 20
0.0
 30
0.0
  9
$EXTMIN
 10
0.0
 20
-2.960436562073669
 30
0.0
  9
$EXTMAX
 10
177.8401768082594
 20
178.07128298673189
 30
0.0
  9
$LIMMIN
 10
0.0
 20
0.0
  9
$LIMMAX
 10
187.5
 20
135.0
  9
$ORTHOMODE
 70
     1
  9
$REGENMODE
 70
     1
  9
$FILLMODE
 70
     1
  9
$QTEXTMODE
 70
     0
  9
$MIRRTEXT
 70
     0
  9
$DRAGMODE
 70
     2
  9
$LTSCALE
 40
10.0
  9
$OSMODE
 70
    37
  9
$ATTMODE
 70
     1
  9
$TEXTSIZE
 40
4.000000000000048
  9
$TRACEWID
 40
0.05
  9
$TEXTSTYLE
  7
STANDARD
  9
$CLAYER
  8
0
  9
$CELTYPE
  6
BYLAYER
  9
$CECOLOR
 62
   256
  9
$DIMSCALE
 40
1.0
  9
$DIMASZ
 40
3.0
  9
$DIMEXO
 40
2.0
  9
$DIMDLI
 40
0.38
  9
$DIMRND
 40
0.0
  9
$DIMDLE
 40
0.0
  9
$DIMEXE
 40
2.0
  9
$DIMTP
 40
0.0
  9
$DIMTM
 40
0.0
  9
$DIMTXT
 40
3.2000000000000002
  9
$DIMCEN
 40
0.09
  9
$DIMTSZ
 40
0.0
  9
$DIMTOL
 70
     0
  9
$DIMLIM
 70
     0
  9
$DIMTIH
 70
     0
  9
$DIMTOH
 70
     0
  9
$DIMSE1
 70
     0
  9
$DIMSE2
 70
     0
  9
$DIMTAD
 70
     1
  9
$DIMZIN
 70
     8
  9
$DIMBLK
  1

  9
$DIMASO
 70
     1
  9
$DIMSHO
 70
     0
  9
$DIMPOST
  1

  9
$DIMAPOST
  1

  9
$DIMALT
 70
     0
  9
$DIMALTD
 70
     2
  9
$DIMALTF
 40
25.399999999999999
  9
$DIMLFAC
 40
1.0
  9
$DIMTOFL
 70
     0
  9
$DIMTVP
 40
1.6000000000000001
  9
$DIMTIX
 70
     1
  9
$DIMSOXD
 70
     0
  9
$DIMSAH
 70
     0
  9
$DIMBLK1
  1

  9
$DIMBLK2
  1

  9
$DIMSTYLE
  2
STANDARD
  9
$DIMCLRD
 70
     0
  9
$DIMCLRE
 70
     0
  9
$DIMCLRT
 70
     0
  9
$DIMTFAC
 40
1.0
  9
$DIMGAP
 40
0.09
  9
$LUNITS
 70
     2
  9
$LUPREC
 70
     1
  9
$SKETCHINC
 40
0.1
  9
$FILLETRAD
 40
1.8999999999999999
  9
$AUNITS
 70
     0
  9
$AUPREC
 70
     0
  9
$MENU
  1
E:\r13\win\SUPPORT\ACAD
  9
$ELEVATION
 40
0.0
  9
$PELEVATION
 40
0.0
  9
$THICKNESS
 40
0.0
  9
$LIMCHECK
 70
     0
  9
$BLIPMODE
 70
     0
  9
$CHAMFERA
 40
0.0
  9
$CHAMFERB
 40
0.0
  9
$SKPOLY
 70
     0
  9
$TDCREATE
 40
2451582.7089806711
  9
$TDUPDATE
 40
2458183.588530648
  9
$TDINDWG
 40
0.2049180903
  9
$TDUSRTIMER
 40
0.2049180903
  9
$USRTIMER
 70
     1
  9
$ANGBASE
 50
0.0
  9
$ANGDIR
 70
     0
  9
$PDMODE
 70
     0
  9
$PDSIZE
 40
0.0
  9
$PLINEWID
 40
0.0
  9
$COORDS
 70
     1
  9
$SPLFRAME
 70
     0
  9
$SPLINETYPE
 70
     6
  9
$SPLINESEGS
 70
     8
  9
$ATTDIA
 70
     0
  9
$ATTREQ
 70
     1
  9
$HANDLING
 70
     1
  9
$HANDSEED
  5
1C50
  9
$SURFTAB1
 70
     6
  9
$SURFTAB2
 70
     6
  9
$SURFTYPE
 70
     6
  9
$SURFU
 70
     6
  9
$SURFV
 70
     6
  9
$UCSNAME
  2

  9
$UCSORG
 10
0.0
 20
0.0
 30
0.0
  9
$UCSXDIR
 10
1.0
 20
0.0
 30
0.0
  9
$UCSYDIR
 10
0.0
 20
1.0
 30
0.0
  9
$PUCSNAME
  2

  9
$PUCSORG
 10
0.0
 20
0.0
 30
0.0
  9
$PUCSXDIR
 10
1.0
 20
0.0
 30
0.0
  9
$PUCSYDIR
 10
0.0
 20
1.0
 30
0.0
  9
$USERI1
 70
     0
  9
$USERI2
 70
     1
  9
$USERI3
 70
     1
  9
$USERI4
 70
     0
  9
$USERI5
 70
     0
  9
$USERR1
 40
0.0
  9
$USERR2
 40
0.0
  9
$USERR3
 40
0.0
  9
$USERR4
 40
0.0
  9
$USERR5
 40
0.0
  9
$WORLDVIEW
 70
     1
  9
$SHADEDGE
 70
     3
  9
$SHADEDIF
 70
    70
  9
$TILEMODE
 70
     1
  9
$MAXACTVP
 70
    16
  9
$PLIMCHECK
 70
     0
  9
$PEXTMIN
 10
1.0000000000000000E+020
 20
1.0000000000000000E+020
 30
1.0000000000000000E+020
  9
$PEXTMAX
 10
-1.0000000000000000E+020
 20
-1.0000000000000000E+020
 30
-1.0000000000000000E+020
  9
$PLIMMIN
 10
0.0
 20
0.0
  9
$PLIMMAX
 10
12.0
 20
9.0
  9
$UNITMODE
 70
     0
  9
$VISRETAIN
 70
     0
  9
$PLINEGEN
 70
     0
  9
$PSLTSCALE
 70
     0
  0
ENDSEC
  0
SECTION
  2
TABLES
  0
TABLE
  2
VPORT
 70
     1
  0
VPORT
  2
*ACTIVE
 70
     0
 10
0.0
 20
0.0
 11
1.0
 21
1.0
 12
172.54273504273499
 22
95.0
 13
0.0
 23
0.0
 14
5.0
 24
5.0
 15
5.0
 25
5.0
 16
0.0
 26
0.0
 36
1.0
 17
0.0
 27
0.0
 37
0.0
 40
190.0
 41
1.816239316239316
 42
50.0
 43
0.0
 44
0.0
 50
0.0
 51
0.0
 71
     0
 72
   500
 73
     1
 74
     0
 75
     0
 76
     0
 77
     0
 78
     2
  0
ENDTAB
  0
TABLE
  2
LTYPE
 70
     4
  0
LTYPE
  2
CONTINUOUS
 70
     0
  3
Solid Line
 72
    65
 73
     0
 40
0.0
  0
LTYPE
  2
CENTER
 70
     0
  3
____ _ ____ _ ____ _ ____ _ ____ _ ____ _ ____
 72
    65
 73
     4
 40
2.0
 49
1.25
 49
-0.25
 49
0.25
 49
-0.25
  0
LTYPE
  2
HIDDEN
 70
     0
  3
_ _ _ _ _ _ _ _ _ _ _ _ _ _ _ _ _ _ _ _ _ _ _
 72
    65
 73
     2
 40
0.375
 49
0.25
 49
-0.125
  0
LTYPE
  2
PHANTOM2
 70
     0
  3
___ _ _ ___ _ _ ___ _ _ ___ _ _
 72
    65
 73
     6
 40
1.25
 49
0.625
 49
-0.125
 49
0.125
 49
-0.125
 49
0.125
 49
-0.125
  0
ENDTAB
  0
TABLE
  2
LAYER
 70
     4
  0
LAYER
  2
0
 70
     0
 62
     7
  6
CONTINUOUS
  0
LAYER
  2
1
 70
     0
 62
     1
  6
CENTER
  0
LAYER
  2
2
 70
     0
 62
     2
  6
HIDDEN
  0
LAYER
  2
DEFPOINTS
 70
     0
 62
     7
  6
CONTINUOUS
  0
ENDTAB
  0
TABLE
  2
STYLE
 70
     2
  0
STYLE
  2
STANDARD
 70
     0
 40
0.0
 41
1.0
 50
0.0
 71
     0
 42
4.000000000000048
  3
TXT
  4
BIGFONT
  0
STYLE
  2
STANDARD1
 70
     0
 40
0.0
 41
1.0
 50
0.0
 71
     0
 42
3.0
  3
txt
  4

  0
ENDTAB
  0
TABLE
  2
VIEW
 70
     2
  0
VIEW
  2
ALL
 70
     0
 40
135.0
 10
110.4957983193277
 20
67.5
 41
0.0
 11
0.0
 21
0.0
 31
1.0
 12
0.0
 22
0.0
 32
0.0
 42
0.0
 43
0.0
 44
0.0
 50
0.0
 71
     0
  0
VIEW
  2
OLE1
 70
     0
 40
235.2079806749349
 10
722.79185871078926
 20
95.257412002191856
 41
302.2278937573451
 11
0.0
 21
0.0
 31
1.0
 12
0.0
 22
0.0
 32
0.0
 42
50.0
 43
0.0
 44
0.0
 50
0.0
 71
     0
  0
ENDTAB
  0
TABLE
  2
UCS
 70
     0
  0
ENDTAB
  0
TABLE
  2
APPID
 70
    44
  0
APPID
  2
ACAD
 70
     0
  0
APPID
  2
ACAD_MLEADERVER
 70
     0
  0
APPID
  2
ACAD_NAV_VCDISPLAY
 70
     0
  0
APPID
  2
ACAD_DSTYLE_DIMJAG
 70
     0
  0
APPID
  2
ACAD_DSTYLE_DIMTALN
 70
     0
  0
APPID
  2
ACAD_EXEMPT_FROM_CAD_STANDARDS
 70
     0
  0
APPID
  2
GENIUS_GENODEF_13
 70
     0
  0
APPID
  2
GENIUS_GENFIL_13
 70
     0
  0
APPID
  2
GENIUS_GENOBJ-N-CHA_13
 70
     0
  0
APPID
  2
ACAD_DSTYLE_DIMRADIAL_EXTENSION
 70
     0
  0
APPID
  2
GENIUS_GENOREF_13
 70
     0
  0
APPID
  2
DCO15
 70
     0
  0
APPID
  2
GENIUS_GENOENT_13
 70
     0
  0
APPID
  2
GENIUS_GENBH_13
 70
     0
  0
APPID
  2
GENIUS_GENOBJ_13
 70
     0
  0
APPID
  2
GENIUS_GENOLIS_13
 70
     0
  0
APPID
  2
GENIUS_GENOBJ-NBEHI-BHF_13
 70
     0
  0
APPID
  2
GENIUS_GENOBJ-NBEHI-BHB_13
 70
     0
  0
APPID
  2
GENIUS_GENOBJ-F-PART_13
 70
     0
  0
APPID
  2
GENIUS_GEFSTDP_13
 70
     0
  0
APPID
  2
GENIUS_GENOBJ-N-RSSYM_13
 70
     0
  0
APPID
  2
GENIUS_GENSYMENT_13
 70
     0
  0
APPID
  2
GENIUS_GENOBJ-N-TIT_13
 70
     0
  0
APPID
  2
GENIUS_GENTITLE_13
 70
     0
  0
APPID
  2
GENIUS_GENZVEED_13
 70
     0
  0
APPID
  2
GENIUS_GENOBJ-N-LEADER_13
 70
     0
  0
APPID
  2
GENIUS_GENOBJ-N-FIL_13
 70
     0
  0
APPID
  2
GENIUS_GENOBJ-N-SEC_13
 70
     0
  0
APPID
  2
GENIUS_GENOBJ-N-CRS_13
 70
     0
  0
APPID
  2
GENIUS_GENOBJ-N-ZOO_13
 70
     0
  0
APPID
  2
GENIUS_GENZOO_13
 70
     0
  0
APPID
  2
GENIUS_GENOBJ-F-TOL_13
 70
     0
  0
APPID
  2
_CALL_MAC$
 70
     0
  0
APPID
  2
ASM_BASE
 70
     0
  0
APPID
  2
ASM_EXPLO_VER_2_00
 70
     0
  0
APPID
  2
ASM_CADM_VER_12_00
 70
     0
  0
APPID
  2
ASM_BASEFORO
 70
     0
  0
APPID
  2
ASM_BASETRAVI
 70
     0
  0
APPID
  2
ASM_BASETRAVI1
 70
     0
  0
APPID
  2
ASM_GRUPPI
 70
     0
  0
APPID
  2
ASM_CADM_ALBERO
 70
     0
  0
APPID
  2
ASM_GOLE
 70
     0
  0
APPID
  2
GENIUS_GENOBJ-N-CEN_13
 70
     0
  0
APPID
  2
GENIUS_GENCEN_19
 70
     0
  0
ENDTAB
  0
TABLE
  2
DIMSTYLE
 70
     1
  0
DIMSTYLE
  2
STANDARD
 70
     0
  3

  4

  5

  6

  7

 40
1.0
 41
0.18
 42
0.0625
 43
0.38
 44
0.18
 45
0.0
 46
0.0
 47
0.0
 48
0.0
140
0.18
141
0.09
142
0.0
143
25.399999999999999
144
1.0
145
0.0
146
1.0
147
0.09
 71
     0
 72
     0
 73
     1
 74
     1
 75
     0
 76
     0
 77
     0
 78
     0
170
     0
171
     2
172
     0
173
     0
174
     0
175
     0
176
     0
177
     0
178
     0
  0
ENDTAB
  0
ENDSEC
  0
SECTION
  2
BLOCKS
  0
BLOCK
  8
0
  2
$MODEL_SPACE
 70
     0
 10
0.0
 20
0.0
 30
0.0
  3
$MODEL_SPACE
  1

  0
ENDBLK
  5
968
  8
0
  0
BLOCK
 67
     1
  8
0
  2
$PAPER_SPACE
 70
     0
 10
0.0
 20
0.0
 30
0.0
  3
$PAPER_SPACE
  1

  0
ENDBLK
  5
966
 67
     1
  8
0
  0
ENDSEC
  0
SECTION
  2
ENTITIES
  0
TEXT
  5
1476
  8
0
 62
     3
 10
0.0
 20
0.0
 30
0.0
 40
10.0
  1
TK60A
  7
STANDARD1
  0
POLYLINE
  5
15F0
  8
0
 66
     1
 10
0.0
 20
0.0
 30
0.0
  0
VERTEX
  5
1BBF
  8
0
 10
91.968893821528127
 20
128.0712829867314
 30
0.0
  0
VERTEX
  5
1BC0
  8
0
 10
89.773604040171904
 20
126.82707265252689
 30
0.0
  0
VERTEX
  5
1BC1
  8
0
 10
87.515627865163424
 20
125.6924145403342
 30
0.0
  0
VERTEX
  5
1BC2
  8
0
 10
85.20353316178489
 20
124.67194344164891
 30
0.0
  0
VERTEX
  5
1BC3
  8
0
 10
82.783857258448506
 20
123.7478548089707
 30
0.0
  0
VERTEX
  5
1BC4
  8
0
 10
80.316849879822485
 20
122.9479916246911
 30
0.0
  0
VERTEX
  5
1BC5
  8
0
 10
77.812503311831506
 20
122.27582485585241
 30
0.0
  0
VERTEX
  5
1BC6
  8
0
 10
75.109012362181133
 20
121.702444871563
 30
0.0
  0
VERTEX
  5
1BC7
  8
0
 10
72.375161550712605
 20
121.2772607981605
 30
0.0
  0
VERTEX
  5
1BC8
  8
0
 10
69.623633952244518
 20
121.0023782073838
 30
0.0
  0
VERTEX
  5
1BC9
  8
0
 10
66.779524421345059
 20
120.8777603653333
 30
0.0
  0
VERTEX
  5
1BCA
  8
0
 10
63.930475970377529
 20
120.9135145689996
 30
0.0
  0
VERTEX
  5
1BCB
  8
0
 10
61.090526132235482
 20
121.1094530247976
 30
0.0
  0
VERTEX
  5
1BCC
  8
0
 10
58.361590155366692
 20
121.4510173562812
 30
0.0
  0
VERTEX
  5
1BCD
  8
0
 10
55.653958216996898
 20
121.9407517235599
 30
0.0
  0
VERTEX
  5
1BCE
  8
0
 10
52.980047173178491
 20
122.57625774852769
 30
0.0
  0
VERTEX
  5
1BCF
  8
0
 10
50.270533758422062
 20
123.3811272015907
 30
0.0
  0
VERTEX
  5
1BD0
  8
0
 10
47.609699802133953
 20
124.33636616554161
 30
0.0
  0
VERTEX
  5
1BD1
  8
0
 10
45.010317885430588
 20
125.4370578546756
 30
0.0
  0
VERTEX
  5
1BD2
  8
0
 10
42.47483007074765
 20
126.6825362662
 30
0.0
  0
VERTEX
  5
1BD3
  8
0
 10
40.007369594461807
 20
128.07128298673231
 30
0.0
  0
SEQEND
  5
1BD4
  8
0
  0
POLYLINE
  5
15F1
  8
0
 66
     1
 10
0.0
 20
0.0
 30
0.0
  0
VERTEX
  5
1BD5
  8
0
 10
65.988131707994626
 20
173.071282986732
 30
0.0
  0
VERTEX
  5
1BD6
  8
0
 10
68.163294815038626
 20
171.79221114861809
 30
0.0
  0
VERTEX
  5
1BD7
  8
0
 10
70.274926083471655
 20
170.40407514390591
 30
0.0
  0
VERTEX
  5
1BD8
  8
0
 10
72.31472772821985
 20
168.91197756926559
 30
0.0
  0
VERTEX
  5
1BD9
  8
0
 10
74.324850301860806
 20
167.27852063987379
 30
0.0
  0
VERTEX
  5
1BDA
  8
0
 10
76.251056176885413
 20
165.54196068339439
 30
0.0
  0
VERTEX
  5
1BDB
  8
0
 10
78.085343259647516
 20
163.70921579486361
 30
0.0
  0
VERTEX
  5
1BDC
  8
0
 10
79.933650225618734
 20
161.65461382624861
 30
0.0
  0
VERTEX
  5
1BDD
  8
0
 10
81.668795692472258
 20
159.49962149885809
 30
0.0
  0
VERTEX
  5
1BDE
  8
0
 10
83.282614644943123
 20
157.25416989233139
 30
0.0
  0
VERTEX
  5
1BDF
  8
0
 10
84.812591463711897
 20
154.85340761279991
 30
0.0
  0
VERTEX
  5
1BE0
  8
0
 10
86.206151471778867
 20
152.36818208999131
 30
0.0
  0
VERTEX
  5
1BE1
  8
0
 10
87.456438537634767
 20
149.81074408117689
 30
0.0
  0
VERTEX
  5
1BE2
  8
0
 10
88.525102969741283
 20
147.2766339649832
 30
0.0
  0
VERTEX
  5
1BE3
  8
0
 10
89.454796363897913
 20
144.68688867901719
 30
0.0
  0
VERTEX
  5
1BE4
  8
0
 10
90.241387349298066
 20
142.05346072537191
 30
0.0
  0
VERTEX
  5
1BE5
  8
0
 10
90.899106481449493
 20
139.304518509236
 30
0.0
  0
VERTEX
  5
1BE6
  8
0
 10
91.402262066073504
 20
136.52254919595109
 30
0.0
  0
VERTEX
  5
1BE7
  8
0
 10
91.748725874896536
 20
133.72107255816849
 30
0.0
  0
VERTEX
  5
1BE8
  8
0
 10
91.937853587859536
 20
130.90253813526431
 30
0.0
  0
VERTEX
  5
1BE9
  8
0
 10
91.968893821528127
 20
128.0712829867314
 30
0.0
  0
SEQEND
  5
1BEA
  8
0
  0
POLYLINE
  5
15F2
  8
0
 66
     1
 10
0.0
 20
0.0
 30
0.0
  0
VERTEX
  5
1BEB
  8
0
 10
40.007369594461807
 20
128.07128298673231
 30
0.0
  0
VERTEX
  5
1BEC
  8
0
 10
40.027496858922852
 20
130.5945688161957
 30
0.0
  0
VERTEX
  5
1BED
  8
0
 10
40.173842721979547
 20
133.1173665348694
 30
0.0
  0
VERTEX
  5
1BEE
  8
0
 10
40.446137095686709
 20
135.62993871232709
 30
0.0
  0
VERTEX
  5
1BEF
  8
0
 10
40.855692198744457
 20
138.18748791825109
 30
0.0
  0
VERTEX
  5
1BF0
  8
0
 10
41.39649585810912
 20
140.7239145501544
 30
0.0
  0
VERTEX
  5
1BF1
  8
0
 10
42.066557862626503
 20
143.22882950056109
 30
0.0
  0
VERTEX
  5
1BF2
  8
0
 10
42.921742974576773
 20
145.85681087740591
 30
0.0
  0
VERTEX
  5
1BF3
  8
0
 10
43.920449412411017
 20
148.4369866394787
 30
0.0
  0
VERTEX
  5
1BF4
  8
0
 10
45.058159111293662
 20
150.9573201388319
 30
0.0
  0
VERTEX
  5
1BF5
  8
0
 10
46.372292860585951
 20
153.48269947994169
 30
0.0
  0
VERTEX
  5
1BF6
  8
0
 10
47.827782292048362
 20
155.93216996047269
 30
0.0
  0
VERTEX
  5
1BF7
  8
0
 10
49.417445999413978
 20
158.29366862153901
 30
0.0
  0
VERTEX
  5
1BF8
  8
0
 10
51.077718426274707
 20
160.48621352684049
 30
0.0
  0
VERTEX
  5
1BF9
  8
0
 10
52.855657801658033
 20
162.58622351788671
 30
0.0
  0
VERTEX
  5
1BFA
  8
0
 10
54.742978636398441
 20
164.5841444753774
 30
0.0
  0
VERTEX
  5
1BFB
  8
0
 10
56.794773656958107
 20
166.5282161953904
 30
0.0
  0
VERTEX
  5
1BFC
  8
0
 10
58.952452704568252
 20
168.35494546150409
 30
0.0
  0
VERTEX
  5
1BFD
  8
0
 10
61.205371423338867
 20
170.0557292926193
 30
0.0
  0
VERTEX
  5
1BFE
  8
0
 10
63.551721821134599
 20
171.6287793809631
 30
0.0
  0
VERTEX
  5
1BFF
  8
0
 10
65.988131707994626
 20
173.071282986732
 30
0.0
  0
SEQEND
  5
1C00
  8
0
  0
CIRCLE
  5
15F3
  8
0
 10
65.98813170799508
 20
143.071282986732
 30
0.0
 40
9.3854782353958992
  0
LINE
  5
15F5
  8
1
 10
100.988131707995
 20
143.07128298673189
 30
0.0
 11
30.98813170799508
 21
143.07128298673189
 31
0.0
  0
LINE
  5
15F6
  8
1
 10
65.98813170799508
 20
178.07128298673189
 30
0.0
 11
65.98813170799508
 21
108.0712829867319
 31
0.0
  0
LINE
  5
15F8
  8
2
 10
70.176131707994955
 20
40.811999999999998
 30
0.0
 11
70.176131707994955
 21
56.000000000000021
 31
0.0
  0
LINE
  5
15F9
  8
2
 10
61.800131707995199
 20
56.000000000000021
 30
0.0
 11
61.800131707995199
 21
40.811999999999998
 31
0.0
  0
LINE
  5
15FA
  8
2
 10
61.800131707995199
 20
40.811999999999998
 30
0.0
 11
70.176131707994955
 21
40.811999999999998
 31
0.0
  0
LINE
  5
15FB
  8
2
 10
61.800131707995199
 20
40.811999999999998
 30
0.0
 11
60.988131707995301
 21
40.0
 31
0.0
  0
LINE
  5
15FC
  8
2
 10
70.988131707994853
 20
40.0
 30
0.0
 11
70.176131707994955
 21
40.811999999999998
 31
0.0
  0
LINE
  5
15FD
  8
0
 10
59.488131707995308
 20
40.0
 30
0.0
 11
72.488131707994853
 21
40.0
 31
0.0
  0
LINE
  5
15FE
  8
0
 10
72.488131707994853
 20
40.0
 30
0.0
 11
72.488131707994853
 21
40.20000000000001
 31
0.0
  0
LINE
  5
15FF
  8
0
 10
59.488131707995308
 20
40.20000000000001
 30
0.0
 11
59.488131707995308
 21
40.0
 31
0.0
  0
LINE
  5
1601
  8
2
 10
60.98813170799508
 20
56.000000000000021
 30
0.0
 11
70.98813170799508
 21
56.000000000000021
 31
0.0
  0
LINE
  5
1607
  8
0
 10
54.98813170799508
 20
40.199999999999982
 30
0.0
 11
76.988131707994853
 21
40.199999999999982
 31
0.0
  0
LINE
  5
1608
  8
0
 10
76.988131707994853
 20
40.199999999999982
 30
0.0
 11
76.988131707994853
 21
61.999999999999993
 31
0.0
  0
LINE
  5
1609
  8
0
 10
54.98813170799508
 20
61.999999999999993
 30
0.0
 11
54.98813170799508
 21
40.199999999999982
 31
0.0
  0
LINE
  5
160A
  8
0
 10
40.0
 20
78.351388694057235
 30
0.0
 11
40.0
 21
62.000000000000021
 31
0.0
  0
POLYLINE
  5
160B
  8
0
 66
     1
 10
0.0
 20
0.0
 30
0.0
  0
VERTEX
  5
1C01
  8
0
 10
40.00000000026921
 20
78.351388696570581
 30
0.0
  0
VERTEX
  5
1C02
  8
0
 10
40.010418165000146
 20
78.448651285720189
 30
0.0
  0
VERTEX
  5
1C03
  8
0
 10
40.084064725966748
 20
78.618003476080816
 30
0.0
  0
VERTEX
  5
1C04
  8
0
 10
40.22942615704482
 20
78.7754351298193
 30
0.0
  0
VERTEX
  5
1C05
  8
0
 10
40.446137095686709
 20
78.919810514744086
 30
0.0
  0
VERTEX
  5
1C06
  8
0
 10
40.739915303226319
 20
79.053270687763472
 30
0.0
  0
VERTEX
  5
1C07
  8
0
 10
41.107097286061162
 20
79.173007437581745
 30
0.0
  0
VERTEX
  5
1C08
  8
0
 10
41.550206755444371
 20
79.279558573374771
 30
0.0
  0
VERTEX
  5
1C09
  8
0
 10
42.020537507857391
 20
79.364907088385195
 30
0.0
  0
SEQEND
  5
1C0A
  8
0
  0
LINE
  5
160D
  8
0
 10
91.976263415990175
 20
62.000000000000021
 30
0.0
 11
91.976263415990175
 21
78.35139816691904
 31
0.0
  0
LINE
  5
160E
  8
0
 10
91.976263415945823
 20
78.351398167693105
 30
0.0
 11
91.968893821528354
 21
78.266666666666566
 31
0.0
  0
LINE
  5
160F
  8
0
 10
91.976263415990175
 20
62.000000000000021
 30
0.0
 11
40.0
 21
62.000000000000021
 31
0.0
  0
LINE
  5
1610
  8
0
 10
91.968893821528354
 20
78.266666666666566
 30
0.0
 11
91.968893821528127
 21
61.999999999999957
 31
0.0
  0
LINE
  5
1611
  8
0
 10
40.007369594461807
 20
78.266666666665145
 30
0.0
 11
40.007369594461807
 21
61.999999999999957
 31
0.0
  0
POLYLINE
  5
1612
  8
0
 66
     1
 10
0.0
 20
0.0
 30
0.0
  0
VERTEX
  5
1C0B
  8
0
 10
91.968893821528354
 20
78.266666666666566
 30
0.0
  0
VERTEX
  5
1C0C
  8
0
 10
89.773604040172131
 20
78.507097023031321
 30
0.0
  0
VERTEX
  5
1C0D
  8
0
 10
87.515627865163424
 20
78.725013174782944
 30
0.0
  0
VERTEX
  5
1C0E
  8
0
 10
85.20353316178489
 20
78.919809655491775
 30
0.0
  0
VERTEX
  5
1C0F
  8
0
 10
83.393603883759837
 20
79.053588514530873
 30
0.0
  0
VERTEX
  5
1C10
  8
0
 10
81.555645485676436
 20
79.173656577498747
 30
0.0
  0
VERTEX
  5
1C11
  8
0
 10
79.693873463158752
 20
79.279877992492771
 30
0.0
  0
VERTEX
  5
1C12
  8
0
 10
77.812503311831506
 20
79.372116907610405
 30
0.0
  0
VERTEX
  5
1C13
  8
0
 10
75.788226769249377
 20
79.455019406459428
 30
0.0
  0
VERTEX
  5
1C14
  8
0
 10
73.74508924699785
 20
79.522176850302202
 30
0.0
  0
VERTEX
  5
1C15
  8
0
 10
71.688441417266631
 20
79.573548498571029
 30
0.0
  0
VERTEX
  5
1C16
  8
0
 10
69.623633952244518
 20
79.609093610698324
 30
0.0
  0
VERTEX
  5
1C17
  8
0
 10
67.491563168955054
 20
79.629174977241775
 30
0.0
  0
VERTEX
  5
1C18
  8
0
 10
65.354740215064112
 20
79.632564009903518
 30
0.0
  0
VERTEX
  5
1C19
  8
0
 10
63.219087174760951
 20
79.619262581640527
 30
0.0
  0
VERTEX
  5
1C1A
  8
0
 10
61.090526132235482
 20
79.589272565409857
 30
0.0
  0
VERTEX
  5
1C1B
  8
0
 10
59.042311929414147
 20
79.544373609489583
 30
0.0
  0
VERTEX
  5
1C1C
  8
0
 10
57.00433512786617
 20
79.483799218179968
 30
0.0
  0
VERTEX
  5
1C1D
  8
0
 10
54.981834088738417
 20
79.407602587124714
 30
0.0
  0
VERTEX
  5
1C1E
  8
0
 10
52.980047173178491
 20
79.315836911967594
 30
0.0
  0
VERTEX
  5
1C1F
  8
0
 10
50.943847341829724
 20
79.205051394010525
 30
0.0
  0
VERTEX
  5
1C20
  8
0
 10
48.933233561649779
 20
79.077654550100533
 30
0.0
  0
VERTEX
  5
1C21
  8
0
 10
46.95359426529717
 20
78.933857415732234
 30
0.0
  0
VERTEX
  5
1C22
  8
0
 10
45.010317885430588
 20
78.773871026400144
 30
0.0
  0
VERTEX
  5
1C23
  8
0
 10
43.733589282774339
 20
78.657984564946275
 30
0.0
  0
VERTEX
  5
1C24
  8
0
 10
42.47483007074765
 20
78.534933946647584
 30
0.0
  0
VERTEX
  5
1C25
  8
0
 10
41.231069792575681
 20
78.404343006275383
 30
0.0
  0
VERTEX
  5
1C26
  8
0
 10
40.007369594461807
 20
78.266666666665145
 30
0.0
  0
SEQEND
  5
1C27
  8
0
  0
LINE
  5
1617
  8
0
 10
40.007369594461807
 20
78.266666666666652
 30
0.0
 11
40.00000000026921
 21
78.351388696570581
 31
0.0
  0
LINE
  5
1618
  8
0
 10
56.602653472599059
 20
80.871282986731444
 30
0.0
 11
75.373609943391102
 21
80.871282986731444
 31
0.0
  0
ARC
  5
1619
  8
0
 10
68.83342561717518
 20
-53.771975876812363
 30
0.0
 40
134.8020072863018
 50
80.985367899632465
 51
87.219090922975766
  0
ARC
  5
161A
  8
0
 10
63.142838448502737
 20
-53.771984440944642
 30
0.0
 40
134.8020158718694
 50
92.780909176235113
 51
99.014898364106884
  0
POLYLINE
  5
161B
  8
0
 66
     1
 10
0.0
 20
0.0
 30
0.0
  0
VERTEX
  5
1C28
  8
0
 10
89.955106501388158
 20
79.365005330670414
 30
0.0
  0
VERTEX
  5
1C29
  8
0
 10
90.241387349298066
 20
79.315836750853862
 30
0.0
  0
VERTEX
  5
1C2A
  8
0
 10
90.747767659845522
 20
79.20546156022084
 30
0.0
  0
VERTEX
  5
1C2B
  8
0
 10
91.167719239852886
 20
79.078702913584195
 30
0.0
  0
VERTEX
  5
1C2C
  8
0
 10
91.502631484816675
 20
78.934510200642137
 30
0.0
  0
VERTEX
  5
1C2D
  8
0
 10
91.748725874896536
 20
78.773870762346149
 30
0.0
  0
VERTEX
  5
1C2E
  8
0
 10
91.862993552771741
 20
78.658033158481629
 30
0.0
  0
VERTEX
  5
1C2F
  8
0
 10
91.937853587859536
 20
78.534933797049973
 30
0.0
  0
VERTEX
  5
1C30
  8
0
 10
91.973227658426126
 20
78.404397724154677
 30
0.0
  0
VERTEX
  5
1C31
  8
0
 10
91.976263415945823
 20
78.351398167693105
 30
0.0
  0
SEQEND
  5
1C32
  8
0
  0
LINE
  5
1620
  8
2
 10
60.988131707995301
 20
40.0
 30
0.0
 11
60.98813170799508
 21
56.000000000000021
 31
0.0
  0
LINE
  5
1622
  8
2
 10
70.988131707994853
 20
40.0
 30
0.0
 11
70.98813170799508
 21
56.000000000000021
 31
0.0
  0
LINE
  5
1624
  8
1
 10
65.988131707994853
 20
35.0
 30
0.0
 11
65.98813170799508
 21
85.871282986731416
 31
0.0
  0
LINE
  5
1625
  8
2
 10
172.0281768082595
 20
147.25928298673131
 30
0.0
 11
156.8401768082594
 21
147.25928298673139
 31
0.0
  0
LINE
  5
1626
  8
2
 10
156.8401768082594
 20
138.88328298673159
 30
0.0
 11
172.0281768082593
 21
138.88328298673159
 31
0.0
  0
LINE
  5
1627
  8
2
 10
172.0281768082593
 20
138.88328298673159
 30
0.0
 11
172.0281768082595
 21
147.25928298673131
 31
0.0
  0
LINE
  5
1628
  8
2
 10
172.0281768082593
 20
138.88328298673159
 30
0.0
 11
172.8401768082594
 21
138.0712829867316
 31
0.0
  0
LINE
  5
1629
  8
2
 10
172.8401768082594
 20
148.07128298673129
 30
0.0
 11
172.0281768082595
 21
147.25928298673131
 31
0.0
  0
LINE
  5
162A
  8
0
 10
172.8401768082594
 20
136.5712829867316
 30
0.0
 11
172.8401768082594
 21
149.57128298673129
 31
0.0
  0
LINE
  5
162B
  8
0
 10
172.8401768082594
 20
149.57128298673129
 30
0.0
 11
172.64017680825941
 21
149.57128298673129
 31
0.0
  0
LINE
  5
162C
  8
0
 10
172.64017680825941
 20
136.5712829867316
 30
0.0
 11
172.8401768082594
 21
136.5712829867316
 31
0.0
  0
LINE
  5
162E
  8
2
 10
156.8401768082594
 20
138.0712829867316
 30
0.0
 11
156.8401768082594
 21
148.0712829867314
 31
0.0
  0
LINE
  5
1634
  8
0
 10
172.64017680825941
 20
132.0712829867316
 30
0.0
 11
172.64017680825941
 21
154.07128298673129
 31
0.0
  0
LINE
  5
1635
  8
0
 10
172.64017680825941
 20
154.07128298673129
 30
0.0
 11
150.8401768082594
 21
154.0712829867314
 31
0.0
  0
LINE
  5
1636
  8
0
 10
150.8401768082594
 20
132.0712829867316
 30
0.0
 11
172.64017680825941
 21
132.0712829867316
 31
0.0
  0
LINE
  5
1637
  8
0
 10
150.84017680825971
 20
173.0712829867314
 30
0.0
 11
150.8401768082594
 21
120.8712829867314
 31
0.0
  0
LINE
  5
1638
  8
0
 10
133.20684347492579
 20
120.8712829867314
 30
0.0
 11
150.8401768082594
 21
120.8712829867314
 31
0.0
  0
LINE
  5
1639
  8
0
 10
134.573510141593
 20
173.0712829867316
 30
0.0
 11
150.84017680825971
 21
173.0712829867314
 31
0.0
  0
LINE
  5
163A
  8
0
 10
134.57351014159281
 20
128.07128298673101
 30
0.0
 11
150.8401768082594
 21
128.0712829867316
 31
0.0
  0
LINE
  5
163B
  8
0
 10
134.57351014159281
 20
128.07128298673129
 30
0.0
 11
133.20684347492869
 21
120.8712829867459
 31
0.0
  0
POLYLINE
  5
163C
  8
0
 66
     1
 10
0.0
 20
0.0
 30
0.0
  0
VERTEX
  5
1C33
  8
0
 10
134.573510141593
 20
173.0712829867316
 30
0.0
  0
VERTEX
  5
1C34
  8
0
 10
134.33307973614521
 20
171.79221114861781
 30
0.0
  0
VERTEX
  5
1C35
  8
0
 10
134.11516354499869
 20
170.4040751439056
 30
0.0
  0
VERTEX
  5
1C36
  8
0
 10
133.92036703493909
 20
168.9119775692653
 30
0.0
  0
VERTEX
  5
1C37
  8
0
 10
133.78658815891839
 20
167.69682101909819
 30
0.0
  0
VERTEX
  5
1C38
  8
0
 10
133.66652008520049
 20
166.42269615908
 30
0.0
  0
VERTEX
  5
1C39
  8
0
 10
133.5602986657386
 20
165.09252156055379
 30
0.0
  0
VERTEX
  5
1C3A
  8
0
 10
133.46805975248569
 20
163.70921579486321
 30
0.0
  0
VERTEX
  5
1C3B
  8
0
 10
133.3851572796018
 20
162.17806384733561
 30
0.0
  0
VERTEX
  5
1C3C
  8
0
 10
133.3179998616626
 20
160.5890457649225
 30
0.0
  0
VERTEX
  5
1C3D
  8
0
 10
133.26662823920259
 20
158.9463512218467
 30
0.0
  0
VERTEX
  5
1C3E
  8
0
 10
133.2310831527561
 20
157.25416989233099
 30
0.0
  0
VERTEX
  5
1C3F
  8
0
 10
133.21100181253831
 20
155.46199515694559
 30
0.0
  0
VERTEX
  5
1C40
  8
0
 10
133.2076128061276
 20
153.6205870844754
 30
0.0
  0
VERTEX
  5
1C41
  8
0
 10
133.2209142605563
 20
151.73511396314441
 30
0.0
  0
VERTEX
  5
1C42
  8
0
 10
133.25090430285809
 20
149.81074408117661
 30
0.0
  0
VERTEX
  5
1C43
  8
0
 10
133.2958032840402
 20
147.9158441858105
 30
0.0
  0
VERTEX
  5
1C44
  8
0
 10
133.35637770064659
 20
145.98796868684059
 30
0.0
  0
VERTEX
  5
1C45
  8
0
 10
133.4325743569957
 20
144.0321600460874
 30
0.0
  0
VERTEX
  5
1C46
  8
0
 10
133.5243400574056
 20
142.05346072537151
 30
0.0
  0
VERTEX
  5
1C47
  8
0
 10
133.63512560128879
 20
139.99537846974661
 30
0.0
  0
VERTEX
  5
1C48
  8
0
 10
133.7625224710475
 20
137.91681725394611
 30
0.0
  0
VERTEX
  5
1C49
  8
0
 10
133.90631963111221
 20
135.8234807320575
 30
0.0
  0
VERTEX
  5
1C4A
  8
0
 10
134.06630604591319
 20
133.7210725581682
 30
0.0
  0
VERTEX
  5
1C4B
  8
0
 10
134.1821924543774
 20
132.31282631513889
 30
0.0
  0
VERTEX
  5
1C4C
  8
0
 10
134.30524301120951
 20
130.90253813526391
 30
0.0
  0
VERTEX
  5
1C4D
  8
0
 10
134.4358338809738
 20
129.4867928063492
 30
0.0
  0
VERTEX
  5
1C4E
  8
0
 10
134.57351014159281
 20
128.07128298673101
 30
0.0
  0
SEQEND
  5
1C4F
  8
0
  0
LINE
  5
163D
  8
0
 10
131.9688938215279
 20
133.6858047513357
 30
0.0
 11
131.9688938215281
 21
152.45676122212751
 31
0.0
  0
ARC
  5
163E
  8
0
 10
266.6121619031162
 20
145.91657619660651
 30
0.0
 40
134.80201652741869
 50
168.37879638596411
 51
177.21909081619199
  0
ARC
  5
163F
  8
0
 10
266.61216190312911
 20
140.22598977685681
 30
0.0
 40
134.80201652743179
 50
182.78090918380801
 51
188.25498716066079
  0
LINE
  5
1640
  8
2
 10
172.8401768082594
 20
138.0712829867316
 30
0.0
 11
156.8401768082594
 21
138.0712829867316
 31
0.0
  0
LINE
  5
1642
  8
2
 10
172.8401768082594
 20
148.07128298673129
 30
0.0
 11
156.8401768082594
 21
148.0712829867314
 31
0.0
  0
LINE
  5
1644
  8
1
 10
177.8401768082594
 20
143.0712829867314
 30
0.0
 11
126.9688938215279
 21
143.0712829867316
 31
0.0
  0
ENDSEC
  0
EOF
