  0
SECTION
  2
HEADER
  9
$ACADVER
  1
AC1009
  9
$INSBASE
 10
0.0
 20
0.0
 30
0.0
  9
$EXTMIN
 10
0.0
 20
-2.960436562073669
 30
0.0
  9
$EXTMAX
 10
126.6155118461826
 20
126.7300627460838
 30
0.0
  9
$LIMMIN
 10
0.0
 20
0.0
  9
$LIMMAX
 10
187.5
 20
135.0
  9
$ORTHOMODE
 70
     0
  9
$REGENMODE
 70
     1
  9
$FILLMODE
 70
     1
  9
$QTEXTMODE
 70
     0
  9
$MIRRTEXT
 70
     0
  9
$DRAGMODE
 70
     2
  9
$LTSCALE
 40
5.0
  9
$OSMODE
 70
    37
  9
$ATTMODE
 70
     1
  9
$TEXTSIZE
 40
4.000000000000048
  9
$TRACEWID
 40
0.05
  9
$TEXTSTYLE
  7
STANDARD
  9
$CLAYER
  8
0
  9
$CELTYPE
  6
BYLAYER
  9
$CECOLOR
 62
   256
  9
$DIMSCALE
 40
1.0
  9
$DIMASZ
 40
3.0
  9
$DIMEXO
 40
2.0
  9
$DIMDLI
 40
0.38
  9
$DIMRND
 40
0.0
  9
$DIMDLE
 40
0.0
  9
$DIMEXE
 40
2.0
  9
$DIMTP
 40
0.0
  9
$DIMTM
 40
0.0
  9
$DIMTXT
 40
3.2000000000000002
  9
$DIMCEN
 40
0.09
  9
$DIMTSZ
 40
0.0
  9
$DIMTOL
 70
     0
  9
$DIMLIM
 70
     0
  9
$DIMTIH
 70
     0
  9
$DIMTOH
 70
     0
  9
$DIMSE1
 70
     0
  9
$DIMSE2
 70
     0
  9
$DIMTAD
 70
     1
  9
$DIMZIN
 70
     8
  9
$DIMBLK
  1

  9
$DIMASO
 70
     1
  9
$DIMSHO
 70
     0
  9
$DIMPOST
  1

  9
$DIMAPOST
  1

  9
$DIMALT
 70
     0
  9
$DIMALTD
 70
     2
  9
$DIMALTF
 40
25.399999999999999
  9
$DIMLFAC
 40
1.0
  9
$DIMTOFL
 70
     0
  9
$DIMTVP
 40
1.6000000000000001
  9
$DIMTIX
 70
     1
  9
$DIMSOXD
 70
     0
  9
$DIMSAH
 70
     0
  9
$DIMBLK1
  1

  9
$DIMBLK2
  1

  9
$DIMSTYLE
  2
STANDARD
  9
$DIMCLRD
 70
     0
  9
$DIMCLRE
 70
     0
  9
$DIMCLRT
 70
     0
  9
$DIMTFAC
 40
1.0
  9
$DIMGAP
 40
0.09
  9
$LUNITS
 70
     2
  9
$LUPREC
 70
     1
  9
$SKETCHINC
 40
0.1
  9
$FILLETRAD
 40
1.8999999999999999
  9
$AUNITS
 70
     0
  9
$AUPREC
 70
     0
  9
$MENU
  1
E:\r13\win\SUPPORT\ACAD
  9
$ELEVATION
 40
0.0
  9
$PELEVATION
 40
0.0
  9
$THICKNESS
 40
0.0
  9
$LIMCHECK
 70
     0
  9
$BLIPMODE
 70
     0
  9
$CHAMFERA
 40
0.0
  9
$CHAMFERB
 40
0.0
  9
$SKPOLY
 70
     0
  9
$TDCREATE
 40
2451582.7089806711
  9
$TDUPDATE
 40
2458183.5884766672
  9
$TDINDWG
 40
0.197980544
  9
$TDUSRTIMER
 40
0.197980544
  9
$USRTIMER
 70
     1
  9
$ANGBASE
 50
0.0
  9
$ANGDIR
 70
     0
  9
$PDMODE
 70
     0
  9
$PDSIZE
 40
0.0
  9
$PLINEWID
 40
0.0
  9
$COORDS
 70
     1
  9
$SPLFRAME
 70
     0
  9
$SPLINETYPE
 70
     6
  9
$SPLINESEGS
 70
     8
  9
$ATTDIA
 70
     0
  9
$ATTREQ
 70
     1
  9
$HANDLING
 70
     1
  9
$HANDSEED
  5
1C0E
  9
$SURFTAB1
 70
     6
  9
$SURFTAB2
 70
     6
  9
$SURFTYPE
 70
     6
  9
$SURFU
 70
     6
  9
$SURFV
 70
     6
  9
$UCSNAME
  2

  9
$UCSORG
 10
0.0
 20
0.0
 30
0.0
  9
$UCSXDIR
 10
1.0
 20
0.0
 30
0.0
  9
$UCSYDIR
 10
0.0
 20
1.0
 30
0.0
  9
$PUCSNAME
  2

  9
$PUCSORG
 10
0.0
 20
0.0
 30
0.0
  9
$PUCSXDIR
 10
1.0
 20
0.0
 30
0.0
  9
$PUCSYDIR
 10
0.0
 20
1.0
 30
0.0
  9
$USERI1
 70
     0
  9
$USERI2
 70
     1
  9
$USERI3
 70
     1
  9
$USERI4
 70
     0
  9
$USERI5
 70
     0
  9
$USERR1
 40
0.0
  9
$USERR2
 40
0.0
  9
$USERR3
 40
0.0
  9
$USERR4
 40
0.0
  9
$USERR5
 40
0.0
  9
$WORLDVIEW
 70
     1
  9
$SHADEDGE
 70
     3
  9
$SHADEDIF
 70
    70
  9
$TILEMODE
 70
     1
  9
$MAXACTVP
 70
    16
  9
$PLIMCHECK
 70
     0
  9
$PEXTMIN
 10
1.0000000000000000E+020
 20
1.0000000000000000E+020
 30
1.0000000000000000E+020
  9
$PEXTMAX
 10
-1.0000000000000000E+020
 20
-1.0000000000000000E+020
 30
-1.0000000000000000E+020
  9
$PLIMMIN
 10
0.0
 20
0.0
  9
$PLIMMAX
 10
12.0
 20
9.0
  9
$UNITMODE
 70
     0
  9
$VISRETAIN
 70
     0
  9
$PLINEGEN
 70
     0
  9
$PSLTSCALE
 70
     0
  0
ENDSEC
  0
SECTION
  2
TABLES
  0
TABLE
  2
VPORT
 70
     1
  0
VPORT
  2
*ACTIVE
 70
     0
 10
0.0
 20
0.0
 11
1.0
 21
1.0
 12
172.5513030433585
 22
95.0
 13
0.0
 23
0.0
 14
5.0
 24
5.0
 15
5.0
 25
5.0
 16
0.0
 26
0.0
 36
1.0
 17
0.0
 27
0.0
 37
0.0
 40
190.03225294403461
 41
1.816239316239316
 42
50.0
 43
0.0
 44
0.0
 50
0.0
 51
0.0
 71
     0
 72
   500
 73
     1
 74
     0
 75
     0
 76
     0
 77
     0
 78
     2
  0
ENDTAB
  0
TABLE
  2
LTYPE
 70
     4
  0
LTYPE
  2
CONTINUOUS
 70
     0
  3
Solid Line
 72
    65
 73
     0
 40
0.0
  0
LTYPE
  2
CENTER
 70
     0
  3
____ _ ____ _ ____ _ ____ _ ____ _ ____ _ ____
 72
    65
 73
     4
 40
2.0
 49
1.25
 49
-0.25
 49
0.25
 49
-0.25
  0
LTYPE
  2
HIDDEN
 70
     0
  3
_ _ _ _ _ _ _ _ _ _ _ _ _ _ _ _ _ _ _ _ _ _ _
 72
    65
 73
     2
 40
0.375
 49
0.25
 49
-0.125
  0
LTYPE
  2
PHANTOM2
 70
     0
  3
___ _ _ ___ _ _ ___ _ _ ___ _ _
 72
    65
 73
     6
 40
1.25
 49
0.625
 49
-0.125
 49
0.125
 49
-0.125
 49
0.125
 49
-0.125
  0
ENDTAB
  0
TABLE
  2
LAYER
 70
     4
  0
LAYER
  2
0
 70
     0
 62
     7
  6
CONTINUOUS
  0
LAYER
  2
1
 70
     0
 62
     1
  6
CENTER
  0
LAYER
  2
2
 70
     0
 62
     2
  6
HIDDEN
  0
LAYER
  2
DEFPOINTS
 70
     0
 62
     7
  6
CONTINUOUS
  0
ENDTAB
  0
TABLE
  2
STYLE
 70
     2
  0
STYLE
  2
STANDARD
 70
     0
 40
0.0
 41
1.0
 50
0.0
 71
     0
 42
4.000000000000048
  3
TXT
  4
BIGFONT
  0
STYLE
  2
STANDARD1
 70
     0
 40
0.0
 41
1.0
 50
0.0
 71
     0
 42
3.0
  3
txt
  4

  0
ENDTAB
  0
TABLE
  2
VIEW
 70
     2
  0
VIEW
  2
ALL
 70
     0
 40
135.0
 10
110.4957983193277
 20
67.5
 41
0.0
 11
0.0
 21
0.0
 31
1.0
 12
0.0
 22
0.0
 32
0.0
 42
0.0
 43
0.0
 44
0.0
 50
0.0
 71
     0
  0
VIEW
  2
OLE1
 70
     0
 40
235.2079806749349
 10
722.79185871078926
 20
95.257412002191856
 41
302.2278937573451
 11
0.0
 21
0.0
 31
1.0
 12
0.0
 22
0.0
 32
0.0
 42
50.0
 43
0.0
 44
0.0
 50
0.0
 71
     0
  0
ENDTAB
  0
TABLE
  2
UCS
 70
     0
  0
ENDTAB
  0
TABLE
  2
APPID
 70
    44
  0
APPID
  2
ACAD
 70
     0
  0
APPID
  2
ACAD_MLEADERVER
 70
     0
  0
APPID
  2
ACAD_NAV_VCDISPLAY
 70
     0
  0
APPID
  2
ACAD_DSTYLE_DIMJAG
 70
     0
  0
APPID
  2
ACAD_DSTYLE_DIMTALN
 70
     0
  0
APPID
  2
ACAD_EXEMPT_FROM_CAD_STANDARDS
 70
     0
  0
APPID
  2
GENIUS_GENODEF_13
 70
     0
  0
APPID
  2
GENIUS_GENFIL_13
 70
     0
  0
APPID
  2
GENIUS_GENOBJ-N-CHA_13
 70
     0
  0
APPID
  2
ACAD_DSTYLE_DIMRADIAL_EXTENSION
 70
     0
  0
APPID
  2
GENIUS_GENOREF_13
 70
     0
  0
APPID
  2
DCO15
 70
     0
  0
APPID
  2
GENIUS_GENOENT_13
 70
     0
  0
APPID
  2
GENIUS_GENBH_13
 70
     0
  0
APPID
  2
GENIUS_GENOBJ_13
 70
     0
  0
APPID
  2
GENIUS_GENOLIS_13
 70
     0
  0
APPID
  2
GENIUS_GENOBJ-NBEHI-BHF_13
 70
     0
  0
APPID
  2
GENIUS_GENOBJ-NBEHI-BHB_13
 70
     0
  0
APPID
  2
GENIUS_GENOBJ-F-PART_13
 70
     0
  0
APPID
  2
GENIUS_GEFSTDP_13
 70
     0
  0
APPID
  2
GENIUS_GENOBJ-N-RSSYM_13
 70
     0
  0
APPID
  2
GENIUS_GENSYMENT_13
 70
     0
  0
APPID
  2
GENIUS_GENOBJ-N-TIT_13
 70
     0
  0
APPID
  2
GENIUS_GENTITLE_13
 70
     0
  0
APPID
  2
GENIUS_GENZVEED_13
 70
     0
  0
APPID
  2
GENIUS_GENOBJ-N-LEADER_13
 70
     0
  0
APPID
  2
GENIUS_GENOBJ-N-FIL_13
 70
     0
  0
APPID
  2
GENIUS_GENOBJ-N-SEC_13
 70
     0
  0
APPID
  2
GENIUS_GENOBJ-N-CRS_13
 70
     0
  0
APPID
  2
GENIUS_GENOBJ-N-ZOO_13
 70
     0
  0
APPID
  2
GENIUS_GENZOO_13
 70
     0
  0
APPID
  2
GENIUS_GENOBJ-F-TOL_13
 70
     0
  0
APPID
  2
_CALL_MAC$
 70
     0
  0
APPID
  2
ASM_BASE
 70
     0
  0
APPID
  2
ASM_EXPLO_VER_2_00
 70
     0
  0
APPID
  2
ASM_CADM_VER_12_00
 70
     0
  0
APPID
  2
ASM_BASEFORO
 70
     0
  0
APPID
  2
ASM_BASETRAVI
 70
     0
  0
APPID
  2
ASM_BASETRAVI1
 70
     0
  0
APPID
  2
ASM_GRUPPI
 70
     0
  0
APPID
  2
ASM_CADM_ALBERO
 70
     0
  0
APPID
  2
ASM_GOLE
 70
     0
  0
APPID
  2
GENIUS_GENOBJ-N-CEN_13
 70
     0
  0
APPID
  2
GENIUS_GENCEN_19
 70
     0
  0
ENDTAB
  0
TABLE
  2
DIMSTYLE
 70
     1
  0
DIMSTYLE
  2
STANDARD
 70
     0
  3

  4

  5

  6

  7

 40
1.0
 41
0.18
 42
0.0625
 43
0.38
 44
0.18
 45
0.0
 46
0.0
 47
0.0
 48
0.0
140
0.18
141
0.09
142
0.0
143
25.399999999999999
144
1.0
145
0.0
146
1.0
147
0.09
 71
     0
 72
     0
 73
     1
 74
     1
 75
     0
 76
     0
 77
     0
 78
     0
170
     0
171
     2
172
     0
173
     0
174
     0
175
     0
176
     0
177
     0
178
     0
  0
ENDTAB
  0
ENDSEC
  0
SECTION
  2
BLOCKS
  0
BLOCK
  8
0
  2
$MODEL_SPACE
 70
     0
 10
0.0
 20
0.0
 30
0.0
  3
$MODEL_SPACE
  1

  0
ENDBLK
  5
968
  8
0
  0
BLOCK
 67
     1
  8
0
  2
$PAPER_SPACE
 70
     0
 10
0.0
 20
0.0
 30
0.0
  3
$PAPER_SPACE
  1

  0
ENDBLK
  5
966
 67
     1
  8
0
  0
ENDSEC
  0
SECTION
  2
ENTITIES
  0
TEXT
  5
A8B
  8
0
 62
     3
 10
0.0
 20
0.0
 30
0.0
 40
10.0
  1
TK32A-OG
  7
STANDARD1
  0
POLYLINE
  5
BAA
  8
0
 66
     1
 10
0.0
 20
0.0
 30
0.0
  0
VERTEX
  5
1B7D
  8
0
 10
67.716743371481641
 20
99.730062746083647
 30
0.0
  0
VERTEX
  5
1B7E
  8
0
 10
66.543148792247337
 20
99.065005749970283
 30
0.0
  0
VERTEX
  5
1B7F
  8
0
 10
65.335543753546744
 20
98.458449210974734
 30
0.0
  0
VERTEX
  5
1B80
  8
0
 10
64.098559357390343
 20
97.912970523561
 30
0.0
  0
VERTEX
  5
1B81
  8
0
 10
62.803035658405463
 20
97.418943250917366
 30
0.0
  0
VERTEX
  5
1B82
  8
0
 10
61.481778940473127
 20
96.991572563473937
 30
0.0
  0
VERTEX
  5
1B83
  8
0
 10
60.140239470705303
 20
96.6327973457458
 30
0.0
  0
VERTEX
  5
1B84
  8
0
 10
58.705098148844229
 20
96.329736632946364
 30
0.0
  0
VERTEX
  5
1B85
  8
0
 10
57.253770380159672
 20
96.104932260197117
 30
0.0
  0
VERTEX
  5
1B86
  8
0
 10
55.793012049731658
 20
95.959528918841954
 30
0.0
  0
VERTEX
  5
1B87
  8
0
 10
54.282886246390149
 20
95.893525942882917
 30
0.0
  0
VERTEX
  5
1B88
  8
0
 10
52.770118459890512
 20
95.912294717528724
 30
0.0
  0
VERTEX
  5
1B89
  8
0
 10
51.262195712702578
 20
96.015733825320225
 30
0.0
  0
VERTEX
  5
1B8A
  8
0
 10
49.816302444626778
 20
96.195679797474355
 30
0.0
  0
VERTEX
  5
1B8B
  8
0
 10
48.381706115781412
 20
96.453579741774334
 30
0.0
  0
VERTEX
  5
1B8C
  8
0
 10
46.964979529599809
 20
96.788140323178084
 30
0.0
  0
VERTEX
  5
1B8D
  8
0
 10
45.52943530985231
 20
97.211723778743533
 30
0.0
  0
VERTEX
  5
1B8E
  8
0
 10
44.119658604681028
 20
97.714285024527854
 30
0.0
  0
VERTEX
  5
1B8F
  8
0
 10
42.742382683093631
 20
98.293180933999324
 30
0.0
  0
VERTEX
  5
1B90
  8
0
 10
42.043084473929923
 20
98.62248717396632
 30
0.0
  0
VERTEX
  5
1B91
  8
0
 10
41.353951893530052
 20
98.971507131354613
 30
0.0
  0
VERTEX
  5
1B92
  8
0
 10
40.67325390041929
 20
99.341208732458256
 30
0.0
  0
VERTEX
  5
1B93
  8
0
 10
40.003930450379642
 20
99.730062746083988
 30
0.0
  0
SEQEND
  5
1B94
  8
0
  0
POLYLINE
  5
BAB
  8
0
 66
     1
 10
0.0
 20
0.0
 30
0.0
  0
VERTEX
  5
1B95
  8
0
 10
53.860336910930613
 20
123.7300627460838
 30
0.0
  0
VERTEX
  5
1B96
  8
0
 10
55.023090911381637
 20
123.0462282400885
 30
0.0
  0
VERTEX
  5
1B97
  8
0
 10
56.152187231777191
 20
122.30368953730429
 30
0.0
  0
VERTEX
  5
1B98
  8
0
 10
57.243078226662988
 20
121.50516859590211
 30
0.0
  0
VERTEX
  5
1B99
  8
0
 10
58.318680634268453
 20
120.6302253534835
 30
0.0
  0
VERTEX
  5
1B9A
  8
0
 10
59.349423213093417
 20
119.6996683272084
 30
0.0
  0
VERTEX
  5
1B9B
  8
0
 10
60.330901701155028
 20
118.717248149778
 30
0.0
  0
VERTEX
  5
1B9C
  8
0
 10
61.310930496543669
 20
117.62590954654929
 30
0.0
  0
VERTEX
  5
1B9D
  8
0
 10
62.231280530541028
 20
116.4814249075596
 30
0.0
  0
VERTEX
  5
1B9E
  8
0
 10
63.087582529617009
 20
115.2890726557489
 30
0.0
  0
VERTEX
  5
1B9F
  8
0
 10
63.899805521543549
 20
114.0142667426951
 30
0.0
  0
VERTEX
  5
1BA0
  8
0
 10
64.63993501067506
 20
112.694786939791
 30
0.0
  0
VERTEX
  5
1BA1
  8
0
 10
65.304315316831719
 20
111.3371679077822
 30
0.0
  0
VERTEX
  5
1BA2
  8
0
 10
65.871424001536639
 20
109.9950145526078
 30
0.0
  0
VERTEX
  5
1BA3
  8
0
 10
66.365374092902186
 20
108.6236676572658
 30
0.0
  0
VERTEX
  5
1BA4
  8
0
 10
66.783999251079024
 20
107.2294661042788
 30
0.0
  0
VERTEX
  5
1BA5
  8
0
 10
67.134937148175865
 20
105.7744565747978
 30
0.0
  0
VERTEX
  5
1BA6
  8
0
 10
67.404594513576797
 20
104.3022734829807
 30
0.0
  0
VERTEX
  5
1BA7
  8
0
 10
67.591893728470438
 20
102.8200695741571
 30
0.0
  0
VERTEX
  5
1BA8
  8
0
 10
67.656355112660094
 20
102.0498072511979
 30
0.0
  0
VERTEX
  5
1BA9
  8
0
 10
67.698661149302893
 20
101.27849176664181
 30
0.0
  0
VERTEX
  5
1BAA
  8
0
 10
67.718839110275496
 20
100.5041400378023
 30
0.0
  0
VERTEX
  5
1BAB
  8
0
 10
67.716743371481641
 20
99.730062746083647
 30
0.0
  0
SEQEND
  5
1BAC
  8
0
  0
POLYLINE
  5
BAC
  8
0
 66
     1
 10
0.0
 20
0.0
 30
0.0
  0
VERTEX
  5
1BAD
  8
0
 10
40.003930450379642
 20
99.730062746083988
 30
0.0
  0
VERTEX
  5
1BAE
  8
0
 10
40.014771617154111
 20
101.0789578887298
 30
0.0
  0
VERTEX
  5
1BAF
  8
0
 10
40.09328128959185
 20
102.4280567181515
 30
0.0
  0
VERTEX
  5
1BB0
  8
0
 10
40.239376003776087
 20
103.77205983878549
 30
0.0
  0
VERTEX
  5
1BB1
  8
0
 10
40.459299068800419
 20
105.1410339908788
 30
0.0
  0
VERTEX
  5
1BB2
  8
0
 10
40.749815365415593
 20
106.4989651896375
 30
0.0
  0
VERTEX
  5
1BB3
  8
0
 10
41.109878869476681
 20
107.8401638714099
 30
0.0
  0
VERTEX
  5
1BB4
  8
0
 10
41.564992508934672
 20
109.2345626017777
 30
0.0
  0
VERTEX
  5
1BB5
  8
0
 10
42.095971320200988
 20
110.6038509657448
 30
0.0
  0
VERTEX
  5
1BB6
  8
0
 10
42.700428686420992
 20
111.94160585269169
 30
0.0
  0
VERTEX
  5
1BB7
  8
0
 10
43.398332514482831
 20
113.2824139528509
 30
0.0
  0
VERTEX
  5
1BB8
  8
0
 10
44.170971778226601
 20
114.5831241353608
 30
0.0
  0
VERTEX
  5
1BB9
  8
0
 10
45.014515130561499
 20
115.8373031620423
 30
0.0
  0
VERTEX
  5
1BBA
  8
0
 10
45.893300581529552
 20
116.9995096752845
 30
0.0
  0
VERTEX
  5
1BBB
  8
0
 10
46.833947635634097
 20
118.11295570906221
 30
0.0
  0
VERTEX
  5
1BBC
  8
0
 10
47.832049825397519
 20
119.1725957206869
 30
0.0
  0
VERTEX
  5
1BBD
  8
0
 10
48.916656870487373
 20
120.20402076382339
 30
0.0
  0
VERTEX
  5
1BBE
  8
0
 10
50.056776870639972
 20
121.1736415401337
 30
0.0
  0
VERTEX
  5
1BBF
  8
0
 10
51.246754172758351
 20
122.07694843680861
 30
0.0
  0
VERTEX
  5
1BC0
  8
0
 10
51.881586276025182
 20
122.51790142087241
 30
0.0
  0
VERTEX
  5
1BC1
  8
0
 10
52.528407946397977
 20
122.9401941338956
 30
0.0
  0
VERTEX
  5
1BC2
  8
0
 10
53.188922913626357
 20
123.3448417148237
 30
0.0
  0
VERTEX
  5
1BC3
  8
0
 10
53.860336910930613
 20
123.7300627460838
 30
0.0
  0
SEQEND
  5
1BC4
  8
0
  0
CIRCLE
  5
BAD
  8
0
 10
53.860336910930641
 20
107.7300627460838
 30
0.0
 40
5.3033818421269068
  0
LINE
  5
BAF
  8
1
 10
72.860336910930641
 20
107.7300627460838
 30
0.0
 11
34.860336910930641
 21
107.7300627460838
 31
0.0
  0
LINE
  5
BB0
  8
1
 10
53.860336910930641
 20
126.7300627460838
 30
0.0
 11
53.860336910930641
 21
88.730062746083846
 31
0.0
  0
LINE
  5
BB1
  8
2
 10
123.18251184618251
 20
109.7970627460838
 30
0.0
 11
113.6155118461825
 21
109.7970627460838
 31
0.0
  0
LINE
  5
BB2
  8
2
 10
113.6155118461825
 20
105.6630627460838
 30
0.0
 11
123.18251184618251
 21
105.6630627460838
 31
0.0
  0
LINE
  5
BB3
  8
2
 10
123.18251184618251
 20
105.6630627460838
 30
0.0
 11
123.6155118461826
 21
105.2300627460838
 31
0.0
  0
LINE
  5
BB4
  8
2
 10
123.6155118461826
 20
110.2300627460838
 30
0.0
 11
123.18251184618251
 21
109.7970627460838
 31
0.0
  0
LINE
  5
BB5
  8
2
 10
123.18251184618251
 20
105.6630627460838
 30
0.0
 11
123.18251184618251
 21
109.7970627460838
 31
0.0
  0
LINE
  5
BB6
  8
0
 10
123.6155118461826
 20
110.9800627460838
 30
0.0
 11
123.4155118461826
 21
110.9800627460838
 31
0.0
  0
LINE
  5
BB7
  8
0
 10
123.4155118461826
 20
104.4800627460838
 30
0.0
 11
123.6155118461826
 21
104.4800627460838
 31
0.0
  0
LINE
  5
BB8
  8
0
 10
123.6155118461826
 20
104.4800627460838
 30
0.0
 11
123.6155118461826
 21
110.9800627460838
 31
0.0
  0
LINE
  5
BBB
  8
2
 10
113.6155118461825
 20
105.2300627460838
 30
0.0
 11
113.6155118461825
 21
110.2300627460838
 31
0.0
  0
LINE
  5
BC0
  8
0
 10
123.4155118461826
 20
114.7300627460838
 30
0.0
 11
107.6155118461826
 21
114.7300627460838
 31
0.0
  0
LINE
  5
BC1
  8
0
 10
107.6155118461826
 20
100.7300627460838
 30
0.0
 11
123.4155118461826
 21
100.7300627460838
 31
0.0
  0
LINE
  5
BC2
  8
0
 10
123.4155118461826
 20
100.7300627460838
 30
0.0
 11
123.4155118461826
 21
114.7300627460838
 31
0.0
  0
LINE
  5
BC3
  8
0
 10
107.6155118461826
 20
123.7300627460838
 30
0.0
 11
107.6155118461826
 21
95.890062746083856
 31
0.0
  0
LINE
  5
BC4
  8
0
 10
98.482178512849174
 20
95.890062746083856
 30
0.0
 11
107.6155118461826
 21
95.890062746083856
 31
0.0
  0
LINE
  5
BC5
  8
0
 10
99.348845179515934
 20
123.7300627460838
 30
0.0
 11
107.6155118461826
 21
123.7300627460838
 31
0.0
  0
LINE
  5
BC6
  8
0
 10
99.348845179515934
 20
99.730062746083647
 30
0.0
 11
107.6155118461826
 21
99.730062746083874
 31
0.0
  0
LINE
  5
BC7
  8
0
 10
99.348845179515877
 20
99.730062746083803
 30
0.0
 11
98.482178512852499
 21
95.890062746098565
 31
0.0
  0
POLYLINE
  5
BC8
  8
0
 66
     1
 10
0.0
 20
0.0
 30
0.0
  0
VERTEX
  5
1BC5
  8
0
 10
99.348845179515934
 20
123.7300627460838
 30
0.0
  0
VERTEX
  5
1BC6
  8
0
 10
99.195814629596782
 20
123.0462282400885
 30
0.0
  0
VERTEX
  5
1BC7
  8
0
 10
99.057190185509384
 20
122.30368953730429
 30
0.0
  0
VERTEX
  5
1BC8
  8
0
 10
98.933351665286864
 20
121.50516859590211
 30
0.0
  0
VERTEX
  5
1BC9
  8
0
 10
98.821926345070764
 20
120.6302253534835
 30
0.0
  0
VERTEX
  5
1BCA
  8
0
 10
98.726138481297383
 20
119.6996683272084
 30
0.0
  0
VERTEX
  5
1BCB
  8
0
 10
98.646191060663398
 20
118.717248149778
 30
0.0
  0
VERTEX
  5
1BCC
  8
0
 10
98.579005664289241
 20
117.62590954654929
 30
0.0
  0
VERTEX
  5
1BCD
  8
0
 10
98.529397415912456
 20
116.4814249075596
 30
0.0
  0
VERTEX
  5
1BCE
  8
0
 10
98.497426116820577
 20
115.2890726557489
 30
0.0
  0
VERTEX
  5
1BCF
  8
0
 10
98.484803254967076
 20
114.33741165831739
 30
0.0
  0
VERTEX
  5
1BD0
  8
0
 10
98.482655010691431
 20
113.35970266117781
 30
0.0
  0
VERTEX
  5
1BD1
  8
0
 10
98.490980204867753
 20
112.35870247433201
 30
0.0
  0
VERTEX
  5
1BD2
  8
0
 10
98.509777658370012
 20
111.3371679077822
 30
0.0
  0
VERTEX
  5
1BD3
  8
0
 10
98.549400841882232
 20
109.9950145526078
 30
0.0
  0
VERTEX
  5
1BD4
  8
0
 10
98.606418324369656
 20
108.6236676572658
 30
0.0
  0
VERTEX
  5
1BD5
  8
0
 10
98.680753049918906
 20
107.2294661042788
 30
0.0
  0
VERTEX
  5
1BD6
  8
0
 10
98.750010367797344
 20
106.1400983827515
 30
0.0
  0
VERTEX
  5
1BD7
  8
0
 10
98.829652711459914
 20
105.0400646775982
 30
0.0
  0
VERTEX
  5
1BD8
  8
0
 10
98.919552685730764
 20
103.9323825532547
 30
0.0
  0
VERTEX
  5
1BD9
  8
0
 10
99.019582895434098
 20
102.8200695741571
 30
0.0
  0
VERTEX
  5
1BDA
  8
0
 10
99.094585083291975
 20
102.0498072511979
 30
0.0
  0
VERTEX
  5
1BDB
  8
0
 10
99.174383450274846
 20
101.27849176664181
 30
0.0
  0
VERTEX
  5
1BDC
  8
0
 10
99.259240449603681
 20
100.5041400378023
 30
0.0
  0
VERTEX
  5
1BDD
  8
0
 10
99.348845179515934
 20
99.730062746083647
 30
0.0
  0
SEQEND
  5
1BDE
  8
0
  0
ARC
  5
BC9
  8
0
 10
158.58495629062651
 20
109.2189284868245
 30
0.0
 40
60.987620686972917
 50
166.23536311419869
 51
176.4140522342818
  0
ARC
  5
BCA
  8
0
 10
158.5849562906289
 20
106.24119700534339
 30
0.0
 40
60.987620686975397
 50
183.58594776571979
 51
189.77184022134111
  0
LINE
  5
BCB
  8
0
 10
97.716743371481641
 20
102.42668090395691
 30
0.0
 11
97.716743371481641
 21
113.0334445882107
 31
0.0
  0
LINE
  5
BCC
  8
2
 10
123.6155118461826
 20
105.2300627460838
 30
0.0
 11
113.6155118461826
 21
105.2300627460838
 31
0.0
  0
LINE
  5
BCE
  8
2
 10
123.6155118461826
 20
110.2300627460838
 30
0.0
 11
113.6155118461826
 21
110.2300627460838
 31
0.0
  0
LINE
  5
BD0
  8
1
 10
126.6155118461826
 20
107.7300627460838
 30
0.0
 11
94.716743371481627
 21
107.7300627460838
 31
0.0
  0
LINE
  5
BD1
  8
2
 10
55.927336910930649
 20
40.432999999999993
 30
0.0
 11
55.927336910930649
 21
50.000000000000007
 31
0.0
  0
LINE
  5
BD2
  8
2
 10
51.793336910930627
 20
50.000000000000007
 30
0.0
 11
51.793336910930627
 21
40.432999999999993
 31
0.0
  0
LINE
  5
BD3
  8
2
 10
51.793336910930627
 20
40.432999999999993
 30
0.0
 11
55.927336910930649
 21
40.432999999999993
 31
0.0
  0
LINE
  5
BD4
  8
2
 10
51.793336910930627
 20
40.432999999999993
 30
0.0
 11
51.360336910930641
 21
40.0
 31
0.0
  0
LINE
  5
BD5
  8
2
 10
56.360336910930641
 20
40.0
 30
0.0
 11
55.927336910930649
 21
40.432999999999993
 31
0.0
  0
LINE
  5
BD6
  8
0
 10
50.610336910930641
 20
40.0
 30
0.0
 11
57.110336910930641
 21
40.0
 31
0.0
  0
LINE
  5
BD7
  8
0
 10
57.110336910930641
 20
40.0
 30
0.0
 11
57.110336910930641
 21
40.199999999999982
 31
0.0
  0
LINE
  5
BD8
  8
0
 10
50.610336910930641
 20
40.199999999999982
 30
0.0
 11
50.610336910930641
 21
40.0
 31
0.0
  0
LINE
  5
BDA
  8
2
 10
51.360336910930641
 20
50.000000000000007
 30
0.0
 11
56.360336910930641
 21
50.000000000000007
 31
0.0
  0
LINE
  5
BE0
  8
0
 10
46.860336910930641
 20
40.199999999999982
 30
0.0
 11
60.860336910930641
 21
40.199999999999982
 31
0.0
  0
LINE
  5
BE1
  8
0
 10
60.860336910930641
 20
40.199999999999982
 30
0.0
 11
60.860336910930641
 21
56.0
 31
0.0
  0
LINE
  5
BE2
  8
0
 10
46.860336910930641
 20
56.0
 30
0.0
 11
46.860336910930641
 21
40.199999999999982
 31
0.0
  0
LINE
  5
BE3
  8
0
 10
40.0
 20
64.320479055208381
 30
0.0
 11
40.0
 21
56.0
 31
0.0
  0
POLYLINE
  5
BE4
  8
0
 66
     1
 10
0.0
 20
0.0
 30
0.0
  0
VERTEX
  5
1BDF
  8
0
 10
40.000000000279186
 20
64.320479058299
 30
0.0
  0
VERTEX
  5
1BE0
  8
0
 10
40.005602601017699
 20
64.382500380191004
 30
0.0
  0
VERTEX
  5
1BE1
  8
0
 10
40.04511146653595
 20
64.490249816490689
 30
0.0
  0
VERTEX
  5
1BE2
  8
0
 10
40.123093749858668
 20
64.590379944624928
 30
0.0
  0
VERTEX
  5
1BE3
  8
0
 10
40.239376003776087
 20
64.682161058159565
 30
0.0
  0
VERTEX
  5
1BE4
  8
0
 10
40.397107165563682
 20
64.766981431474591
 30
0.0
  0
VERTEX
  5
1BE5
  8
0
 10
40.594308272956823
 20
64.84302641905974
 30
0.0
  0
VERTEX
  5
1BE6
  8
0
 10
40.832383724457287
 20
64.910646759099933
 30
0.0
  0
VERTEX
  5
1BE7
  8
0
 10
41.079423399160127
 20
64.963681072208942
 30
0.0
  0
SEQEND
  5
1BE8
  8
0
  0
LINE
  5
BE6
  8
0
 10
67.72067382186134
 20
56.0
 30
0.0
 11
67.72067382186134
 21
64.320486439038675
 31
0.0
  0
LINE
  5
BE7
  8
0
 10
67.720673821797732
 20
64.32048644027968
 30
0.0
 11
67.716743371481641
 21
64.266666666666623
 31
0.0
  0
LINE
  5
BE8
  8
0
 10
67.72067382186134
 20
56.0
 30
0.0
 11
40.0
 21
56.0
 31
0.0
  0
LINE
  5
BE9
  8
0
 10
67.716743371481641
 20
64.266666666666609
 30
0.0
 11
67.716743371481641
 21
56.0
 31
0.0
  0
LINE
  5
BEA
  8
0
 10
40.003930450379642
 20
64.266666666666893
 30
0.0
 11
40.003930450379642
 21
56.0
 31
0.0
  0
POLYLINE
  5
BEB
  8
0
 66
     1
 10
0.0
 20
0.0
 30
0.0
  0
VERTEX
  5
1BE9
  8
0
 10
67.716743371481641
 20
64.266666666666609
 30
0.0
  0
VERTEX
  5
1BEA
  8
0
 10
66.543148792247337
 20
64.419697158429955
 30
0.0
  0
VERTEX
  5
1BEB
  8
0
 10
65.335543753546744
 20
64.558321555900548
 30
0.0
  0
VERTEX
  5
1BEC
  8
0
 10
64.0985593573904
 20
64.682160041461202
 30
0.0
  0
VERTEX
  5
1BED
  8
0
 10
62.803035658405463
 20
64.793585336608658
 30
0.0
  0
VERTEX
  5
1BEE
  8
0
 10
61.481778940473127
 20
64.889373188543161
 30
0.0
  0
VERTEX
  5
1BEF
  8
0
 10
60.140239470705303
 20
64.969320610709303
 30
0.0
  0
VERTEX
  5
1BF0
  8
0
 10
58.705098148844229
 20
65.036506048006629
 30
0.0
  0
VERTEX
  5
1BF1
  8
0
 10
57.253770380159672
 20
65.086114337088063
 30
0.0
  0
VERTEX
  5
1BF2
  8
0
 10
55.793012049731601
 20
65.118085676575163
 30
0.0
  0
VERTEX
  5
1BF3
  8
0
 10
54.660957844961807
 20
65.130708569420449
 30
0.0
  0
VERTEX
  5
1BF4
  8
0
 10
53.526364662130732
 20
65.132856844560493
 30
0.0
  0
VERTEX
  5
1BF5
  8
0
 10
52.392391088842828
 20
65.12453168110936
 30
0.0
  0
VERTEX
  5
1BF6
  8
0
 10
51.262195712702578
 20
65.105734258181059
 30
0.0
  0
VERTEX
  5
1BF7
  8
0
 10
49.816302444626778
 20
65.066111114119281
 30
0.0
  0
VERTEX
  5
1BF8
  8
0
 10
48.381706115781441
 20
65.009093671124106
 30
0.0
  0
VERTEX
  5
1BF9
  8
0
 10
46.964979529599809
 20
64.934758985006397
 30
0.0
  0
VERTEX
  5
1BFA
  8
0
 10
45.886168678618297
 20
64.865501697476887
 30
0.0
  0
VERTEX
  5
1BFB
  8
0
 10
44.820905188631677
 20
64.785859384076218
 30
0.0
  0
VERTEX
  5
1BFC
  8
0
 10
43.772029657502571
 20
64.6959594398961
 30
0.0
  0
VERTEX
  5
1BFD
  8
0
 10
42.742382683093631
 20
64.595929260028242
 30
0.0
  0
VERTEX
  5
1BFE
  8
0
 10
42.043084473929923
 20
64.520927010657232
 30
0.0
  0
VERTEX
  5
1BFF
  8
0
 10
41.353951893530052
 20
64.441128571886651
 30
0.0
  0
VERTEX
  5
1C00
  8
0
 10
40.67325390041929
 20
64.356271489656933
 30
0.0
  0
VERTEX
  5
1C01
  8
0
 10
40.003930450379642
 20
64.266666666666893
 30
0.0
  0
SEQEND
  5
1C02
  8
0
  0
LINE
  5
BF0
  8
0
 10
40.003930450379642
 20
64.266666666666666
 30
0.0
 11
40.000000000279186
 21
64.320479058299
 31
0.0
  0
LINE
  5
BF1
  8
0
 10
48.556955068803738
 20
65.898768474700915
 30
0.0
 11
59.163718753057601
 21
65.898768474700915
 31
0.0
  0
ARC
  5
BF2
  8
0
 10
55.349202651671483
 20
5.0305555555573518
 30
0.0
 40
60.987620686971638
 50
79.333272186622594
 51
86.414052234281812
  0
ARC
  5
BF3
  8
0
 10
52.371471170189807
 20
5.0305555555573518
 30
0.0
 40
60.987620686971638
 50
93.585947765718174
 51
100.6700592961717
  0
POLYLINE
  5
BF4
  8
0
 66
     1
 10
0.0
 20
0.0
 30
0.0
  0
VERTEX
  5
1C03
  8
0
 10
66.637765571430293
 20
64.964337550894314
 30
0.0
  0
VERTEX
  5
1C04
  8
0
 10
66.783999251079024
 20
64.934758796263623
 30
0.0
  0
VERTEX
  5
1C05
  8
0
 10
67.05407932310078
 20
64.865757008808146
 30
0.0
  0
VERTEX
  5
1C06
  8
0
 10
67.278699468033494
 20
64.786512299877174
 30
0.0
  0
VERTEX
  5
1C07
  8
0
 10
67.458633318847319
 20
64.696366042952874
 30
0.0
  0
VERTEX
  5
1C08
  8
0
 10
67.591893728470438
 20
64.595928950748444
 30
0.0
  0
VERTEX
  5
1C09
  8
0
 10
67.656334766018972
 20
64.520960396141746
 30
0.0
  0
VERTEX
  5
1C0A
  8
0
 10
67.698661149302893
 20
64.441128395907754
 30
0.0
  0
VERTEX
  5
1C0B
  8
0
 10
67.718837716550127
 20
64.356309244594826
 30
0.0
  0
VERTEX
  5
1C0C
  8
0
 10
67.720673821797732
 20
64.32048644027968
 30
0.0
  0
SEQEND
  5
1C0D
  8
0
  0
LINE
  5
BF8
  8
2
 10
51.360336910930641
 20
40.0
 30
0.0
 11
51.360336910930641
 21
49.999999999999993
 31
0.0
  0
LINE
  5
BFA
  8
2
 10
56.360336910930641
 20
40.0
 30
0.0
 11
56.360336910930641
 21
49.999999999999993
 31
0.0
  0
LINE
  5
BFC
  8
1
 10
53.860336910930641
 20
37.0
 30
0.0
 11
53.860336910930641
 21
68.89876847470093
 31
0.0
  0
ENDSEC
  0
EOF
