  0
SECTION
  2
HEADER
  9
$ACADVER
  1
AC1009
  9
$INSBASE
 10
0.0
 20
0.0
 30
0.0
  9
$EXTMIN
 10
0.0
 20
-1.4802182810368341
 30
0.0
  9
$EXTMAX
 10
155.74227038671319
 20
85.275885427256171
 30
0.0
  9
$LIMMIN
 10
0.0
 20
0.0
  9
$LIMMAX
 10
275.0
 20
175.0
  9
$ORTHOMODE
 70
     0
  9
$REGENMODE
 70
     1
  9
$FILLMODE
 70
     1
  9
$QTEXTMODE
 70
     0
  9
$MIRRTEXT
 70
     0
  9
$DRAGMODE
 70
     2
  9
$LTSCALE
 40
5.0
  9
$OSMODE
 70
    55
  9
$ATTMODE
 70
     1
  9
$TEXTSIZE
 40
0.2
  9
$TRACEWID
 40
0.05
  9
$TEXTSTYLE
  7
STANDARD
  9
$CLAYER
  8
0
  9
$CELTYPE
  6
BYLAYER
  9
$CECOLOR
 62
   256
  9
$DIMSCALE
 40
1.0
  9
$DIMASZ
 40
3.0
  9
$DIMEXO
 40
1.0
  9
$DIMDLI
 40
6.0
  9
$DIMRND
 40
0.0
  9
$DIMDLE
 40
0.0
  9
$DIMEXE
 40
1.0
  9
$DIMTP
 40
495.0
  9
$DIMTM
 40
0.0
  9
$DIMTXT
 40
3.0
  9
$DIMCEN
 40
0.0
  9
$DIMTSZ
 40
0.0
  9
$DIMTOL
 70
     0
  9
$DIMLIM
 70
     0
  9
$DIMTIH
 70
     0
  9
$DIMTOH
 70
     0
  9
$DIMSE1
 70
     0
  9
$DIMSE2
 70
     0
  9
$DIMTAD
 70
     1
  9
$DIMZIN
 70
     0
  9
$DIMBLK
  1

  9
$DIMASO
 70
     0
  9
$DIMSHO
 70
     0
  9
$DIMPOST
  1

  9
$DIMAPOST
  1

  9
$DIMALT
 70
     0
  9
$DIMALTD
 70
     2
  9
$DIMALTF
 40
25.399999999999999
  9
$DIMLFAC
 40
1.0
  9
$DIMTOFL
 70
     1
  9
$DIMTVP
 40
0.0
  9
$DIMTIX
 70
     1
  9
$DIMSOXD
 70
     0
  9
$DIMSAH
 70
     0
  9
$DIMBLK1
  1

  9
$DIMBLK2
  1

  9
$DIMSTYLE
  2
STANDARD
  9
$DIMCLRD
 70
     0
  9
$DIMCLRE
 70
     0
  9
$DIMCLRT
 70
     4
  9
$DIMTFAC
 40
1.0
  9
$DIMGAP
 40
1.0
  9
$LUNITS
 70
     2
  9
$LUPREC
 70
     4
  9
$SKETCHINC
 40
0.1
  9
$FILLETRAD
 40
0.0
  9
$AUNITS
 70
     0
  9
$AUPREC
 70
     0
  9
$MENU
  1
E:\r13\win\SUPPORT\ACAD
  9
$ELEVATION
 40
0.0
  9
$PELEVATION
 40
0.0
  9
$THICKNESS
 40
0.0
  9
$LIMCHECK
 70
     0
  9
$BLIPMODE
 70
     0
  9
$CHAMFERA
 40
0.0
  9
$CHAMFERB
 40
0.0
  9
$SKPOLY
 70
     0
  9
$TDCREATE
 40
2450653.5278402781
  9
$TDUPDATE
 40
2456598.4385335771
  9
$TDINDWG
 40
0.0462525347
  9
$TDUSRTIMER
 40
0.0462525347
  9
$USRTIMER
 70
     1
  9
$ANGBASE
 50
0.0
  9
$ANGDIR
 70
     0
  9
$PDMODE
 70
     0
  9
$PDSIZE
 40
0.0
  9
$PLINEWID
 40
0.0
  9
$COORDS
 70
     1
  9
$SPLFRAME
 70
     0
  9
$SPLINETYPE
 70
     6
  9
$SPLINESEGS
 70
     8
  9
$ATTDIA
 70
     0
  9
$ATTREQ
 70
     1
  9
$HANDLING
 70
     1
  9
$HANDSEED
  5
372
  9
$SURFTAB1
 70
     6
  9
$SURFTAB2
 70
     6
  9
$SURFTYPE
 70
     6
  9
$SURFU
 70
     6
  9
$SURFV
 70
     6
  9
$UCSNAME
  2

  9
$UCSORG
 10
0.0
 20
0.0
 30
0.0
  9
$UCSXDIR
 10
1.0
 20
0.0
 30
0.0
  9
$UCSYDIR
 10
0.0
 20
1.0
 30
0.0
  9
$PUCSNAME
  2

  9
$PUCSORG
 10
0.0
 20
0.0
 30
0.0
  9
$PUCSXDIR
 10
1.0
 20
0.0
 30
0.0
  9
$PUCSYDIR
 10
0.0
 20
1.0
 30
0.0
  9
$USERI1
 70
     4
  9
$USERI2
 70
     1
  9
$USERI3
 70
     1
  9
$USERI4
 70
     0
  9
$USERI5
 70
     0
  9
$USERR1
 40
1.0
  9
$USERR2
 40
3.0
  9
$USERR3
 40
3.0
  9
$USERR4
 40
3.0
  9
$USERR5
 40
10.0
  9
$WORLDVIEW
 70
     1
  9
$SHADEDGE
 70
     3
  9
$SHADEDIF
 70
    70
  9
$TILEMODE
 70
     1
  9
$MAXACTVP
 70
    16
  9
$PLIMCHECK
 70
     0
  9
$PEXTMIN
 10
1.0000000000000000E+020
 20
1.0000000000000000E+020
 30
1.0000000000000000E+020
  9
$PEXTMAX
 10
-1.0000000000000000E+020
 20
-1.0000000000000000E+020
 30
-1.0000000000000000E+020
  9
$PLIMMIN
 10
0.0
 20
0.0
  9
$PLIMMAX
 10
12.0
 20
9.0
  9
$UNITMODE
 70
     0
  9
$VISRETAIN
 70
     0
  9
$PLINEGEN
 70
     0
  9
$PSLTSCALE
 70
     0
  0
ENDSEC
  0
SECTION
  2
TABLES
  0
TABLE
  2
VPORT
 70
     1
  0
VPORT
  2
*ACTIVE
 70
     0
 10
0.0
 20
0.0
 11
1.0
 21
1.0
 12
137.495804153145
 22
127.8359238249443
 13
0.0
 23
0.0
 14
5.0
 24
5.0
 15
10.0
 25
10.0
 16
0.0
 26
0.0
 36
1.0
 17
0.0
 27
0.0
 37
0.0
 40
260.92380389596133
 41
1.7807262569832401
 42
50.0
 43
0.0
 44
0.0
 50
0.0
 51
0.0
 71
     0
 72
   100
 73
     1
 74
     0
 75
     0
 76
     0
 77
     0
 78
     0
  0
ENDTAB
  0
TABLE
  2
LTYPE
 70
     3
  0
LTYPE
  2
CONTINUOUS
 70
     0
  3
Solid Line
 72
    65
 73
     0
 40
0.0
  0
LTYPE
  2
CENTER
 70
     0
  3
____ _ ____ _ ____ _ ____ _ ____ _ ____ _ ____
 72
    65
 73
     4
 40
2.0
 49
1.25
 49
-0.25
 49
0.25
 49
-0.25
  0
LTYPE
  2
PHANTOM2
 70
     0
  3
___ _ _ ___ _ _ ___ _ _ ___ _ _
 72
    65
 73
     6
 40
1.25
 49
0.625
 49
-0.125
 49
0.125
 49
-0.125
 49
0.125
 49
-0.125
  0
ENDTAB
  0
TABLE
  2
LAYER
 70
     3
  0
LAYER
  2
0
 70
     0
 62
     7
  6
CONTINUOUS
  0
LAYER
  2
1
 70
     0
 62
     1
  6
CENTER
  0
LAYER
  2
3
 70
     0
 62
     3
  6
CONTINUOUS
  0
ENDTAB
  0
TABLE
  2
STYLE
 70
     2
  0
STYLE
  2
STANDARD
 70
     0
 40
0.0
 41
1.0
 50
0.0
 71
     0
 42
0.2
  3
simplex
  4
bigfont
  0
STYLE
  2
STANDARD1
 70
     0
 40
0.0
 41
1.0
 50
0.0
 71
     0
 42
3.0
  3
txt
  4

  0
ENDTAB
  0
TABLE
  2
VIEW
 70
     0
  0
ENDTAB
  0
TABLE
  2
UCS
 70
     0
  0
ENDTAB
  0
TABLE
  2
APPID
 70
     3
  0
APPID
  2
ACAD
 70
     0
  0
APPID
  2
ACAD_MLEADERVER
 70
     0
  0
APPID
  2
ACAD_NAV_VCDISPLAY
 70
     0
  0
ENDTAB
  0
TABLE
  2
DIMSTYLE
 70
     1
  0
DIMSTYLE
  2
STANDARD
 70
     0
  3

  4

  5

  6

  7

 40
1.0
 41
0.18
 42
0.0625
 43
0.38
 44
0.18
 45
0.0
 46
0.0
 47
0.0
 48
0.0
140
0.18
141
0.09
142
0.0
143
25.399999999999999
144
1.0
145
0.0
146
1.0
147
0.09
 71
     0
 72
     0
 73
     1
 74
     1
 75
     0
 76
     0
 77
     0
 78
     0
170
     0
171
     2
172
     0
173
     0
174
     0
175
     0
176
     0
177
     0
178
     0
  0
ENDTAB
  0
ENDSEC
  0
SECTION
  2
BLOCKS
  0
BLOCK
  8
0
  2
$MODEL_SPACE
 70
     0
 10
0.0
 20
0.0
 30
0.0
  3
$MODEL_SPACE
  1

  0
ENDBLK
  5
7
  8
0
  0
BLOCK
 67
     1
  8
0
  2
$PAPER_SPACE
 70
     0
 10
0.0
 20
0.0
 30
0.0
  3
$PAPER_SPACE
  1

  0
ENDBLK
  5
A
 67
     1
  8
0
  0
ENDSEC
  0
SECTION
  2
ENTITIES
  0
LINE
  5
1D7
  8
1
 10
105.7422703867132
 20
72.117520866609354
 30
0.0
 11
83.742270386713344
 21
72.117520866609354
 31
0.0
  0
CIRCLE
  5
1D8
  8
0
 10
46.742270386713336
 20
72.025885427256171
 30
0.0
 40
10.25
  0
LINE
  5
1D9
  8
0
 10
102.7422703867132
 20
64.617520866609354
 30
0.0
 11
102.7422703867132
 21
79.617520866609354
 31
0.0
  0
LINE
  5
1DA
  8
0
 10
88.992270386713429
 20
64.692520866609314
 30
0.0
 11
88.992270386713429
 21
79.542520866609323
 31
0.0
  0
LINE
  5
1DB
  8
0
 10
92.992270386713244
 20
62.117520866609361
 30
0.0
 11
92.992270386713244
 21
82.117520866607833
 31
0.0
  0
LINE
  5
1DC
  8
0
 10
86.742270386713415
 20
82.367520866609354
 30
0.0
 11
86.742270386713244
 21
61.867520866609368
 31
0.0
  0
LINE
  5
1DD
  8
0
 10
100.2422703867132
 20
62.117520866609361
 30
0.0
 11
100.2422703867132
 21
82.117520866609354
 31
0.0
  0
LINE
  5
1DE
  8
0
 10
47.642270386713427
 20
64.426543350470922
 30
0.0
 11
47.642270386713449
 21
79.625227504041519
 31
0.0
  0
LINE
  5
1DF
  8
0
 10
45.842270386713352
 20
64.426543350470951
 30
0.0
 11
45.842270386713359
 21
79.625227504041519
 31
0.0
  0
LINE
  5
1E0
  8
1
 10
46.742270386713336
 20
85.275885427256171
 30
0.0
 11
46.742270386713336
 21
58.775885427256171
 31
0.0
  0
LINE
  5
1E1
  8
1
 10
59.992270386713336
 20
72.025885427256171
 30
0.0
 11
33.492270386713336
 21
72.025885427256171
 31
0.0
  0
LINE
  5
1E2
  8
0
 10
47.642270386713427
 20
64.426543350470922
 30
0.0
 11
45.842270386713352
 21
64.426543350470951
 31
0.0
  0
LINE
  5
1E3
  8
3
 10
101.5952703867133
 20
63.47052086660937
 30
0.0
 11
92.992270386713244
 21
63.47052086660937
 31
0.0
  0
LINE
  5
1E4
  8
0
 10
92.992270386713244
 20
62.117520866609361
 30
0.0
 11
100.2422703867132
 21
62.117520866609361
 31
0.0
  0
LINE
  5
1E5
  8
0
 10
89.323641236611934
 20
63.867520866609311
 30
0.0
 11
92.192270386713361
 21
63.86752086660919
 31
0.0
  0
LINE
  5
1E6
  8
0
 10
86.992270386713216
 20
61.867520866609368
 30
0.0
 11
86.742270386713244
 21
61.867520866609382
 31
0.0
  0
ARC
  5
1E7
  8
0
 10
89.323641236611934
 20
63.06752086660935
 30
0.0
 40
0.8
 50
90.000000000006509
 51
134.99999999999741
  0
LINE
  5
1E8
  8
0
 10
86.992270386713216
 20
61.867520866609368
 30
0.0
 11
88.75795581166274
 21
63.633206291558622
 31
0.0
  0
ARC
  5
1E9
  8
0
 10
92.192270386713304
 20
63.067520866609179
 30
0.0
 40
0.8
 50
0.0
 51
89.999999999993491
  0
LINE
  5
1EA
  8
0
 10
102.7422703867132
 20
64.617520866609354
 30
0.0
 11
100.2422703867132
 21
62.117520866609361
 31
0.0
  0
LINE
  5
1EB
  8
0
 10
47.642270386713449
 20
79.625227504041519
 30
0.0
 11
45.842270386713359
 21
79.625227504041519
 31
0.0
  0
LINE
  5
1EC
  8
3
 10
101.5952703867133
 20
80.764520866609345
 30
0.0
 11
92.992270386713244
 21
80.764520866609345
 31
0.0
  0
LINE
  5
1ED
  8
0
 10
100.2422703867132
 20
82.117520866609354
 30
0.0
 11
92.992270386713244
 21
82.117520866609425
 31
0.0
  0
LINE
  5
1EE
  8
0
 10
89.323641236611934
 20
80.367520866609425
 30
0.0
 11
92.192270386713361
 21
80.367520866609524
 31
0.0
  0
LINE
  5
1EF
  8
0
 10
86.992270386713685
 20
82.367520866609368
 30
0.0
 11
86.742270386713415
 21
82.367520866609382
 31
0.0
  0
ARC
  5
1F0
  8
0
 10
89.323641236611891
 20
81.167520866609436
 30
0.0
 40
0.8
 50
224.99999999999571
 51
270.00000000000648
  0
LINE
  5
1F1
  8
0
 10
86.992270386713685
 20
82.367520866609368
 30
0.0
 11
88.757955811662555
 21
80.601835441660214
 31
0.0
  0
ARC
  5
1F2
  8
0
 10
92.192270386713304
 20
81.167520866609607
 30
0.0
 40
0.8
 50
270.00000000000648
 51
0.0
  0
LINE
  5
1F3
  8
0
 10
100.2422703867132
 20
82.117520866609354
 30
0.0
 11
102.7422703867132
 21
79.617520866609354
 31
0.0
  0
CIRCLE
  5
1F4
  8
3
 10
142.74227038671319
 20
72.117520866609425
 30
0.0
 40
8.6469999999999914
  0
CIRCLE
  5
1F5
  8
0
 10
142.74227038671319
 20
72.117520866609425
 30
0.0
 40
10.0
  0
CIRCLE
  5
1F6
  8
0
 10
142.74227038671319
 20
72.117520866609425
 30
0.0
 40
7.5
  0
LINE
  5
1F7
  8
1
 10
142.74227038671319
 20
85.117520866609425
 30
0.0
 11
142.74227038671319
 21
59.117520866609432
 31
0.0
  0
LINE
  5
1F8
  8
1
 10
129.74227038671319
 20
72.117520866609354
 30
0.0
 11
155.74227038671319
 21
72.117520866609382
 31
0.0
  0
TEXT
  5
2DE
  8
0
 62
     3
 10
0.0
 20
0.0
 30
0.0
 40
5.0
  1
THP20
  7
STANDARD1
  0
ENDSEC
  0
EOF
