  0
SECTION
  2
HEADER
  9
$ACADVER
  1
AC1009
  9
$INSBASE
 10
0.0
 20
0.0
 30
0.0
  9
$EXTMIN
 10
0.0
 20
-1.4802182810368341
 30
0.0
  9
$EXTMAX
 10
70.644504204220539
 20
26.066041336465819
 30
0.0
  9
$LIMMIN
 10
0.0
 20
0.0
  9
$LIMMAX
 10
275.0
 20
175.0
  9
$ORTHOMODE
 70
     1
  9
$REGENMODE
 70
     1
  9
$FILLMODE
 70
     1
  9
$QTEXTMODE
 70
     0
  9
$MIRRTEXT
 70
     0
  9
$DRAGMODE
 70
     2
  9
$LTSCALE
 40
5.0
  9
$OSMODE
 70
    55
  9
$ATTMODE
 70
     1
  9
$TEXTSIZE
 40
0.2
  9
$TRACEWID
 40
0.05
  9
$TEXTSTYLE
  7
STANDARD
  9
$CLAYER
  8
0
  9
$CELTYPE
  6
BYLAYER
  9
$CECOLOR
 62
   256
  9
$DIMSCALE
 40
1.0
  9
$DIMASZ
 40
3.0
  9
$DIMEXO
 40
1.0
  9
$DIMDLI
 40
6.0
  9
$DIMRND
 40
0.0
  9
$DIMDLE
 40
0.0
  9
$DIMEXE
 40
1.0
  9
$DIMTP
 40
495.0
  9
$DIMTM
 40
0.0
  9
$DIMTXT
 40
3.0
  9
$DIMCEN
 40
0.0
  9
$DIMTSZ
 40
0.0
  9
$DIMTOL
 70
     0
  9
$DIMLIM
 70
     0
  9
$DIMTIH
 70
     0
  9
$DIMTOH
 70
     0
  9
$DIMSE1
 70
     0
  9
$DIMSE2
 70
     0
  9
$DIMTAD
 70
     1
  9
$DIMZIN
 70
     0
  9
$DIMBLK
  1

  9
$DIMASO
 70
     0
  9
$DIMSHO
 70
     0
  9
$DIMPOST
  1

  9
$DIMAPOST
  1

  9
$DIMALT
 70
     0
  9
$DIMALTD
 70
     2
  9
$DIMALTF
 40
25.399999999999999
  9
$DIMLFAC
 40
1.0
  9
$DIMTOFL
 70
     1
  9
$DIMTVP
 40
0.0
  9
$DIMTIX
 70
     1
  9
$DIMSOXD
 70
     0
  9
$DIMSAH
 70
     0
  9
$DIMBLK1
  1

  9
$DIMBLK2
  1

  9
$DIMSTYLE
  2
STANDARD
  9
$DIMCLRD
 70
     0
  9
$DIMCLRE
 70
     0
  9
$DIMCLRT
 70
     4
  9
$DIMTFAC
 40
1.0
  9
$DIMGAP
 40
1.0
  9
$LUNITS
 70
     2
  9
$LUPREC
 70
     4
  9
$SKETCHINC
 40
0.1
  9
$FILLETRAD
 40
0.0
  9
$AUNITS
 70
     0
  9
$AUPREC
 70
     0
  9
$MENU
  1
E:\r13\win\SUPPORT\ACAD
  9
$ELEVATION
 40
0.0
  9
$PELEVATION
 40
0.0
  9
$THICKNESS
 40
0.0
  9
$LIMCHECK
 70
     0
  9
$BLIPMODE
 70
     0
  9
$CHAMFERA
 40
0.0
  9
$CHAMFERB
 40
0.0
  9
$SKPOLY
 70
     0
  9
$TDCREATE
 40
2450653.5278402781
  9
$TDUPDATE
 40
2456598.4384373501
  9
$TDINDWG
 40
0.0432207292
  9
$TDUSRTIMER
 40
0.0432207292
  9
$USRTIMER
 70
     1
  9
$ANGBASE
 50
0.0
  9
$ANGDIR
 70
     0
  9
$PDMODE
 70
     0
  9
$PDSIZE
 40
0.0
  9
$PLINEWID
 40
0.0
  9
$COORDS
 70
     1
  9
$SPLFRAME
 70
     0
  9
$SPLINETYPE
 70
     6
  9
$SPLINESEGS
 70
     8
  9
$ATTDIA
 70
     0
  9
$ATTREQ
 70
     1
  9
$HANDLING
 70
     1
  9
$HANDSEED
  5
282
  9
$SURFTAB1
 70
     6
  9
$SURFTAB2
 70
     6
  9
$SURFTYPE
 70
     6
  9
$SURFU
 70
     6
  9
$SURFV
 70
     6
  9
$UCSNAME
  2

  9
$UCSORG
 10
0.0
 20
0.0
 30
0.0
  9
$UCSXDIR
 10
1.0
 20
0.0
 30
0.0
  9
$UCSYDIR
 10
0.0
 20
1.0
 30
0.0
  9
$PUCSNAME
  2

  9
$PUCSORG
 10
0.0
 20
0.0
 30
0.0
  9
$PUCSXDIR
 10
1.0
 20
0.0
 30
0.0
  9
$PUCSYDIR
 10
0.0
 20
1.0
 30
0.0
  9
$USERI1
 70
     4
  9
$USERI2
 70
     1
  9
$USERI3
 70
     1
  9
$USERI4
 70
     0
  9
$USERI5
 70
     0
  9
$USERR1
 40
1.0
  9
$USERR2
 40
3.0
  9
$USERR3
 40
3.0
  9
$USERR4
 40
3.0
  9
$USERR5
 40
10.0
  9
$WORLDVIEW
 70
     1
  9
$SHADEDGE
 70
     3
  9
$SHADEDIF
 70
    70
  9
$TILEMODE
 70
     1
  9
$MAXACTVP
 70
    16
  9
$PLIMCHECK
 70
     0
  9
$PEXTMIN
 10
1.0000000000000000E+020
 20
1.0000000000000000E+020
 30
1.0000000000000000E+020
  9
$PEXTMAX
 10
-1.0000000000000000E+020
 20
-1.0000000000000000E+020
 30
-1.0000000000000000E+020
  9
$PLIMMIN
 10
0.0
 20
0.0
  9
$PLIMMAX
 10
12.0
 20
9.0
  9
$UNITMODE
 70
     0
  9
$VISRETAIN
 70
     0
  9
$PLINEGEN
 70
     0
  9
$PSLTSCALE
 70
     0
  0
ENDSEC
  0
SECTION
  2
TABLES
  0
TABLE
  2
VPORT
 70
     1
  0
VPORT
  2
*ACTIVE
 70
     0
 10
0.0
 20
0.0
 11
1.0
 21
1.0
 12
137.495804153145
 22
127.8359238249443
 13
0.0
 23
0.0
 14
5.0
 24
5.0
 15
10.0
 25
10.0
 16
0.0
 26
0.0
 36
1.0
 17
0.0
 27
0.0
 37
0.0
 40
260.92380389596133
 41
1.7807262569832401
 42
50.0
 43
0.0
 44
0.0
 50
0.0
 51
0.0
 71
     0
 72
   100
 73
     1
 74
     0
 75
     0
 76
     0
 77
     0
 78
     0
  0
ENDTAB
  0
TABLE
  2
LTYPE
 70
     3
  0
LTYPE
  2
CONTINUOUS
 70
     0
  3
Solid Line
 72
    65
 73
     0
 40
0.0
  0
LTYPE
  2
CENTER
 70
     0
  3
____ _ ____ _ ____ _ ____ _ ____ _ ____ _ ____
 72
    65
 73
     4
 40
2.0
 49
1.25
 49
-0.25
 49
0.25
 49
-0.25
  0
LTYPE
  2
PHANTOM2
 70
     0
  3
___ _ _ ___ _ _ ___ _ _ ___ _ _
 72
    65
 73
     6
 40
1.25
 49
0.625
 49
-0.125
 49
0.125
 49
-0.125
 49
0.125
 49
-0.125
  0
ENDTAB
  0
TABLE
  2
LAYER
 70
     3
  0
LAYER
  2
0
 70
     0
 62
     7
  6
CONTINUOUS
  0
LAYER
  2
1
 70
     0
 62
     1
  6
CENTER
  0
LAYER
  2
3
 70
     0
 62
     3
  6
CONTINUOUS
  0
ENDTAB
  0
TABLE
  2
STYLE
 70
     2
  0
STYLE
  2
STANDARD
 70
     0
 40
0.0
 41
1.0
 50
0.0
 71
     0
 42
0.2
  3
simplex
  4
bigfont
  0
STYLE
  2
STANDARD1
 70
     0
 40
0.0
 41
1.0
 50
0.0
 71
     0
 42
3.0
  3
txt
  4

  0
ENDTAB
  0
TABLE
  2
VIEW
 70
     0
  0
ENDTAB
  0
TABLE
  2
UCS
 70
     0
  0
ENDTAB
  0
TABLE
  2
APPID
 70
     3
  0
APPID
  2
ACAD
 70
     0
  0
APPID
  2
ACAD_MLEADERVER
 70
     0
  0
APPID
  2
ACAD_NAV_VCDISPLAY
 70
     0
  0
ENDTAB
  0
TABLE
  2
DIMSTYLE
 70
     1
  0
DIMSTYLE
  2
STANDARD
 70
     0
  3

  4

  5

  6

  7

 40
1.0
 41
0.18
 42
0.0625
 43
0.38
 44
0.18
 45
0.0
 46
0.0
 47
0.0
 48
0.0
140
0.18
141
0.09
142
0.0
143
25.399999999999999
144
1.0
145
0.0
146
1.0
147
0.09
 71
     0
 72
     0
 73
     1
 74
     1
 75
     0
 76
     0
 77
     0
 78
     0
170
     0
171
     2
172
     0
173
     0
174
     0
175
     0
176
     0
177
     0
178
     0
  0
ENDTAB
  0
ENDSEC
  0
SECTION
  2
BLOCKS
  0
BLOCK
  8
0
  2
$MODEL_SPACE
 70
     0
 10
0.0
 20
0.0
 30
0.0
  3
$MODEL_SPACE
  1

  0
ENDBLK
  5
7
  8
0
  0
BLOCK
 67
     1
  8
0
  2
$PAPER_SPACE
 70
     0
 10
0.0
 20
0.0
 30
0.0
  3
$PAPER_SPACE
  1

  0
ENDBLK
  5
A
 67
     1
  8
0
  0
ENDSEC
  0
SECTION
  2
ENTITIES
  0
LINE
  5
C7
  8
1
 10
32.644504204222351
 20
18.316041336465808
 30
0.0
 11
45.644504204222358
 21
18.316041336465808
 31
0.0
  0
CIRCLE
  5
C8
  8
0
 10
15.144504204222359
 20
18.316041336465808
 30
0.0
 40
5.0
  0
LINE
  5
C9
  8
0
 10
15.74450420422245
 20
13.843905381466239
 30
0.0
 11
15.7445042042224
 21
22.78817729146542
 31
0.0
  0
LINE
  5
CA
  8
0
 10
14.544504204222379
 20
13.843905381466239
 30
0.0
 11
14.544504204222379
 21
22.788177291465349
 31
0.0
  0
LINE
  5
CB
  8
1
 10
15.144504204222359
 20
26.066041336465819
 30
0.0
 11
15.144504204222359
 21
10.56604133646581
 31
0.0
  0
LINE
  5
CC
  8
0
 10
43.144504204222578
 20
21.816041336464
 30
0.0
 11
43.14450420422213
 21
14.816041336467631
 31
0.0
  0
LINE
  5
CD
  8
0
 10
41.64450420422213
 20
23.316041336464
 30
0.0
 11
41.64450420422213
 21
13.316041336467631
 31
0.0
  0
LINE
  5
CE
  8
0
 10
36.644504204222528
 20
14.71604133646581
 30
0.0
 11
36.644504204222528
 21
21.916041336465611
 31
0.0
  0
LINE
  5
CF
  8
0
 10
38.944504204222518
 20
23.316041336464
 30
0.0
 11
38.944504204222518
 21
13.316041336467631
 31
0.0
  0
LINE
  5
D0
  8
0
 10
35.144504204222358
 20
23.316041336465819
 30
0.0
 11
35.144504204222372
 21
13.316041336465821
 31
0.0
  0
LINE
  5
D1
  8
0
 10
15.74450420422245
 20
13.843905381466239
 30
0.0
 11
14.544504204222379
 21
13.843905381466239
 31
0.0
  0
LINE
  5
D2
  8
0
 10
36.810189629171759
 20
14.46604133646581
 30
0.0
 11
38.544504204222548
 21
14.46604133646581
 31
0.0
  0
LINE
  5
D3
  8
0
 10
35.4945042042227
 20
13.31604133646581
 30
0.0
 11
36.527346916697127
 21
14.348884048940411
 31
0.0
  0
LINE
  5
D4
  8
0
 10
35.144504204222358
 20
13.31604133646581
 30
0.0
 11
35.4945042042227
 21
13.31604133646581
 31
0.0
  0
ARC
  5
D5
  8
0
 10
36.810189629171759
 20
14.06604133646584
 30
0.0
 40
0.4
 50
90.0
 51
135.00000000000429
  0
LINE
  5
D6
  8
3
 10
42.456504204221112
 20
14.12804133646617
 30
0.0
 11
38.944504204222518
 21
14.12804133646617
 31
0.0
  0
LINE
  5
D7
  8
0
 10
41.64450420422213
 20
13.316041336467631
 30
0.0
 11
38.944504204222518
 21
13.316041336467631
 31
0.0
  0
ARC
  5
D8
  8
0
 10
38.544504204222548
 20
14.06604133646584
 30
0.0
 40
0.4
 50
0.0000000000001018
 51
90.0
  0
LINE
  5
D9
  8
0
 10
43.14450420422213
 20
14.816041336467631
 30
0.0
 11
41.64450420422213
 21
13.316041336467631
 31
0.0
  0
LINE
  5
DA
  8
1
 10
22.894504204222361
 20
18.316041336465808
 30
0.0
 11
7.3945042042223612
 21
18.316041336465808
 31
0.0
  0
LINE
  5
DB
  8
0
 10
15.7445042042224
 20
22.78817729146542
 30
0.0
 11
14.544504204222379
 21
22.788177291465349
 31
0.0
  0
LINE
  5
DC
  8
0
 10
36.810189629171759
 20
22.16604133646582
 30
0.0
 11
38.544504204222548
 21
22.16604133646582
 31
0.0
  0
ARC
  5
DF
  8
0
 10
36.810189629171759
 20
22.566041336465791
 30
0.0
 40
0.4
 50
225.00000000000429
 51
270.0
  0
LINE
  5
E0
  8
3
 10
42.456504204221112
 20
22.504041336465459
 30
0.0
 11
38.944504204222518
 21
22.504041336465459
 31
0.0
  0
LINE
  5
E1
  8
0
 10
38.944504204222518
 20
23.316041336464
 30
0.0
 11
41.644504204222578
 21
23.316041336464
 31
0.0
  0
ARC
  5
E2
  8
0
 10
38.544504204222548
 20
22.566041336465791
 30
0.0
 40
0.4
 50
270.0
 51
359.99999999999989
  0
LINE
  5
E3
  8
0
 10
41.644504204222578
 20
23.316041336464
 30
0.0
 11
43.144504204222578
 21
21.816041336464
 31
0.0
  0
CIRCLE
  5
E4
  8
0
 10
63.144504204222358
 20
18.316041336465808
 30
0.0
 40
4.999999999998181
  0
CIRCLE
  5
E5
  8
3
 10
63.144504204222358
 20
18.316041336465808
 30
0.0
 40
4.1879999999996471
  0
CIRCLE
  5
E6
  8
0
 10
63.144504204222358
 20
18.316041336465808
 30
0.0
 40
3.6143593539438821
  0
LINE
  5
E7
  8
1
 10
63.144504204222358
 20
25.816041336464
 30
0.0
 11
63.144504204222358
 21
10.816041336467631
 31
0.0
  0
LINE
  5
E9
  8
1
 10
55.64450420422417
 20
18.316041336465808
 30
0.0
 11
70.644504204220539
 21
18.316041336465808
 31
0.0
  0
LINE
  5
117
  8
0
 10
35.1445042042224
 20
23.316041336465819
 30
0.0
 11
35.494504204222743
 21
23.316041336465819
 31
0.0
  0
LINE
  5
118
  8
0
 10
35.494504204222743
 20
23.316041336465819
 30
0.0
 11
36.527346916697162
 21
22.283198623991211
 31
0.0
  0
TEXT
  5
1EE
  8
0
 62
     3
 10
0.0
 20
0.0
 30
0.0
 40
5.0
  1
THP10-SUS
  7
STANDARD1
  0
ENDSEC
  0
EOF
