  0
SECTION
  2
HEADER
  9
$ACADVER
  1
AC1009
  9
$INSBASE
 10
0.0
 20
0.0
 30
0.0
  9
$EXTMIN
 10
0.0
 20
-2.960436562073669
 30
0.0
  9
$EXTMAX
 10
206.99999999999221
 20
166.49977163013011
 30
0.0
  9
$LIMMIN
 10
0.0
 20
0.0
  9
$LIMMAX
 10
275.0
 20
175.0
  9
$ORTHOMODE
 70
     1
  9
$REGENMODE
 70
     1
  9
$FILLMODE
 70
     1
  9
$QTEXTMODE
 70
     0
  9
$MIRRTEXT
 70
     0
  9
$DRAGMODE
 70
     2
  9
$LTSCALE
 40
10.0
  9
$OSMODE
 70
    37
  9
$ATTMODE
 70
     1
  9
$TEXTSIZE
 40
0.2
  9
$TRACEWID
 40
0.05
  9
$TEXTSTYLE
  7
STANDARD
  9
$CLAYER
  8
0
  9
$CELTYPE
  6
BYLAYER
  9
$CECOLOR
 62
   256
  9
$DIMSCALE
 40
1.0
  9
$DIMASZ
 40
3.0
  9
$DIMEXO
 40
1.0
  9
$DIMDLI
 40
6.0
  9
$DIMRND
 40
0.0
  9
$DIMDLE
 40
0.0
  9
$DIMEXE
 40
1.0
  9
$DIMTP
 40
495.0
  9
$DIMTM
 40
0.0
  9
$DIMTXT
 40
3.0
  9
$DIMCEN
 40
0.0
  9
$DIMTSZ
 40
0.0
  9
$DIMTOL
 70
     0
  9
$DIMLIM
 70
     0
  9
$DIMTIH
 70
     0
  9
$DIMTOH
 70
     0
  9
$DIMSE1
 70
     0
  9
$DIMSE2
 70
     0
  9
$DIMTAD
 70
     1
  9
$DIMZIN
 70
     0
  9
$DIMBLK
  1

  9
$DIMASO
 70
     0
  9
$DIMSHO
 70
     0
  9
$DIMPOST
  1

  9
$DIMAPOST
  1

  9
$DIMALT
 70
     0
  9
$DIMALTD
 70
     2
  9
$DIMALTF
 40
25.399999999999999
  9
$DIMLFAC
 40
1.0
  9
$DIMTOFL
 70
     1
  9
$DIMTVP
 40
0.0
  9
$DIMTIX
 70
     1
  9
$DIMSOXD
 70
     0
  9
$DIMSAH
 70
     0
  9
$DIMBLK1
  1

  9
$DIMBLK2
  1

  9
$DIMSTYLE
  2
STANDARD
  9
$DIMCLRD
 70
     4
  9
$DIMCLRE
 70
     4
  9
$DIMCLRT
 70
     4
  9
$DIMTFAC
 40
1.0
  9
$DIMGAP
 40
1.0
  9
$LUNITS
 70
     2
  9
$LUPREC
 70
     1
  9
$SKETCHINC
 40
0.1
  9
$FILLETRAD
 40
0.0
  9
$AUNITS
 70
     0
  9
$AUPREC
 70
     1
  9
$MENU
  1
E:\r13\win\SUPPORT\ACAD
  9
$ELEVATION
 40
0.0
  9
$PELEVATION
 40
0.0
  9
$THICKNESS
 40
0.0
  9
$LIMCHECK
 70
     0
  9
$BLIPMODE
 70
     0
  9
$CHAMFERA
 40
0.0
  9
$CHAMFERB
 40
0.0
  9
$SKPOLY
 70
     0
  9
$TDCREATE
 40
2450653.5278402781
  9
$TDUPDATE
 40
2457969.642240278
  9
$TDINDWG
 40
0.0445542361
  9
$TDUSRTIMER
 40
0.0445542361
  9
$USRTIMER
 70
     1
  9
$ANGBASE
 50
0.0
  9
$ANGDIR
 70
     0
  9
$PDMODE
 70
     0
  9
$PDSIZE
 40
0.0
  9
$PLINEWID
 40
0.0
  9
$COORDS
 70
     1
  9
$SPLFRAME
 70
     0
  9
$SPLINETYPE
 70
     6
  9
$SPLINESEGS
 70
     8
  9
$ATTDIA
 70
     0
  9
$ATTREQ
 70
     1
  9
$HANDLING
 70
     1
  9
$HANDSEED
  5
723
  9
$SURFTAB1
 70
     6
  9
$SURFTAB2
 70
     6
  9
$SURFTYPE
 70
     6
  9
$SURFU
 70
     6
  9
$SURFV
 70
     6
  9
$UCSNAME
  2

  9
$UCSORG
 10
0.0
 20
0.0
 30
0.0
  9
$UCSXDIR
 10
1.0
 20
0.0
 30
0.0
  9
$UCSYDIR
 10
0.0
 20
1.0
 30
0.0
  9
$PUCSNAME
  2

  9
$PUCSORG
 10
0.0
 20
0.0
 30
0.0
  9
$PUCSXDIR
 10
1.0
 20
0.0
 30
0.0
  9
$PUCSYDIR
 10
0.0
 20
1.0
 30
0.0
  9
$USERI1
 70
     4
  9
$USERI2
 70
     1
  9
$USERI3
 70
     1
  9
$USERI4
 70
     0
  9
$USERI5
 70
     0
  9
$USERR1
 40
1.0
  9
$USERR2
 40
3.0
  9
$USERR3
 40
3.0
  9
$USERR4
 40
3.0
  9
$USERR5
 40
10.0
  9
$WORLDVIEW
 70
     1
  9
$SHADEDGE
 70
     3
  9
$SHADEDIF
 70
    70
  9
$TILEMODE
 70
     1
  9
$MAXACTVP
 70
    16
  9
$PLIMCHECK
 70
     0
  9
$PEXTMIN
 10
1.0000000000000000E+020
 20
1.0000000000000000E+020
 30
1.0000000000000000E+020
  9
$PEXTMAX
 10
-1.0000000000000000E+020
 20
-1.0000000000000000E+020
 30
-1.0000000000000000E+020
  9
$PLIMMIN
 10
0.0
 20
0.0
  9
$PLIMMAX
 10
12.0
 20
9.0
  9
$UNITMODE
 70
     0
  9
$VISRETAIN
 70
     0
  9
$PLINEGEN
 70
     0
  9
$PSLTSCALE
 70
     0
  0
ENDSEC
  0
SECTION
  2
TABLES
  0
TABLE
  2
VPORT
 70
     1
  0
VPORT
  2
*ACTIVE
 70
     0
 10
0.0
 20
0.0
 11
1.0
 21
1.0
 12
181.62393162393161
 22
100.0
 13
0.0
 23
0.0
 14
5.0
 24
5.0
 15
10.0
 25
10.0
 16
0.0
 26
0.0
 36
1.0
 17
0.0
 27
0.0
 37
0.0
 40
200.0
 41
1.816239316239316
 42
50.0
 43
0.0
 44
0.0
 50
0.0
 51
0.0
 71
     0
 72
   100
 73
     1
 74
     0
 75
     0
 76
     0
 77
     0
 78
     0
  0
ENDTAB
  0
TABLE
  2
LTYPE
 70
     4
  0
LTYPE
  2
CONTINUOUS
 70
     0
  3
Solid Line
 72
    65
 73
     0
 40
0.0
  0
LTYPE
  2
CENTER
 70
     0
  3
____ _ ____ _ ____ _ ____ _ ____ _ ____ _ ____
 72
    65
 73
     4
 40
2.0
 49
1.25
 49
-0.25
 49
0.25
 49
-0.25
  0
LTYPE
  2
HIDDEN
 70
     0
  3
_ _ _ _ _ _ _ _ _ _ _ _ _ _ _ _ _ _ _ _ _ _ _
 72
    65
 73
     2
 40
0.375
 49
0.25
 49
-0.125
  0
LTYPE
  2
PHANTOM2
 70
     0
  3
___ _ _ ___ _ _ ___ _ _ ___ _ _
 72
    65
 73
     6
 40
1.25
 49
0.625
 49
-0.125
 49
0.125
 49
-0.125
 49
0.125
 49
-0.125
  0
ENDTAB
  0
TABLE
  2
LAYER
 70
     4
  0
LAYER
  2
0
 70
     0
 62
     7
  6
CONTINUOUS
  0
LAYER
  2
1
 70
     0
 62
     1
  6
CENTER
  0
LAYER
  2
2
 70
     0
 62
     2
  6
HIDDEN
  0
LAYER
  2
DEFPOINTS
 70
     0
 62
     7
  6
CONTINUOUS
  0
ENDTAB
  0
TABLE
  2
STYLE
 70
     2
  0
STYLE
  2
STANDARD
 70
     0
 40
0.0
 41
1.0
 50
0.0
 71
     0
 42
0.2
  3
simplex
  4
bigfont
  0
STYLE
  2
STANDARD1
 70
     0
 40
0.0
 41
1.0
 50
0.0
 71
     0
 42
3.0
  3
txt
  4

  0
ENDTAB
  0
TABLE
  2
VIEW
 70
     0
  0
ENDTAB
  0
TABLE
  2
UCS
 70
     0
  0
ENDTAB
  0
TABLE
  2
APPID
 70
     6
  0
APPID
  2
ACAD
 70
     0
  0
APPID
  2
ACAD_EXEMPT_FROM_CAD_STANDARDS
 70
     0
  0
APPID
  2
ACAD_MLEADERVER
 70
     0
  0
APPID
  2
ACAD_DSTYLE_DIMJAG
 70
     0
  0
APPID
  2
ACAD_DSTYLE_DIMTALN
 70
     0
  0
APPID
  2
ACAD_NAV_VCDISPLAY
 70
     0
  0
ENDTAB
  0
TABLE
  2
DIMSTYLE
 70
     1
  0
DIMSTYLE
  2
STANDARD
 70
     0
  3

  4

  5

  6

  7

 40
1.0
 41
0.18
 42
0.0625
 43
0.38
 44
0.18
 45
0.0
 46
0.0
 47
0.0
 48
0.0
140
0.18
141
0.09
142
0.0
143
25.399999999999999
144
1.0
145
0.0
146
1.0
147
0.09
 71
     0
 72
     0
 73
     1
 74
     1
 75
     0
 76
     0
 77
     0
 78
     0
170
     0
171
     2
172
     0
173
     0
174
     0
175
     0
176
     0
177
     0
178
     0
  0
ENDTAB
  0
ENDSEC
  0
SECTION
  2
BLOCKS
  0
BLOCK
  8
0
  2
$MODEL_SPACE
 70
     0
 10
0.0
 20
0.0
 30
0.0
  3
$MODEL_SPACE
  1

  0
ENDBLK
  5
7
  8
0
  0
BLOCK
 67
     1
  8
0
  2
$PAPER_SPACE
 70
     0
 10
0.0
 20
0.0
 30
0.0
  3
$PAPER_SPACE
  1

  0
ENDBLK
  5
A
 67
     1
  8
0
  0
ENDSEC
  0
SECTION
  2
ENTITIES
  0
TEXT
  5
408
  8
0
 62
     3
 10
0.0
 20
0.0
 30
0.0
 40
10.0
  1
TH80NA
  7
STANDARD1
  0
ARC
  5
491
  8
0
 10
160.99999999999989
 20
-309.50000000001552
 30
0.0
 40
401.00000000001552
 50
84.652330250161569
 51
95.347669749838445
  0
LINE
  5
492
  8
0
 10
167.0
 20
50.0
 30
0.0
 11
167.0
 21
50.299999999999997
 31
0.0
  0
LINE
  5
493
  8
0
 10
155.0
 20
50.299999999999997
 30
0.0
 11
155.0
 21
50.0
 31
0.0
  0
POLYLINE
  5
494
  8
0
 66
     1
 10
0.0
 20
0.0
 30
0.0
 70
   128
  0
VERTEX
  5
5F1
  8
0
 10
198.37279596977331
 20
89.754648215148165
 30
0.0
  0
VERTEX
  5
5F2
  8
0
 10
198.38538814564231
 20
89.753449419287094
 30
0.0
  0
VERTEX
  5
5F3
  8
0
 10
199.08772786199589
 20
89.621324124814478
 30
0.0
  0
SEQEND
  5
5F4
  8
0
  0
POLYLINE
  5
495
  8
0
 66
     1
 10
0.0
 20
0.0
 30
0.0
 70
   128
  0
VERTEX
  5
5F5
  8
0
 10
122.9122721380037
 20
89.621324124814436
 30
0.0
  0
VERTEX
  5
5F6
  8
0
 10
123.61461185433529
 20
89.753449419284905
 30
0.0
  0
VERTEX
  5
5F7
  8
0
 10
123.62720403022659
 20
89.754648215148165
 30
0.0
  0
SEQEND
  5
5F8
  8
0
  0
LINE
  5
496
  8
0
 10
151.0
 20
67.510592206131136
 30
0.0
 11
151.0
 21
67.490764222548293
 31
0.0
  0
ARC
  5
497
  8
0
 10
143.00370103716861
 20
67.513443808022316
 30
0.0
 40
7.9962994712937681
 50
359.97956745401319
 51
83.539282918078314
  0
POLYLINE
  5
498
  8
0
 66
     1
 10
0.0
 20
0.0
 30
0.0
 70
   128
  0
VERTEX
  5
5F9
  8
0
 10
143.90346047191511
 20
75.458960669384922
 30
0.0
  0
VERTEX
  5
5FA
  8
0
 10
143.59934847668299
 20
75.488109451709192
 30
0.0
  0
SEQEND
  5
5FB
  8
0
  0
LINE
  5
499
  8
0
 10
171.0
 20
67.490764222548293
 30
0.0
 11
171.0
 21
67.510592206131136
 31
0.0
  0
POLYLINE
  5
49A
  8
0
 66
     1
 10
0.0
 20
0.0
 30
0.0
 70
   128
  0
VERTEX
  5
5FC
  8
0
 10
178.4006515233151
 20
75.488109451709192
 30
0.0
  0
VERTEX
  5
5FD
  8
0
 10
178.08439417181771
 20
75.456786328503725
 30
0.0
  0
SEQEND
  5
5FE
  8
0
  0
ARC
  5
49B
  8
0
 10
178.99519624761331
 20
67.513637589437081
 30
0.0
 40
7.9951968276090364
 50
96.541258713512164
 51
180.02182405491931
  0
LINE
  5
49C
  8
0
 10
171.0
 20
50.299999999999997
 30
0.0
 11
151.0
 21
50.300000000001539
 31
0.0
  0
LINE
  5
49D
  8
0
 10
198.5602559006683
 20
75.039430176632848
 30
0.0
 11
198.0
 21
75.0
 31
0.0
  0
LINE
  5
49E
  8
0
 10
198.0
 20
75.0
 30
0.0
 11
179.21613729078319
 21
75.507671965113971
 31
0.0
  0
LINE
  5
49F
  8
0
 10
178.4006515233151
 20
75.488109451709192
 30
0.0
 11
179.21613729078331
 21
75.507671965113957
 31
0.0
  0
LINE
  5
4A0
  8
0
 10
142.78386270921669
 20
75.507671965113957
 30
0.0
 11
143.59934847668299
 21
75.488109451709192
 31
0.0
  0
LINE
  5
4A1
  8
0
 10
142.78386270921669
 20
75.507671965113957
 30
0.0
 11
124.0
 21
74.999999999999986
 31
0.0
  0
LINE
  5
4A2
  8
0
 10
124.0
 20
75.0
 30
0.0
 11
123.4397440993319
 21
75.039430176632806
 31
0.0
  0
LINE
  5
4A3
  8
0
 10
151.0
 20
67.490764222548293
 30
0.0
 11
151.0
 21
50.299999999999997
 31
0.0
  0
LINE
  5
4A4
  8
0
 10
171.0
 20
50.299999999999997
 30
0.0
 11
171.0
 21
67.490764222548293
 31
0.0
  0
LINE
  5
4A5
  8
0
 10
120.0
 20
85.772058208014485
 30
0.0
 11
120.0
 21
79.0
 31
0.0
  0
ARC
  5
4A6
  8
0
 10
124.0
 20
85.772058208014485
 30
0.0
 40
4.0000000000000586
 50
105.7792624528408
 51
180.0
  0
ARC
  5
4A7
  8
0
 10
124.0
 20
79.0
 30
0.0
 40
4.0000000000000409
 50
180.0
 51
261.94845176991339
  0
ARC
  5
4A8
  8
0
 10
198.0
 20
85.772058208014542
 30
0.0
 40
4.0
 50
0.0
 51
74.220737547162528
  0
LINE
  5
4A9
  8
0
 10
202.0
 20
79.0
 30
0.0
 11
202.0
 21
85.772058208014485
 31
0.0
  0
ARC
  5
4AA
  8
0
 10
198.0
 20
79.0
 30
0.0
 40
4.0
 50
278.05154823008991
 51
0.0
  0
LINE
  5
4AB
  8
0
 10
167.0
 20
50.0
 30
0.0
 11
155.0
 21
50.0
 31
0.0
  0
ARC
  5
4AC
  8
0
 10
160.99999999999201
 20
-106.67669819017379
 30
0.0
 40
268.17646982030402
 50
81.948798416683772
 51
98.051201583316214
  0
LINE
  5
4AD
  8
0
 10
198.56025590066031
 20
158.8564374858783
 30
0.0
 11
199.08772786198821
 21
158.7451335793111
 31
0.0
  0
POLYLINE
  5
4AE
  8
0
 66
     1
 10
0.0
 20
0.0
 30
0.0
 70
   128
  0
VERTEX
  5
5FF
  8
0
 10
199.08772786198821
 20
144.25463805081901
 30
0.0
  0
VERTEX
  5
600
  8
0
 10
198.89707736880351
 20
144.2057951704756
 30
0.0
  0
VERTEX
  5
601
  8
0
 10
198.56025590066059
 20
144.14333414425181
 30
0.0
  0
SEQEND
  5
602
  8
0
  0
ARC
  5
4AF
  8
0
 10
160.9999999999923
 20
409.67646982030078
 30
0.0
 40
268.17646982030089
 50
261.94879841668381
 51
278.05120158331948
  0
LINE
  5
4B0
  8
0
 10
123.4397440993241
 20
144.14333414425181
 30
0.0
 11
122.9122721379959
 21
144.2546380508191
 31
0.0
  0
POLYLINE
  5
4B1
  8
0
 66
     1
 10
0.0
 20
0.0
 30
0.0
 70
   128
  0
VERTEX
  5
603
  8
0
 10
122.9122721379959
 20
158.74513357931099
 30
0.0
  0
VERTEX
  5
604
  8
0
 10
123.1029226311808
 20
158.79397645965449
 30
0.0
  0
VERTEX
  5
605
  8
0
 10
123.439744099324
 20
158.8564374858783
 30
0.0
  0
SEQEND
  5
606
  8
0
  0
ARC
  5
4B2
  8
0
 10
197.99999999999221
 20
148.103903967619
 30
0.0
 40
4.0000000000000089
 50
285.77926245283749
 51
0.0
  0
ARC
  5
4B3
  8
0
 10
197.99999999999221
 20
154.89586766251119
 30
0.0
 40
4.0
 50
0.0
 51
74.220737547162528
  0
LINE
  5
4B4
  8
0
 10
201.99999999999221
 20
148.103903967619
 30
0.0
 11
201.99999999999221
 21
154.89586766251119
 31
0.0
  0
ARC
  5
4B5
  8
0
 10
123.9999999999922
 20
148.103903967619
 30
0.0
 40
4.0000000000000311
 50
179.9999999999992
 51
254.2207375471591
  0
LINE
  5
4B6
  8
0
 10
119.9999999999922
 20
148.10390396761909
 30
0.0
 11
119.9999999999922
 21
154.89586766251111
 31
0.0
  0
ARC
  5
4B7
  8
0
 10
123.9999999999922
 20
154.89586766251119
 30
0.0
 40
4.0000000000000044
 50
105.7792624528408
 51
180.00000000000239
  0
ARC
  5
4B8
  8
0
 10
60.0
 20
-309.49999999999397
 30
0.0
 40
400.99999999999397
 50
88.57102943872583
 51
91.428970560005212
  0
LINE
  5
4B9
  8
0
 10
50.0
 20
91.375292364164309
 30
0.0
 11
50.0
 21
50.299999999999997
 31
0.0
  0
LINE
  5
4BA
  8
0
 10
70.000000000000057
 20
50.299999999999997
 30
0.0
 11
70.000000000000057
 21
91.375292358221245
 31
0.0
  0
LINE
  5
4BB
  8
0
 10
66.000000000000057
 20
50.0
 30
0.0
 11
66.000000000000057
 21
50.299999999999997
 31
0.0
  0
LINE
  5
4BC
  8
0
 10
54.0
 20
50.299999999999997
 30
0.0
 11
54.0
 21
50.0
 31
0.0
  0
LINE
  5
4BD
  8
0
 10
52.643448329186747
 20
89.669272770576512
 30
0.0
 11
52.643448329186747
 21
75.039430176632848
 31
0.0
  0
POLYLINE
  5
4BE
  8
0
 66
     1
 10
0.0
 20
0.0
 30
0.0
 70
   128
  0
VERTEX
  5
607
  8
0
 10
52.75475223575409
 20
89.621324124814436
 30
0.0
  0
VERTEX
  5
608
  8
0
 10
52.705909355410597
 20
89.638582159844276
 30
0.0
  0
VERTEX
  5
609
  8
0
 10
52.643448329186747
 20
89.669272770576512
 30
0.0
  0
SEQEND
  5
60A
  8
0
  0
POLYLINE
  5
4BF
  8
0
 66
     1
 10
0.0
 20
0.0
 30
0.0
 70
   128
  0
VERTEX
  5
60B
  8
0
 10
67.24524776424596
 20
89.621324124814436
 30
0.0
  0
VERTEX
  5
60C
  8
0
 10
60.126015873582674
 20
89.753449419284905
 30
0.0
  0
VERTEX
  5
60D
  8
0
 10
60.0
 20
89.754648215148165
 30
0.0
  0
SEQEND
  5
60E
  8
0
  0
POLYLINE
  5
4C0
  8
0
 66
     1
 10
0.0
 20
0.0
 30
0.0
 70
   128
  0
VERTEX
  5
60F
  8
0
 10
60.0
 20
89.754648215148165
 30
0.0
  0
VERTEX
  5
610
  8
0
 10
59.873984126417383
 20
89.753449419284905
 30
0.0
  0
VERTEX
  5
611
  8
0
 10
52.75475223575409
 20
89.621324124814436
 30
0.0
  0
SEQEND
  5
612
  8
0
  0
LINE
  5
4C1
  8
0
 10
67.435201854215563
 20
75.0
 30
0.0
 11
67.356551670813246
 21
75.039430176632806
 31
0.0
  0
LINE
  5
4C2
  8
0
 10
67.435201854215507
 20
75.0
 30
0.0
 11
52.564798145784437
 21
75.0
 31
0.0
  0
LINE
  5
4C3
  8
0
 10
52.643448329186747
 20
75.039430176632848
 30
0.0
 11
52.56479814578455
 21
75.0
 31
0.0
  0
LINE
  5
4C4
  8
0
 10
67.356551670813303
 20
89.669272770576512
 30
0.0
 11
67.24524776424596
 21
89.621324124814436
 31
0.0
  0
LINE
  5
4C5
  8
0
 10
67.356551670813303
 20
89.669272770576512
 30
0.0
 11
67.356551670813303
 21
75.039430176632806
 31
0.0
  0
POLYLINE
  5
4C6
  8
0
 66
     1
 10
0.0
 20
0.0
 30
0.0
 70
   128
  0
VERTEX
  5
613
  8
0
 10
52.643448329186747
 20
89.669272770576512
 30
0.0
  0
VERTEX
  5
614
  8
0
 10
51.507873536172887
 20
90.403037819254138
 30
0.0
  0
VERTEX
  5
615
  8
0
 10
50.685131529713829
 20
90.933822294349696
 30
0.0
  0
VERTEX
  5
616
  8
0
 10
50.18161226636505
 20
91.258316368491265
 30
0.0
  0
VERTEX
  5
617
  8
0
 10
50.000372348835867
 20
91.375052535232697
 30
0.0
  0
SEQEND
  5
618
  8
0
  0
POLYLINE
  5
4C7
  8
0
 66
     1
 10
0.0
 20
0.0
 30
0.0
 70
   128
  0
VERTEX
  5
619
  8
0
 10
69.992497855958561
 20
91.370460366199396
 30
0.0
  0
VERTEX
  5
61A
  8
0
 10
69.849226412178325
 20
91.278181882946299
 30
0.0
  0
VERTEX
  5
61B
  8
0
 10
69.359000845593812
 20
90.962274011679426
 30
0.0
  0
VERTEX
  5
61C
  8
0
 10
68.528588929794395
 20
90.426576163826184
 30
0.0
  0
VERTEX
  5
61D
  8
0
 10
67.356551670813303
 20
89.669272770576512
 30
0.0
  0
SEQEND
  5
61E
  8
0
  0
POLYLINE
  5
4C8
  8
0
 10
50.0
 20
75.999999999999986
 30
0.0
 66
     1
 70
     8
  0
VERTEX
  8
0
  5
61F
 10
50.0000
 20
76.0000
 30
0.000000
  70
    32
  0
VERTEX
  8
0
  5
620
 10
50.0002
 20
75.9922
 30
0.000000
  70
    32
  0
VERTEX
  8
0
  5
621
 10
50.0006
 20
75.9843
 30
0.000000
  70
    32
  0
VERTEX
  8
0
  5
622
 10
50.0014
 20
75.9765
 30
0.000000
  70
    32
  0
VERTEX
  8
0
  5
623
 10
50.0025
 20
75.9687
 30
0.000000
  70
    32
  0
VERTEX
  8
0
  5
624
 10
50.0039
 20
75.9608
 30
0.000000
  70
    32
  0
VERTEX
  8
0
  5
625
 10
50.0056
 20
75.9530
 30
0.000000
  70
    32
  0
VERTEX
  8
0
  5
626
 10
50.0077
 20
75.9451
 30
0.000000
  70
    32
  0
VERTEX
  8
0
  5
627
 10
50.0100
 20
75.9373
 30
0.000000
  70
    32
  0
VERTEX
  8
0
  5
628
 10
50.0127
 20
75.9295
 30
0.000000
  70
    32
  0
VERTEX
  8
0
  5
629
 10
50.0157
 20
75.9216
 30
0.000000
  70
    32
  0
VERTEX
  8
0
  5
62A
 10
50.0190
 20
75.9138
 30
0.000000
  70
    32
  0
VERTEX
  8
0
  5
62B
 10
50.0226
 20
75.9060
 30
0.000000
  70
    32
  0
VERTEX
  8
0
  5
62C
 10
50.0265
 20
75.8981
 30
0.000000
  70
    32
  0
VERTEX
  8
0
  5
62D
 10
50.0307
 20
75.8903
 30
0.000000
  70
    32
  0
VERTEX
  8
0
  5
62E
 10
50.0353
 20
75.8824
 30
0.000000
  70
    32
  0
VERTEX
  8
0
  5
62F
 10
50.0401
 20
75.8746
 30
0.000000
  70
    32
  0
VERTEX
  8
0
  5
630
 10
50.0453
 20
75.8668
 30
0.000000
  70
    32
  0
VERTEX
  8
0
  5
631
 10
50.0508
 20
75.8589
 30
0.000000
  70
    32
  0
VERTEX
  8
0
  5
632
 10
50.0566
 20
75.8511
 30
0.000000
  70
    32
  0
VERTEX
  8
0
  5
633
 10
50.0627
 20
75.8433
 30
0.000000
  70
    32
  0
VERTEX
  8
0
  5
634
 10
50.0691
 20
75.8354
 30
0.000000
  70
    32
  0
VERTEX
  8
0
  5
635
 10
50.0759
 20
75.8276
 30
0.000000
  70
    32
  0
VERTEX
  8
0
  5
636
 10
50.0829
 20
75.8198
 30
0.000000
  70
    32
  0
VERTEX
  8
0
  5
637
 10
50.0903
 20
75.8119
 30
0.000000
  70
    32
  0
VERTEX
  8
0
  5
638
 10
50.0980
 20
75.8041
 30
0.000000
  70
    32
  0
VERTEX
  8
0
  5
639
 10
50.1060
 20
75.7963
 30
0.000000
  70
    32
  0
VERTEX
  8
0
  5
63A
 10
50.1143
 20
75.7884
 30
0.000000
  70
    32
  0
VERTEX
  8
0
  5
63B
 10
50.1229
 20
75.7806
 30
0.000000
  70
    32
  0
VERTEX
  8
0
  5
63C
 10
50.1319
 20
75.7727
 30
0.000000
  70
    32
  0
VERTEX
  8
0
  5
63D
 10
50.1411
 20
75.7649
 30
0.000000
  70
    32
  0
VERTEX
  8
0
  5
63E
 10
50.1507
 20
75.7571
 30
0.000000
  70
    32
  0
VERTEX
  8
0
  5
63F
 10
50.1605
 20
75.7492
 30
0.000000
  70
    32
  0
VERTEX
  8
0
  5
640
 10
50.1707
 20
75.7414
 30
0.000000
  70
    32
  0
VERTEX
  8
0
  5
641
 10
50.1812
 20
75.7336
 30
0.000000
  70
    32
  0
VERTEX
  8
0
  5
642
 10
50.1920
 20
75.7258
 30
0.000000
  70
    32
  0
VERTEX
  8
0
  5
643
 10
50.2032
 20
75.7179
 30
0.000000
  70
    32
  0
VERTEX
  8
0
  5
644
 10
50.2146
 20
75.7101
 30
0.000000
  70
    32
  0
VERTEX
  8
0
  5
645
 10
50.2264
 20
75.7023
 30
0.000000
  70
    32
  0
VERTEX
  8
0
  5
646
 10
50.2384
 20
75.6944
 30
0.000000
  70
    32
  0
VERTEX
  8
0
  5
647
 10
50.2508
 20
75.6866
 30
0.000000
  70
    32
  0
VERTEX
  8
0
  5
648
 10
50.2635
 20
75.6788
 30
0.000000
  70
    32
  0
VERTEX
  8
0
  5
649
 10
50.2765
 20
75.6709
 30
0.000000
  70
    32
  0
VERTEX
  8
0
  5
64A
 10
50.2899
 20
75.6631
 30
0.000000
  70
    32
  0
VERTEX
  8
0
  5
64B
 10
50.3035
 20
75.6553
 30
0.000000
  70
    32
  0
VERTEX
  8
0
  5
64C
 10
50.3174
 20
75.6475
 30
0.000000
  70
    32
  0
VERTEX
  8
0
  5
64D
 10
50.3317
 20
75.6396
 30
0.000000
  70
    32
  0
VERTEX
  8
0
  5
64E
 10
50.3463
 20
75.6318
 30
0.000000
  70
    32
  0
VERTEX
  8
0
  5
64F
 10
50.3612
 20
75.6240
 30
0.000000
  70
    32
  0
VERTEX
  8
0
  5
650
 10
50.3764
 20
75.6161
 30
0.000000
  70
    32
  0
VERTEX
  8
0
  5
651
 10
50.3919
 20
75.6083
 30
0.000000
  70
    32
  0
VERTEX
  8
0
  5
652
 10
50.4077
 20
75.6005
 30
0.000000
  70
    32
  0
VERTEX
  8
0
  5
653
 10
50.4239
 20
75.5927
 30
0.000000
  70
    32
  0
VERTEX
  8
0
  5
654
 10
50.4403
 20
75.5848
 30
0.000000
  70
    32
  0
VERTEX
  8
0
  5
655
 10
50.4571
 20
75.5770
 30
0.000000
  70
    32
  0
VERTEX
  8
0
  5
656
 10
50.4742
 20
75.5692
 30
0.000000
  70
    32
  0
VERTEX
  8
0
  5
657
 10
50.4916
 20
75.5614
 30
0.000000
  70
    32
  0
VERTEX
  8
0
  5
658
 10
50.5093
 20
75.5535
 30
0.000000
  70
    32
  0
VERTEX
  8
0
  5
659
 10
50.5273
 20
75.5457
 30
0.000000
  70
    32
  0
VERTEX
  8
0
  5
65A
 10
50.5456
 20
75.5379
 30
0.000000
  70
    32
  0
VERTEX
  8
0
  5
65B
 10
50.5643
 20
75.5301
 30
0.000000
  70
    32
  0
VERTEX
  8
0
  5
65C
 10
50.5832
 20
75.5223
 30
0.000000
  70
    32
  0
VERTEX
  8
0
  5
65D
 10
50.6025
 20
75.5144
 30
0.000000
  70
    32
  0
VERTEX
  8
0
  5
65E
 10
50.6221
 20
75.5066
 30
0.000000
  70
    32
  0
VERTEX
  8
0
  5
65F
 10
50.6420
 20
75.4988
 30
0.000000
  70
    32
  0
VERTEX
  8
0
  5
660
 10
50.6622
 20
75.4910
 30
0.000000
  70
    32
  0
VERTEX
  8
0
  5
661
 10
50.6827
 20
75.4832
 30
0.000000
  70
    32
  0
VERTEX
  8
0
  5
662
 10
50.7035
 20
75.4753
 30
0.000000
  70
    32
  0
VERTEX
  8
0
  5
663
 10
50.7247
 20
75.4675
 30
0.000000
  70
    32
  0
VERTEX
  8
0
  5
664
 10
50.7461
 20
75.4597
 30
0.000000
  70
    32
  0
VERTEX
  8
0
  5
665
 10
50.7679
 20
75.4519
 30
0.000000
  70
    32
  0
VERTEX
  8
0
  5
666
 10
50.7900
 20
75.4441
 30
0.000000
  70
    32
  0
VERTEX
  8
0
  5
667
 10
50.8124
 20
75.4363
 30
0.000000
  70
    32
  0
VERTEX
  8
0
  5
668
 10
50.8351
 20
75.4285
 30
0.000000
  70
    32
  0
VERTEX
  8
0
  5
669
 10
50.8581
 20
75.4206
 30
0.000000
  70
    32
  0
VERTEX
  8
0
  5
66A
 10
50.8815
 20
75.4128
 30
0.000000
  70
    32
  0
VERTEX
  8
0
  5
66B
 10
50.9051
 20
75.4050
 30
0.000000
  70
    32
  0
VERTEX
  8
0
  5
66C
 10
50.9291
 20
75.3972
 30
0.000000
  70
    32
  0
VERTEX
  8
0
  5
66D
 10
50.9534
 20
75.3894
 30
0.000000
  70
    32
  0
VERTEX
  8
0
  5
66E
 10
50.9780
 20
75.3816
 30
0.000000
  70
    32
  0
VERTEX
  8
0
  5
66F
 10
51.0028
 20
75.3738
 30
0.000000
  70
    32
  0
VERTEX
  8
0
  5
670
 10
51.0281
 20
75.3660
 30
0.000000
  70
    32
  0
VERTEX
  8
0
  5
671
 10
51.0536
 20
75.3582
 30
0.000000
  70
    32
  0
VERTEX
  8
0
  5
672
 10
51.0794
 20
75.3504
 30
0.000000
  70
    32
  0
VERTEX
  8
0
  5
673
 10
51.1056
 20
75.3426
 30
0.000000
  70
    32
  0
VERTEX
  8
0
  5
674
 10
51.1320
 20
75.3347
 30
0.000000
  70
    32
  0
VERTEX
  8
0
  5
675
 10
51.1588
 20
75.3269
 30
0.000000
  70
    32
  0
VERTEX
  8
0
  5
676
 10
51.1859
 20
75.3191
 30
0.000000
  70
    32
  0
VERTEX
  8
0
  5
677
 10
51.2133
 20
75.3113
 30
0.000000
  70
    32
  0
VERTEX
  8
0
  5
678
 10
51.2410
 20
75.3035
 30
0.000000
  70
    32
  0
VERTEX
  8
0
  5
679
 10
51.2690
 20
75.2957
 30
0.000000
  70
    32
  0
VERTEX
  8
0
  5
67A
 10
51.2974
 20
75.2879
 30
0.000000
  70
    32
  0
VERTEX
  8
0
  5
67B
 10
51.3260
 20
75.2801
 30
0.000000
  70
    32
  0
VERTEX
  8
0
  5
67C
 10
51.3550
 20
75.2723
 30
0.000000
  70
    32
  0
VERTEX
  8
0
  5
67D
 10
51.3842
 20
75.2645
 30
0.000000
  70
    32
  0
VERTEX
  8
0
  5
67E
 10
51.4138
 20
75.2567
 30
0.000000
  70
    32
  0
VERTEX
  8
0
  5
67F
 10
51.4437
 20
75.2490
 30
0.000000
  70
    32
  0
VERTEX
  8
0
  5
680
 10
51.4739
 20
75.2412
 30
0.000000
  70
    32
  0
VERTEX
  8
0
  5
681
 10
51.5044
 20
75.2334
 30
0.000000
  70
    32
  0
VERTEX
  8
0
  5
682
 10
51.5353
 20
75.2256
 30
0.000000
  70
    32
  0
VERTEX
  8
0
  5
683
 10
51.5664
 20
75.2178
 30
0.000000
  70
    32
  0
VERTEX
  8
0
  5
684
 10
51.5979
 20
75.2100
 30
0.000000
  70
    32
  0
VERTEX
  8
0
  5
685
 10
51.6296
 20
75.2022
 30
0.000000
  70
    32
  0
VERTEX
  8
0
  5
686
 10
51.6617
 20
75.1944
 30
0.000000
  70
    32
  0
VERTEX
  8
0
  5
687
 10
51.6941
 20
75.1866
 30
0.000000
  70
    32
  0
VERTEX
  8
0
  5
688
 10
51.7268
 20
75.1788
 30
0.000000
  70
    32
  0
VERTEX
  8
0
  5
689
 10
51.7598
 20
75.1710
 30
0.000000
  70
    32
  0
VERTEX
  8
0
  5
68A
 10
51.7931
 20
75.1633
 30
0.000000
  70
    32
  0
VERTEX
  8
0
  5
68B
 10
51.8268
 20
75.1555
 30
0.000000
  70
    32
  0
VERTEX
  8
0
  5
68C
 10
51.8607
 20
75.1477
 30
0.000000
  70
    32
  0
VERTEX
  8
0
  5
68D
 10
51.8950
 20
75.1399
 30
0.000000
  70
    32
  0
VERTEX
  8
0
  5
68E
 10
51.9295
 20
75.1321
 30
0.000000
  70
    32
  0
VERTEX
  8
0
  5
68F
 10
51.9644
 20
75.1243
 30
0.000000
  70
    32
  0
VERTEX
  8
0
  5
690
 10
51.9996
 20
75.1166
 30
0.000000
  70
    32
  0
VERTEX
  8
0
  5
691
 10
52.0351
 20
75.1088
 30
0.000000
  70
    32
  0
VERTEX
  8
0
  5
692
 10
52.0709
 20
75.1010
 30
0.000000
  70
    32
  0
VERTEX
  8
0
  5
693
 10
52.1070
 20
75.0932
 30
0.000000
  70
    32
  0
VERTEX
  8
0
  5
694
 10
52.1435
 20
75.0855
 30
0.000000
  70
    32
  0
VERTEX
  8
0
  5
695
 10
52.1802
 20
75.0777
 30
0.000000
  70
    32
  0
VERTEX
  8
0
  5
696
 10
52.2173
 20
75.0699
 30
0.000000
  70
    32
  0
VERTEX
  8
0
  5
697
 10
52.2547
 20
75.0621
 30
0.000000
  70
    32
  0
VERTEX
  8
0
  5
698
 10
52.2923
 20
75.0544
 30
0.000000
  70
    32
  0
VERTEX
  8
0
  5
699
 10
52.3303
 20
75.0466
 30
0.000000
  70
    32
  0
VERTEX
  8
0
  5
69A
 10
52.3686
 20
75.0388
 30
0.000000
  70
    32
  0
VERTEX
  8
0
  5
69B
 10
52.4072
 20
75.0311
 30
0.000000
  70
    32
  0
VERTEX
  8
0
  5
69C
 10
52.4462
 20
75.0233
 30
0.000000
  70
    32
  0
VERTEX
  8
0
  5
69D
 10
52.4854
 20
75.0155
 30
0.000000
  70
    32
  0
VERTEX
  8
0
  5
69E
 10
52.5249
 20
75.0078
 30
0.000000
  70
    32
  0
VERTEX
  8
0
  5
69F
 10
52.5648
 20
75.0000
 30
0.000000
  70
    32
  0
SEQEND
  8
0
  5
6A0
  0
LINE
  5
4C9
  8
0
 10
70.000000000000057
 20
50.300000000000409
 30
0.0
 11
50.0
 21
50.299999999797777
 31
0.0
  0
POLYLINE
  5
4CA
  8
0
 10
67.435201854234265
 20
75.00000000000361
 30
0.0
 66
     1
 70
     8
  0
VERTEX
  8
0
  5
6A1
 10
67.4352
 20
75.0000
 30
0.000000
  70
    32
  0
VERTEX
  8
0
  5
6A2
 10
67.4751
 20
75.0078
 30
0.000000
  70
    32
  0
VERTEX
  8
0
  5
6A3
 10
67.5146
 20
75.0155
 30
0.000000
  70
    32
  0
VERTEX
  8
0
  5
6A4
 10
67.5538
 20
75.0233
 30
0.000000
  70
    32
  0
VERTEX
  8
0
  5
6A5
 10
67.5928
 20
75.0311
 30
0.000000
  70
    32
  0
VERTEX
  8
0
  5
6A6
 10
67.6314
 20
75.0388
 30
0.000000
  70
    32
  0
VERTEX
  8
0
  5
6A7
 10
67.6697
 20
75.0466
 30
0.000000
  70
    32
  0
VERTEX
  8
0
  5
6A8
 10
67.7077
 20
75.0544
 30
0.000000
  70
    32
  0
VERTEX
  8
0
  5
6A9
 10
67.7453
 20
75.0621
 30
0.000000
  70
    32
  0
VERTEX
  8
0
  5
6AA
 10
67.7827
 20
75.0699
 30
0.000000
  70
    32
  0
VERTEX
  8
0
  5
6AB
 10
67.8198
 20
75.0777
 30
0.000000
  70
    32
  0
VERTEX
  8
0
  5
6AC
 10
67.8565
 20
75.0855
 30
0.000000
  70
    32
  0
VERTEX
  8
0
  5
6AD
 10
67.8930
 20
75.0932
 30
0.000000
  70
    32
  0
VERTEX
  8
0
  5
6AE
 10
67.9291
 20
75.1010
 30
0.000000
  70
    32
  0
VERTEX
  8
0
  5
6AF
 10
67.9649
 20
75.1088
 30
0.000000
  70
    32
  0
VERTEX
  8
0
  5
6B0
 10
68.0004
 20
75.1166
 30
0.000000
  70
    32
  0
VERTEX
  8
0
  5
6B1
 10
68.0356
 20
75.1243
 30
0.000000
  70
    32
  0
VERTEX
  8
0
  5
6B2
 10
68.0705
 20
75.1321
 30
0.000000
  70
    32
  0
VERTEX
  8
0
  5
6B3
 10
68.1050
 20
75.1399
 30
0.000000
  70
    32
  0
VERTEX
  8
0
  5
6B4
 10
68.1393
 20
75.1477
 30
0.000000
  70
    32
  0
VERTEX
  8
0
  5
6B5
 10
68.1732
 20
75.1555
 30
0.000000
  70
    32
  0
VERTEX
  8
0
  5
6B6
 10
68.2069
 20
75.1633
 30
0.000000
  70
    32
  0
VERTEX
  8
0
  5
6B7
 10
68.2402
 20
75.1710
 30
0.000000
  70
    32
  0
VERTEX
  8
0
  5
6B8
 10
68.2732
 20
75.1788
 30
0.000000
  70
    32
  0
VERTEX
  8
0
  5
6B9
 10
68.3059
 20
75.1866
 30
0.000000
  70
    32
  0
VERTEX
  8
0
  5
6BA
 10
68.3383
 20
75.1944
 30
0.000000
  70
    32
  0
VERTEX
  8
0
  5
6BB
 10
68.3704
 20
75.2022
 30
0.000000
  70
    32
  0
VERTEX
  8
0
  5
6BC
 10
68.4021
 20
75.2100
 30
0.000000
  70
    32
  0
VERTEX
  8
0
  5
6BD
 10
68.4336
 20
75.2178
 30
0.000000
  70
    32
  0
VERTEX
  8
0
  5
6BE
 10
68.4647
 20
75.2256
 30
0.000000
  70
    32
  0
VERTEX
  8
0
  5
6BF
 10
68.4956
 20
75.2334
 30
0.000000
  70
    32
  0
VERTEX
  8
0
  5
6C0
 10
68.5261
 20
75.2412
 30
0.000000
  70
    32
  0
VERTEX
  8
0
  5
6C1
 10
68.5563
 20
75.2490
 30
0.000000
  70
    32
  0
VERTEX
  8
0
  5
6C2
 10
68.5862
 20
75.2567
 30
0.000000
  70
    32
  0
VERTEX
  8
0
  5
6C3
 10
68.6158
 20
75.2645
 30
0.000000
  70
    32
  0
VERTEX
  8
0
  5
6C4
 10
68.6450
 20
75.2723
 30
0.000000
  70
    32
  0
VERTEX
  8
0
  5
6C5
 10
68.6740
 20
75.2801
 30
0.000000
  70
    32
  0
VERTEX
  8
0
  5
6C6
 10
68.7026
 20
75.2879
 30
0.000000
  70
    32
  0
VERTEX
  8
0
  5
6C7
 10
68.7310
 20
75.2957
 30
0.000000
  70
    32
  0
VERTEX
  8
0
  5
6C8
 10
68.7590
 20
75.3035
 30
0.000000
  70
    32
  0
VERTEX
  8
0
  5
6C9
 10
68.7867
 20
75.3113
 30
0.000000
  70
    32
  0
VERTEX
  8
0
  5
6CA
 10
68.8141
 20
75.3191
 30
0.000000
  70
    32
  0
VERTEX
  8
0
  5
6CB
 10
68.8412
 20
75.3269
 30
0.000000
  70
    32
  0
VERTEX
  8
0
  5
6CC
 10
68.8680
 20
75.3347
 30
0.000000
  70
    32
  0
VERTEX
  8
0
  5
6CD
 10
68.8944
 20
75.3426
 30
0.000000
  70
    32
  0
VERTEX
  8
0
  5
6CE
 10
68.9206
 20
75.3504
 30
0.000000
  70
    32
  0
VERTEX
  8
0
  5
6CF
 10
68.9464
 20
75.3582
 30
0.000000
  70
    32
  0
VERTEX
  8
0
  5
6D0
 10
68.9719
 20
75.3660
 30
0.000000
  70
    32
  0
VERTEX
  8
0
  5
6D1
 10
68.9972
 20
75.3738
 30
0.000000
  70
    32
  0
VERTEX
  8
0
  5
6D2
 10
69.0220
 20
75.3816
 30
0.000000
  70
    32
  0
VERTEX
  8
0
  5
6D3
 10
69.0466
 20
75.3894
 30
0.000000
  70
    32
  0
VERTEX
  8
0
  5
6D4
 10
69.0709
 20
75.3972
 30
0.000000
  70
    32
  0
VERTEX
  8
0
  5
6D5
 10
69.0949
 20
75.4050
 30
0.000000
  70
    32
  0
VERTEX
  8
0
  5
6D6
 10
69.1185
 20
75.4128
 30
0.000000
  70
    32
  0
VERTEX
  8
0
  5
6D7
 10
69.1419
 20
75.4206
 30
0.000000
  70
    32
  0
VERTEX
  8
0
  5
6D8
 10
69.1649
 20
75.4285
 30
0.000000
  70
    32
  0
VERTEX
  8
0
  5
6D9
 10
69.1876
 20
75.4363
 30
0.000000
  70
    32
  0
VERTEX
  8
0
  5
6DA
 10
69.2100
 20
75.4441
 30
0.000000
  70
    32
  0
VERTEX
  8
0
  5
6DB
 10
69.2321
 20
75.4519
 30
0.000000
  70
    32
  0
VERTEX
  8
0
  5
6DC
 10
69.2539
 20
75.4597
 30
0.000000
  70
    32
  0
VERTEX
  8
0
  5
6DD
 10
69.2753
 20
75.4675
 30
0.000000
  70
    32
  0
VERTEX
  8
0
  5
6DE
 10
69.2965
 20
75.4753
 30
0.000000
  70
    32
  0
VERTEX
  8
0
  5
6DF
 10
69.3173
 20
75.4832
 30
0.000000
  70
    32
  0
VERTEX
  8
0
  5
6E0
 10
69.3378
 20
75.4910
 30
0.000000
  70
    32
  0
VERTEX
  8
0
  5
6E1
 10
69.3580
 20
75.4988
 30
0.000000
  70
    32
  0
VERTEX
  8
0
  5
6E2
 10
69.3779
 20
75.5066
 30
0.000000
  70
    32
  0
VERTEX
  8
0
  5
6E3
 10
69.3975
 20
75.5144
 30
0.000000
  70
    32
  0
VERTEX
  8
0
  5
6E4
 10
69.4168
 20
75.5223
 30
0.000000
  70
    32
  0
VERTEX
  8
0
  5
6E5
 10
69.4357
 20
75.5301
 30
0.000000
  70
    32
  0
VERTEX
  8
0
  5
6E6
 10
69.4544
 20
75.5379
 30
0.000000
  70
    32
  0
VERTEX
  8
0
  5
6E7
 10
69.4727
 20
75.5457
 30
0.000000
  70
    32
  0
VERTEX
  8
0
  5
6E8
 10
69.4907
 20
75.5535
 30
0.000000
  70
    32
  0
VERTEX
  8
0
  5
6E9
 10
69.5084
 20
75.5614
 30
0.000000
  70
    32
  0
VERTEX
  8
0
  5
6EA
 10
69.5258
 20
75.5692
 30
0.000000
  70
    32
  0
VERTEX
  8
0
  5
6EB
 10
69.5429
 20
75.5770
 30
0.000000
  70
    32
  0
VERTEX
  8
0
  5
6EC
 10
69.5597
 20
75.5848
 30
0.000000
  70
    32
  0
VERTEX
  8
0
  5
6ED
 10
69.5761
 20
75.5927
 30
0.000000
  70
    32
  0
VERTEX
  8
0
  5
6EE
 10
69.5923
 20
75.6005
 30
0.000000
  70
    32
  0
VERTEX
  8
0
  5
6EF
 10
69.6081
 20
75.6083
 30
0.000000
  70
    32
  0
VERTEX
  8
0
  5
6F0
 10
69.6236
 20
75.6161
 30
0.000000
  70
    32
  0
VERTEX
  8
0
  5
6F1
 10
69.6388
 20
75.6240
 30
0.000000
  70
    32
  0
VERTEX
  8
0
  5
6F2
 10
69.6537
 20
75.6318
 30
0.000000
  70
    32
  0
VERTEX
  8
0
  5
6F3
 10
69.6683
 20
75.6396
 30
0.000000
  70
    32
  0
VERTEX
  8
0
  5
6F4
 10
69.6826
 20
75.6475
 30
0.000000
  70
    32
  0
VERTEX
  8
0
  5
6F5
 10
69.6965
 20
75.6553
 30
0.000000
  70
    32
  0
VERTEX
  8
0
  5
6F6
 10
69.7101
 20
75.6631
 30
0.000000
  70
    32
  0
VERTEX
  8
0
  5
6F7
 10
69.7235
 20
75.6709
 30
0.000000
  70
    32
  0
VERTEX
  8
0
  5
6F8
 10
69.7365
 20
75.6788
 30
0.000000
  70
    32
  0
VERTEX
  8
0
  5
6F9
 10
69.7492
 20
75.6866
 30
0.000000
  70
    32
  0
VERTEX
  8
0
  5
6FA
 10
69.7616
 20
75.6944
 30
0.000000
  70
    32
  0
VERTEX
  8
0
  5
6FB
 10
69.7736
 20
75.7023
 30
0.000000
  70
    32
  0
VERTEX
  8
0
  5
6FC
 10
69.7854
 20
75.7101
 30
0.000000
  70
    32
  0
VERTEX
  8
0
  5
6FD
 10
69.7968
 20
75.7179
 30
0.000000
  70
    32
  0
VERTEX
  8
0
  5
6FE
 10
69.8080
 20
75.7258
 30
0.000000
  70
    32
  0
VERTEX
  8
0
  5
6FF
 10
69.8188
 20
75.7336
 30
0.000000
  70
    32
  0
VERTEX
  8
0
  5
700
 10
69.8293
 20
75.7414
 30
0.000000
  70
    32
  0
VERTEX
  8
0
  5
701
 10
69.8395
 20
75.7492
 30
0.000000
  70
    32
  0
VERTEX
  8
0
  5
702
 10
69.8493
 20
75.7571
 30
0.000000
  70
    32
  0
VERTEX
  8
0
  5
703
 10
69.8589
 20
75.7649
 30
0.000000
  70
    32
  0
VERTEX
  8
0
  5
704
 10
69.8681
 20
75.7727
 30
0.000000
  70
    32
  0
VERTEX
  8
0
  5
705
 10
69.8771
 20
75.7806
 30
0.000000
  70
    32
  0
VERTEX
  8
0
  5
706
 10
69.8857
 20
75.7884
 30
0.000000
  70
    32
  0
VERTEX
  8
0
  5
707
 10
69.8940
 20
75.7963
 30
0.000000
  70
    32
  0
VERTEX
  8
0
  5
708
 10
69.9020
 20
75.8041
 30
0.000000
  70
    32
  0
VERTEX
  8
0
  5
709
 10
69.9097
 20
75.8119
 30
0.000000
  70
    32
  0
VERTEX
  8
0
  5
70A
 10
69.9171
 20
75.8198
 30
0.000000
  70
    32
  0
VERTEX
  8
0
  5
70B
 10
69.9241
 20
75.8276
 30
0.000000
  70
    32
  0
VERTEX
  8
0
  5
70C
 10
69.9309
 20
75.8354
 30
0.000000
  70
    32
  0
VERTEX
  8
0
  5
70D
 10
69.9373
 20
75.8433
 30
0.000000
  70
    32
  0
VERTEX
  8
0
  5
70E
 10
69.9434
 20
75.8511
 30
0.000000
  70
    32
  0
VERTEX
  8
0
  5
70F
 10
69.9492
 20
75.8589
 30
0.000000
  70
    32
  0
VERTEX
  8
0
  5
710
 10
69.9547
 20
75.8668
 30
0.000000
  70
    32
  0
VERTEX
  8
0
  5
711
 10
69.9599
 20
75.8746
 30
0.000000
  70
    32
  0
VERTEX
  8
0
  5
712
 10
69.9647
 20
75.8824
 30
0.000000
  70
    32
  0
VERTEX
  8
0
  5
713
 10
69.9693
 20
75.8903
 30
0.000000
  70
    32
  0
VERTEX
  8
0
  5
714
 10
69.9735
 20
75.8981
 30
0.000000
  70
    32
  0
VERTEX
  8
0
  5
715
 10
69.9774
 20
75.9060
 30
0.000000
  70
    32
  0
VERTEX
  8
0
  5
716
 10
69.9810
 20
75.9138
 30
0.000000
  70
    32
  0
VERTEX
  8
0
  5
717
 10
69.9843
 20
75.9216
 30
0.000000
  70
    32
  0
VERTEX
  8
0
  5
718
 10
69.9873
 20
75.9295
 30
0.000000
  70
    32
  0
VERTEX
  8
0
  5
719
 10
69.9900
 20
75.9373
 30
0.000000
  70
    32
  0
VERTEX
  8
0
  5
71A
 10
69.9923
 20
75.9451
 30
0.000000
  70
    32
  0
VERTEX
  8
0
  5
71B
 10
69.9944
 20
75.9530
 30
0.000000
  70
    32
  0
VERTEX
  8
0
  5
71C
 10
69.9961
 20
75.9608
 30
0.000000
  70
    32
  0
VERTEX
  8
0
  5
71D
 10
69.9975
 20
75.9687
 30
0.000000
  70
    32
  0
VERTEX
  8
0
  5
71E
 10
69.9986
 20
75.9765
 30
0.000000
  70
    32
  0
VERTEX
  8
0
  5
71F
 10
69.9994
 20
75.9843
 30
0.000000
  70
    32
  0
VERTEX
  8
0
  5
720
 10
69.9998
 20
75.9922
 30
0.000000
  70
    32
  0
VERTEX
  8
0
  5
721
 10
70.0000
 20
76.0000
 30
0.000000
  70
    32
  0
SEQEND
  8
0
  5
722
  0
LINE
  5
4CB
  8
0
 10
66.000000000000057
 20
50.0
 30
0.0
 11
54.0
 21
50.0
 31
0.0
  0
LINE
  5
4CC
  8
2
 10
150.99999999999221
 20
158.17451958644921
 30
0.0
 11
150.99999999999221
 21
144.8252520436809
 31
0.0
  0
LINE
  5
4CD
  8
2
 10
170.99999999999221
 20
158.17451958644921
 30
0.0
 11
170.99999999999221
 21
144.8252520436809
 31
0.0
  0
LINE
  5
4CE
  8
1
 10
206.99999999999221
 20
151.499885815065
 30
0.0
 11
114.9999999999922
 21
151.499885815065
 31
0.0
  0
LINE
  5
4CF
  8
1
 10
160.99999999999201
 20
166.49977163013011
 30
0.0
 11
160.99999999999201
 21
136.5
 31
0.0
  0
LINE
  5
4D0
  8
1
 10
160.9999999999998
 20
96.499999999999957
 30
0.0
 11
160.9999999999998
 21
45.0
 31
0.0
  0
ARC
  5
4D1
  8
2
 10
154.240038870826
 20
144.8252520436809
 30
0.0
 40
3.2400388708337569
 50
180.0
 51
267.07584377453497
  0
ARC
  5
4D2
  8
2
 10
167.759961129158
 20
144.8252520436809
 30
0.0
 40
3.2400388708337569
 50
272.92415622546503
 51
0.0
  0
ARC
  5
4D3
  8
2
 10
154.240038870826
 20
158.17451958644921
 30
0.0
 40
3.2400388708337569
 50
92.924156225464969
 51
180.0
  0
ARC
  5
4D4
  8
2
 10
167.759961129158
 20
158.17451958644921
 30
0.0
 40
3.2400388708337569
 50
0.0
 51
87.075843774535002
  0
LINE
  5
4D5
  8
1
 10
60.000000000000057
 20
96.499999999999957
 30
0.0
 11
60.000000000000057
 21
45.0
 31
0.0
  0
LINE
  5
4EC
  8
2
 10
55.999999999999943
 20
75.0
 30
0.0
 11
64.000000000000171
 21
75.0
 31
0.0
  0
LINE
  5
4ED
  8
2
 10
56.624999999999943
 20
77.0
 30
0.0
 11
63.375000000000171
 21
77.0
 31
0.0
  0
LINE
  5
4EE
  8
2
 10
60.000000000000057
 20
78.948557158515044
 30
0.0
 11
56.624999999999943
 21
76.999999999999986
 31
0.0
  0
LINE
  5
4EF
  8
2
 10
63.375000000000171
 20
51.200000000000983
 30
0.0
 11
56.624999999999943
 21
51.200000000000962
 31
0.0
  0
LINE
  5
4F0
  8
2
 10
55.999999999999943
 20
50.575000000000159
 30
0.0
 11
55.999999999999943
 21
75.0
 31
0.0
  0
LINE
  5
4F1
  8
2
 10
56.624999999999943
 20
51.200000000000962
 30
0.0
 11
56.624999999999943
 21
77.0
 31
0.0
  0
LINE
  5
4F2
  8
2
 10
56.624999999999943
 20
51.200000000000962
 30
0.0
 11
55.425000000000459
 21
50.0
 31
0.0
  0
LINE
  5
4F3
  8
2
 10
63.375000000000171
 20
51.200000000001012
 30
0.0
 11
63.375000000000171
 21
77.0
 31
0.0
  0
LINE
  5
4F4
  8
2
 10
64.000000000000227
 20
50.575000000000202
 30
0.0
 11
64.000000000000171
 21
75.0
 31
0.0
  0
LINE
  5
4F5
  8
2
 10
63.375000000000171
 20
51.200000000000962
 30
0.0
 11
64.574999999999633
 21
50.0
 31
0.0
  0
LINE
  5
4F6
  8
2
 10
60.000000000000057
 20
78.948557158515044
 30
0.0
 11
63.375000000000171
 21
76.999999999999986
 31
0.0
  0
LINE
  5
4F7
  8
2
 10
156.99999999999989
 20
75.0
 30
0.0
 11
165.00000000000011
 21
75.0
 31
0.0
  0
LINE
  5
4F8
  8
2
 10
157.62499999999989
 20
77.0
 30
0.0
 11
164.3750000000002
 21
77.0
 31
0.0
  0
LINE
  5
4F9
  8
2
 10
161.0
 20
78.948557158515044
 30
0.0
 11
157.62499999999989
 21
76.999999999999986
 31
0.0
  0
LINE
  5
4FA
  8
2
 10
164.3750000000002
 20
51.200000000000983
 30
0.0
 11
157.62499999999989
 21
51.200000000000962
 31
0.0
  0
LINE
  5
4FB
  8
2
 10
156.99999999999989
 20
50.575000000000159
 30
0.0
 11
156.99999999999989
 21
75.0
 31
0.0
  0
LINE
  5
4FC
  8
2
 10
157.62499999999989
 20
51.200000000000962
 30
0.0
 11
157.62499999999989
 21
77.0
 31
0.0
  0
LINE
  5
4FD
  8
2
 10
157.62499999999989
 20
51.200000000000962
 30
0.0
 11
156.42500000000041
 21
50.0
 31
0.0
  0
LINE
  5
4FE
  8
2
 10
164.3750000000002
 20
51.200000000001012
 30
0.0
 11
164.3750000000002
 21
77.0
 31
0.0
  0
LINE
  5
4FF
  8
2
 10
165.0000000000002
 20
50.575000000000202
 30
0.0
 11
165.00000000000011
 21
75.0
 31
0.0
  0
LINE
  5
500
  8
2
 10
164.3750000000002
 20
51.200000000000962
 30
0.0
 11
165.57499999999959
 21
50.0
 31
0.0
  0
LINE
  5
501
  8
2
 10
161.0
 20
78.948557158515044
 30
0.0
 11
164.3750000000002
 21
76.999999999999986
 31
0.0
  0
ENDSEC
  0
EOF
