  0
SECTION
  2
HEADER
  9
$ACADVER
  1
AC1009
  9
$INSBASE
 10
7.37824081052986
 20
15.90864369846679
 30
0.0
  9
$EXTMIN
 10
0.0
 20
-2.960436562073669
 30
0.0
  9
$EXTMAX
 10
288.1633665470066
 20
250.30829868819521
 30
0.0
  9
$LIMMIN
 10
0.0
 20
0.0
  9
$LIMMAX
 10
385.0
 20
270.0
  9
$ORTHOMODE
 70
     1
  9
$REGENMODE
 70
     1
  9
$FILLMODE
 70
     1
  9
$QTEXTMODE
 70
     0
  9
$MIRRTEXT
 70
     0
  9
$DRAGMODE
 70
     2
  9
$LTSCALE
 40
10.0
  9
$OSMODE
 70
    55
  9
$ATTMODE
 70
     1
  9
$TEXTSIZE
 40
4.0
  9
$TRACEWID
 40
0.05
  9
$TEXTSTYLE
  7
STANDARD
  9
$CLAYER
  8
0
  9
$CELTYPE
  6
BYLAYER
  9
$CECOLOR
 62
   256
  9
$DIMSCALE
 40
1.0
  9
$DIMASZ
 40
3.0
  9
$DIMEXO
 40
2.0
  9
$DIMDLI
 40
10.0
  9
$DIMRND
 40
0.0
  9
$DIMDLE
 40
0.0
  9
$DIMEXE
 40
2.0
  9
$DIMTP
 40
0.0
  9
$DIMTM
 40
0.0
  9
$DIMTXT
 40
3.0
  9
$DIMCEN
 40
0.09
  9
$DIMTSZ
 40
0.0
  9
$DIMTOL
 70
     0
  9
$DIMLIM
 70
     0
  9
$DIMTIH
 70
     0
  9
$DIMTOH
 70
     0
  9
$DIMSE1
 70
     0
  9
$DIMSE2
 70
     0
  9
$DIMTAD
 70
     1
  9
$DIMZIN
 70
     0
  9
$DIMBLK
  1

  9
$DIMASO
 70
     0
  9
$DIMSHO
 70
     0
  9
$DIMPOST
  1

  9
$DIMAPOST
  1

  9
$DIMALT
 70
     0
  9
$DIMALTD
 70
     2
  9
$DIMALTF
 40
25.399999999999999
  9
$DIMLFAC
 40
1.0
  9
$DIMTOFL
 70
     1
  9
$DIMTVP
 40
1.6000000000000001
  9
$DIMTIX
 70
     1
  9
$DIMSOXD
 70
     0
  9
$DIMSAH
 70
     0
  9
$DIMBLK1
  1

  9
$DIMBLK2
  1

  9
$DIMSTYLE
  2
STANDARD
  9
$DIMCLRD
 70
     0
  9
$DIMCLRE
 70
     0
  9
$DIMCLRT
 70
     0
  9
$DIMTFAC
 40
1.0
  9
$DIMGAP
 40
1.0
  9
$LUNITS
 70
     2
  9
$LUPREC
 70
     2
  9
$SKETCHINC
 40
0.1
  9
$FILLETRAD
 40
0.0
  9
$AUNITS
 70
     0
  9
$AUPREC
 70
     2
  9
$MENU
  1
E:\r13\win\SUPPORT\ACAD
  9
$ELEVATION
 40
0.0
  9
$PELEVATION
 40
0.0
  9
$THICKNESS
 40
0.0
  9
$LIMCHECK
 70
     0
  9
$BLIPMODE
 70
     0
  9
$CHAMFERA
 40
1.0
  9
$CHAMFERB
 40
1.0
  9
$SKPOLY
 70
     0
  9
$TDCREATE
 40
2450252.6853964119
  9
$TDUPDATE
 40
2456598.4377514119
  9
$TDINDWG
 40
0.1689946296
  9
$TDUSRTIMER
 40
0.1689946296
  9
$USRTIMER
 70
     1
  9
$ANGBASE
 50
0.0
  9
$ANGDIR
 70
     0
  9
$PDMODE
 70
     0
  9
$PDSIZE
 40
0.0
  9
$PLINEWID
 40
0.0
  9
$COORDS
 70
     1
  9
$SPLFRAME
 70
     0
  9
$SPLINETYPE
 70
     6
  9
$SPLINESEGS
 70
     8
  9
$ATTDIA
 70
     0
  9
$ATTREQ
 70
     1
  9
$HANDLING
 70
     1
  9
$HANDSEED
  5
2A70
  9
$SURFTAB1
 70
     6
  9
$SURFTAB2
 70
     6
  9
$SURFTYPE
 70
     6
  9
$SURFU
 70
     6
  9
$SURFV
 70
     6
  9
$UCSNAME
  2

  9
$UCSORG
 10
0.0
 20
0.0
 30
0.0
  9
$UCSXDIR
 10
1.0
 20
0.0
 30
0.0
  9
$UCSYDIR
 10
0.0
 20
1.0
 30
0.0
  9
$PUCSNAME
  2

  9
$PUCSORG
 10
0.0
 20
0.0
 30
0.0
  9
$PUCSXDIR
 10
1.0
 20
0.0
 30
0.0
  9
$PUCSYDIR
 10
0.0
 20
1.0
 30
0.0
  9
$USERI1
 70
     3
  9
$USERI2
 70
     1
  9
$USERI3
 70
     0
  9
$USERI4
 70
     1
  9
$USERI5
 70
     0
  9
$USERR1
 40
1.0
  9
$USERR2
 40
3.0
  9
$USERR3
 40
3.0
  9
$USERR4
 40
3.0
  9
$USERR5
 40
10.0
  9
$WORLDVIEW
 70
     1
  9
$SHADEDGE
 70
     3
  9
$SHADEDIF
 70
    70
  9
$TILEMODE
 70
     1
  9
$MAXACTVP
 70
    16
  9
$PLIMCHECK
 70
     0
  9
$PEXTMIN
 10
1.0000000000000000E+020
 20
1.0000000000000000E+020
 30
1.0000000000000000E+020
  9
$PEXTMAX
 10
-1.0000000000000000E+020
 20
-1.0000000000000000E+020
 30
-1.0000000000000000E+020
  9
$PLIMMIN
 10
0.0
 20
0.0
  9
$PLIMMAX
 10
12.0
 20
9.0
  9
$UNITMODE
 70
     0
  9
$VISRETAIN
 70
     0
  9
$PLINEGEN
 70
     0
  9
$PSLTSCALE
 70
     0
  0
ENDSEC
  0
SECTION
  2
TABLES
  0
TABLE
  2
VPORT
 70
     1
  0
VPORT
  2
*ACTIVE
 70
     0
 10
0.0
 20
0.0
 11
1.0
 21
1.0
 12
192.49412581440311
 22
197.0509055860143
 13
0.0
 23
0.0
 14
5.0
 24
5.0
 15
5.0
 25
5.0
 16
0.0
 26
0.0
 36
1.0
 17
0.0
 27
0.0
 37
0.0
 40
403.57315882993248
 41
1.7807262569832401
 42
50.0
 43
0.0
 44
0.0
 50
0.0
 51
0.0
 71
     0
 72
  1000
 73
     1
 74
     0
 75
     0
 76
     0
 77
     0
 78
     1
  0
ENDTAB
  0
TABLE
  2
LTYPE
 70
     3
  0
LTYPE
  2
CONTINUOUS
 70
     0
  3
Solid Line
 72
    65
 73
     0
 40
0.0
  0
LTYPE
  2
CENTER
 70
     0
  3
____ _ ____ _ ____ _ ____ _ ____ _ ____ _ ____
 72
    65
 73
     4
 40
2.0
 49
1.25
 49
-0.25
 49
0.25
 49
-0.25
  0
LTYPE
  2
PHANTOM2
 70
     0
  3
___ _ _ ___ _ _ ___ _ _ ___ _ _
 72
    65
 73
     6
 40
1.25
 49
0.625
 49
-0.125
 49
0.125
 49
-0.125
 49
0.125
 49
-0.125
  0
ENDTAB
  0
TABLE
  2
LAYER
 70
     2
  0
LAYER
  2
0
 70
     0
 62
     7
  6
CONTINUOUS
  0
LAYER
  2
1
 70
     0
 62
     1
  6
CENTER
  0
ENDTAB
  0
TABLE
  2
STYLE
 70
     2
  0
STYLE
  2
STANDARD
 70
     0
 40
0.0
 41
1.0
 50
0.0
 71
     0
 42
4.0
  3
simplex
  4
bigfont
  0
STYLE
  2
STANDARD1
 70
     0
 40
0.0
 41
1.0
 50
0.0
 71
     0
 42
3.0
  3
txt
  4

  0
ENDTAB
  0
TABLE
  2
VIEW
 70
     0
  0
ENDTAB
  0
TABLE
  2
UCS
 70
     0
  0
ENDTAB
  0
TABLE
  2
APPID
 70
     9
  0
APPID
  2
ACAD
 70
     0
  0
APPID
  2
GENIUS_GENODEF_13
 70
     0
  0
APPID
  2
GENIUS_GENOENT_13
 70
     0
  0
APPID
  2
GENIUS_GENOBJ_13
 70
     0
  0
APPID
  2
GENIUS_GENOLIS_13
 70
     0
  0
APPID
  2
GENIUS_GENOREF_13
 70
     0
  0
APPID
  2
GENIUS_GENOBJ-N-FIL_13
 70
     0
  0
APPID
  2
ACAD_MLEADERVER
 70
     0
  0
APPID
  2
ACAD_NAV_VCDISPLAY
 70
     0
  0
ENDTAB
  0
TABLE
  2
DIMSTYLE
 70
     1
  0
DIMSTYLE
  2
STANDARD
 70
     0
  3

  4

  5

  6

  7

 40
1.0
 41
0.18
 42
0.0625
 43
0.38
 44
0.18
 45
0.0
 46
0.0
 47
0.0
 48
0.0
140
0.18
141
0.09
142
0.0
143
25.399999999999999
144
1.0
145
0.0
146
1.0
147
0.09
 71
     0
 72
     0
 73
     1
 74
     1
 75
     0
 76
     0
 77
     0
 78
     0
170
     0
171
     2
172
     0
173
     0
174
     0
175
     0
176
     0
177
     0
178
     0
  0
ENDTAB
  0
ENDSEC
  0
SECTION
  2
BLOCKS
  0
BLOCK
  8
0
  2
$MODEL_SPACE
 70
     0
 10
0.0
 20
0.0
 30
0.0
  3
$MODEL_SPACE
  1

  0
ENDBLK
  5
28FD
  8
0
  0
BLOCK
 67
     1
  8
0
  2
$PAPER_SPACE
 70
     0
 10
0.0
 20
0.0
 30
0.0
  3
$PAPER_SPACE
  1

  0
ENDBLK
  5
28FB
 67
     1
  8
0
  0
BLOCK
  8
0
  2
STDGX5
 70
     0
 10
0.0
 20
0.0
 30
0.0
  3
STDGX5
  1

  0
ENDBLK
  5
2663
  8
0
  0
ENDSEC
  0
SECTION
  2
ENTITIES
  0
LINE
  5
22F6
  8
1
 10
68.164517601738794
 20
140.30867955617941
 30
0.0
 11
128.16451760173879
 21
140.30867955617941
 31
0.0
  0
LINE
  5
2305
  8
1
 10
178.16413673375459
 20
30.382323553208991
 30
0.0
 11
178.1641367337545
 21
90.382323553208977
 31
0.0
  0
LINE
  5
2394
  8
1
 10
178.16413673375459
 20
250.30829868819521
 30
0.0
 11
178.1641367337545
 21
190.30829868819509
 31
0.0
  0
LINE
  5
23A2
  8
1
 10
288.1633665470066
 20
140.30867955617941
 30
0.0
 11
228.1633665470066
 21
140.30867955617941
 31
0.0
  0
LINE
  5
24D0
  8
0
 10
123.16451760173879
 20
120.3089930043693
 30
0.0
 11
123.16451760173879
 21
160.30836610798971
 31
0.0
  0
LINE
  5
24D2
  8
0
 10
233.1633665470066
 20
120.3089930043693
 30
0.0
 11
233.1633665470066
 21
160.30836610798971
 31
0.0
  0
LINE
  5
24D3
  8
0
 10
158.1644501715021
 20
195.30829868819509
 30
0.0
 11
198.163823296007
 21
195.30829868819509
 31
0.0
  0
LINE
  5
2529
  8
0
 10
158.1644501715021
 20
85.382323553208977
 30
0.0
 11
198.163823296007
 21
85.382323553208977
 31
0.0
  0
LINE
  5
2579
  8
0
 10
283.16336654700649
 20
120.3089930043693
 30
0.0
 11
283.16336654700672
 21
160.30836610798971
 31
0.0
  0
LINE
  5
2583
  8
0
 10
158.1644501715021
 20
245.30829868819509
 30
0.0
 11
198.163823296007
 21
245.30829868819509
 31
0.0
  0
LINE
  5
2591
  8
0
 10
73.164517601738794
 20
120.3089930043693
 30
0.0
 11
73.164517601738794
 21
160.30836610798971
 31
0.0
  0
LINE
  5
25A9
  8
0
 10
158.1644501715021
 20
35.382323553208991
 30
0.0
 11
198.163823296007
 21
35.382323553208991
 31
0.0
  0
INSERT
  5
2703
  8
0
  2
STDGX5
 10
0.0
 20
0.0
 30
0.0
  0
INSERT
  5
2704
  8
0
  2
STDGX5
 10
0.0
 20
0.0
 30
0.0
  0
INSERT
  5
2705
  8
0
  2
STDGX5
 10
275.0
 20
0.0
 30
0.0
  0
INSERT
  5
2706
  8
0
  2
STDGX5
 10
275.0
 20
0.0
 30
0.0
  0
LINE
  5
278F
  8
0
 10
194.11406229696121
 20
160.30836610798971
 30
0.0
 11
178.1641367337609
 21
160.10867955253471
 31
0.0
  0
LINE
  5
2790
  8
0
 10
169.66445017149621
 20
155.5586795549865
 30
0.0
 11
186.66382329601291
 21
155.5586795549865
 31
0.0
  0
LINE
  5
2792
  8
0
 10
169.66445017149621
 20
125.0586795573725
 30
0.0
 11
186.66382329601291
 21
125.0586795573725
 31
0.0
  0
LINE
  5
2793
  8
0
 10
194.11406229696121
 20
120.3089930043693
 30
0.0
 11
178.1641367337609
 21
120.5086795598242
 31
0.0
  0
LINE
  5
2797
  8
1
 10
178.1641367337547
 20
115.5082877247379
 30
0.0
 11
178.1641367337545
 21
165.1090713876211
 31
0.0
1001
GENIUS_GENOREF_13
1005
0
  0
LINE
  5
2799
  8
0
 10
160.6641425818365
 20
156.30867369810451
 30
0.0
 11
160.6641425866234
 21
149.8083661082282
 31
0.0
  0
LINE
  5
279A
  8
0
 10
158.36413672793731
 20
140.30867955617759
 30
0.0
 11
158.1644501715021
 21
156.25860510866119
 31
0.0
  0
ARC
  5
279E
  8
0
 10
162.164136727993
 20
124.30867956086369
 30
0.0
 40
3.9999999999999241
 50
179.2827177053147
 51
270.71728229068719
  0
LINE
  5
279F
  8
0
 10
162.21421117054791
 20
120.3089930043693
 30
0.0
 11
178.16413673374819
 21
120.5086795598242
 31
0.0
  0
ARC
  5
27A0
  8
0
 10
163.91413673238611
 20
137.3086795578364
 30
0.0
 40
0.9999999999998863
 50
89.999999996013571
 51
179.99999997365171
  0
LINE
  5
27A2
  8
0
 10
158.36413672793731
 20
140.30867955618129
 30
0.0
 11
158.1644501715021
 21
124.3587540036977
 31
0.0
  0
LINE
  5
27A4
  8
0
 10
162.16414258173171
 20
122.8086854132971
 30
0.0
 11
168.66445017146631
 21
122.8086854128434
 31
0.0
  0
LINE
  5
27A5
  8
0
 10
160.6641425818365
 20
124.3086854142544
 30
0.0
 11
160.6641425866234
 21
130.8089930041308
 31
0.0
  0
ARC
  5
27A7
  8
0
 10
162.1641425818365
 20
124.308685413297
 30
0.0
 40
1.5
 50
179.99999996343161
 51
269.99999999599618
  0
LINE
  5
27A8
  8
0
 10
162.9141367323862
 20
137.30867955829629
 30
0.0
 11
162.9141367298563
 21
131.80901445758039
 31
0.0
  0
LINE
  5
27A9
  8
0
 10
162.41413673005201
 20
131.3089930029235
 30
0.0
 11
161.16414258697739
 21
131.30899300381159
 31
0.0
  0
ARC
  5
27AA
  8
0
 10
161.1641425866234
 20
130.80899300381159
 30
0.0
 40
0.5
 50
89.999999959432202
 51
179.99999996343161
  0
ARC
  5
27AB
  8
0
 10
162.41413673031639
 20
131.80899300292339
 30
0.0
 40
0.4999999999998864
 50
269.99999995928891
 51
359.99999997364529
  0
ARC
  5
27AD
  8
0
 10
169.66445017149621
 20
124.5586795573725
 30
0.0
 40
0.5
 50
89.999999996000554
 51
179.9999999999479
  0
LINE
  5
27AE
  8
0
 10
169.16445017150119
 20
123.3086854127735
 30
0.0
 11
169.16445017149621
 21
124.558679557373
 31
0.0
  0
ARC
  5
27AF
  8
0
 10
168.66445017150119
 20
123.3086854127735
 30
0.0
 40
0.5
 50
269.9999999960005
 51
0.0
  0
LINE
  5
27B2
  8
1
 10
202.96452857466249
 20
140.30867955617941
 30
0.0
 11
153.36374489284651
 21
140.30867955617941
 31
0.0
  0
LINE
  5
27B3
  8
0
 10
162.9141367323862
 20
143.30867955406259
 30
0.0
 11
162.9141367298563
 21
148.80834465477849
 31
0.0
  0
LINE
  5
27B5
  8
0
 10
165.3100347615958
 20
142.30867955462011
 30
0.0
 11
163.91413673245569
 21
142.3086795545226
 31
0.0
  0
ARC
  5
27B6
  8
0
 10
163.91413673238611
 20
143.30867955452251
 30
0.0
 40
0.9999999999998863
 50
180.0000000263482
 51
270.00000000398637
  0
ARC
  5
27B7
  8
0
 10
165.31003476152711
 20
143.30867955462
 30
0.0
 40
0.9999999999998736
 50
270.0000000039343
 51
318.18968510838641
  0
LINE
  5
27B8
  8
0
 10
165.3100347615958
 20
138.3086795577388
 30
0.0
 11
163.91413673245569
 21
138.30867955783631
 31
0.0
  0
ARC
  5
27B9
  8
0
 10
165.31003476152711
 20
137.30867955773891
 30
0.0
 40
0.9999999999998736
 50
41.810314891613608
 51
89.999999996065682
  0
ARC
  5
27BB
  8
0
 10
162.41413673031639
 20
148.8083661094355
 30
0.0
 40
0.4999999999998864
 50
0.0000000263547376
 51
90.000000040711086
  0
LINE
  5
27BC
  8
0
 10
162.41413673005201
 20
149.30836610943541
 30
0.0
 11
161.16414258697739
 21
149.30836610854729
 31
0.0
  0
ARC
  5
27BD
  8
0
 10
161.1641425866234
 20
149.80836610854729
 30
0.0
 40
0.5
 50
180.00000003656831
 51
270.00000004056778
  0
LINE
  5
27BF
  8
1
 10
168.66413672799561
 20
133.8086795561795
 30
0.0
 11
168.66413672799561
 21
146.8086795561795
 31
0.0
1001
GENIUS_GENOREF_13
1005
0
  0
LINE
  5
27C2
  8
0
 10
162.16414258173171
 20
157.8086736990619
 30
0.0
 11
168.66445017146631
 21
157.80867369951551
 31
0.0
  0
LINE
  5
27C3
  8
0
 10
162.21421117054791
 20
160.30836610798971
 30
0.0
 11
178.16413673374819
 21
160.10867955253471
 31
0.0
  0
ARC
  5
27C5
  8
0
 10
162.164136727993
 20
156.3086795514952
 30
0.0
 40
3.9999999999999241
 50
89.282717709312806
 51
180.7172822946853
  0
ARC
  5
27C6
  8
0
 10
162.1641425818365
 20
156.3086736990619
 30
0.0
 40
1.5
 50
90.000000004003795
 51
180.00000003656831
  0
ARC
  5
27C9
  8
0
 10
168.66445017150119
 20
157.3086736995854
 30
0.0
 40
0.5
 50
0.0
 51
90.00000000399946
  0
ARC
  5
27CA
  8
0
 10
169.66445017149621
 20
156.05867955498641
 30
0.0
 40
0.5
 50
180.0000000000521
 51
270.00000000399939
  0
LINE
  5
27CB
  8
0
 10
169.16445017150119
 20
157.3086736995854
 30
0.0
 11
169.16445017149621
 21
156.05867955498601
 31
0.0
  0
LINE
  5
27CE
  8
0
 10
195.66413088567259
 20
156.30867369810451
 30
0.0
 11
195.66413088088569
 21
149.8083661082282
 31
0.0
  0
LINE
  5
27CF
  8
0
 10
197.9641367395717
 20
140.30867955617759
 30
0.0
 11
198.163823296007
 21
156.25860510866119
 31
0.0
  0
ARC
  5
27D3
  8
0
 10
194.1641367395161
 20
124.30867956086369
 30
0.0
 40
3.9999999999999241
 50
269.28271770931281
 51
0.7172822946853344
  0
ARC
  5
27D5
  8
0
 10
192.41413673512301
 20
137.3086795578364
 30
0.0
 40
0.9999999999998863
 50
0.0000000263482493
 51
90.000000003986415
  0
LINE
  5
27D6
  8
0
 10
197.9641367395717
 20
140.30867955618129
 30
0.0
 11
198.163823296007
 21
124.3587540036977
 31
0.0
  0
LINE
  5
27D9
  8
0
 10
195.66413088567259
 20
124.3086854142544
 30
0.0
 11
195.66413088088569
 21
130.8089930041308
 31
0.0
  0
LINE
  5
27DA
  8
0
 10
194.16413088577741
 20
122.8086854132971
 30
0.0
 11
187.66382329604281
 21
122.8086854128434
 31
0.0
  0
ARC
  5
27DB
  8
0
 10
186.66382329601291
 20
124.5586795573725
 30
0.0
 40
0.5
 50
0.0000000000521102
 51
90.00000000399946
  0
LINE
  5
27DC
  8
0
 10
187.16382329600791
 20
123.3086854127735
 30
0.0
 11
187.16382329601291
 21
124.558679557373
 31
0.0
  0
ARC
  5
27DD
  8
0
 10
187.66382329600791
 20
123.3086854127735
 30
0.0
 40
0.5
 50
180.0
 51
270.00000000399939
  0
ARC
  5
27DF
  8
0
 10
194.16413088567259
 20
124.308685413297
 30
0.0
 40
1.5
 50
270.00000000400382
 51
0.0000000365683384
  0
LINE
  5
27E0
  8
0
 10
193.4141367351229
 20
137.30867955829629
 30
0.0
 11
193.41413673765271
 21
131.80901445758039
 31
0.0
  0
ARC
  5
27E1
  8
0
 10
195.16413088088569
 20
130.80899300381159
 30
0.0
 40
0.5
 50
0.0000000365683384
 51
90.000000040567784
  0
LINE
  5
27E2
  8
0
 10
193.91413673745711
 20
131.3089930029235
 30
0.0
 11
195.1641308805317
 21
131.30899300381159
 31
0.0
  0
ARC
  5
27E3
  8
0
 10
193.91413673719271
 20
131.80899300292339
 30
0.0
 40
0.4999999999998864
 50
180.00000002635471
 51
270.00000004071109
  0
LINE
  5
27E4
  8
0
 10
193.4141367351229
 20
143.30867955406259
 30
0.0
 11
193.41413673765271
 21
148.80834465477849
 31
0.0
  0
LINE
  5
27E5
  8
0
 10
191.01823870591329
 20
142.30867955462011
 30
0.0
 11
192.4141367350534
 21
142.3086795545226
 31
0.0
  0
LINE
  5
27E6
  8
0
 10
191.01823870591329
 20
138.3086795577388
 30
0.0
 11
192.4141367350534
 21
138.30867955783631
 31
0.0
  0
ARC
  5
27E7
  8
0
 10
191.01823870598199
 20
143.30867955462
 30
0.0
 40
0.9999999999998736
 50
221.81031489161359
 51
269.9999999960657
  0
LINE
  5
27E9
  8
1
 10
187.66413673951351
 20
133.8086795561795
 30
0.0
 11
187.6641367395134
 21
146.8086795561795
 31
0.0
  0
ARC
  5
27EB
  8
0
 10
191.01823870598199
 20
137.30867955773891
 30
0.0
 40
0.9999999999998736
 50
90.000000003934304
 51
138.18968510838641
  0
ARC
  5
27ED
  8
0
 10
192.41413673512301
 20
143.30867955452251
 30
0.0
 40
0.9999999999998863
 50
269.99999999601363
 51
359.99999997365182
  0
ARC
  5
27F0
  8
0
 10
195.16413088088569
 20
149.80836610854729
 30
0.0
 40
0.5
 50
269.99999995943222
 51
359.99999996343172
  0
ARC
  5
27F1
  8
0
 10
193.91413673719271
 20
148.8083661094355
 30
0.0
 40
0.4999999999998864
 50
89.9999999592889
 51
179.9999999736452
  0
LINE
  5
27F2
  8
0
 10
193.91413673745711
 20
149.30836610943541
 30
0.0
 11
195.1641308805317
 21
149.30836610854729
 31
0.0
  0
LINE
  5
27F3
  8
0
 10
194.16413088577741
 20
157.8086736990619
 30
0.0
 11
187.66382329604281
 21
157.80867369951551
 31
0.0
  0
ARC
  5
27F4
  8
0
 10
187.66382329600791
 20
157.3086736995854
 30
0.0
 40
0.5
 50
89.999999996000554
 51
180.0
  0
ARC
  5
27F5
  8
0
 10
186.66382329601291
 20
156.05867955498641
 30
0.0
 40
0.5
 50
269.9999999960005
 51
359.99999999994787
  0
LINE
  5
27F6
  8
0
 10
187.16382329600791
 20
157.3086736995854
 30
0.0
 11
187.16382329601291
 21
156.05867955498601
 31
0.0
  0
ARC
  5
27F8
  8
0
 10
194.16413088567259
 20
156.3086736990619
 30
0.0
 40
1.5
 50
359.99999996343172
 51
89.999999995996205
  0
ARC
  5
27F9
  8
0
 10
194.1641367395161
 20
156.3086795514952
 30
0.0
 40
3.9999999999999241
 50
359.28271770531472
 51
90.717282290687166
  0
CIRCLE
  5
27FE
  8
0
 10
168.66413672799561
 20
140.3086795561795
 30
0.0
 40
1.699999999999988
  0
ARC
  5
27FF
  8
0
 10
168.66413672799561
 20
140.3086795561795
 30
0.0
 40
3.5000000000001128
 50
221.80971041285429
 51
138.19028958714571
  0
CIRCLE
  5
2802
  8
0
 10
187.66413673951351
 20
140.3086795561795
 30
0.0
 40
1.700000000000045
  0
ARC
  5
2803
  8
0
 10
187.66413673951351
 20
140.3086795561795
 30
0.0
 40
3.5000000000001701
 50
41.809710378620011
 51
318.19028962137997
  0
LINE
  5
280B
  8
0
 10
233.1633665470066
 20
160.30836610798971
 30
0.0
 11
283.16336654700672
 21
160.30836610798971
 31
0.0
  0
LINE
  5
280C
  8
0
 10
233.1633665470066
 20
120.3089930043693
 30
0.0
 11
283.16336654700649
 21
120.3089930043693
 31
0.0
  0
LINE
  5
280D
  8
0
 10
158.1644501715021
 20
195.30829868819509
 30
0.0
 11
158.1644501715021
 21
245.30829868819509
 31
0.0
  0
LINE
  5
280E
  8
0
 10
198.163823296007
 20
195.30829868819509
 30
0.0
 11
198.163823296007
 21
245.30829868819509
 31
0.0
  0
LINE
  5
280F
  8
0
 10
123.16451760173879
 20
160.30836610798971
 30
0.0
 11
73.164517601738794
 21
160.30836610798971
 31
0.0
  0
LINE
  5
2810
  8
0
 10
123.16451760173879
 20
120.3089930043693
 30
0.0
 11
73.164517601738794
 21
120.3089930043693
 31
0.0
  0
LINE
  5
2811
  8
0
 10
158.16445017150201
 20
85.382323553208977
 30
0.0
 11
158.16445017150201
 21
35.382323553208991
 31
0.0
  0
LINE
  5
2812
  8
0
 10
198.163823296007
 20
85.382323553208977
 30
0.0
 11
198.163823296007
 21
35.382323553208991
 31
0.0
  0
INSERT
  5
28B3
  8
0
  2
STDGX5
 10
0.0
 20
0.0
 30
0.0
  0
INSERT
  5
28B4
  8
0
  2
STDGX5
 10
0.0
 20
0.0
 30
0.0
  0
INSERT
  5
28B5
  8
0
  2
STDGX5
 10
275.0
 20
0.0
 30
0.0
  0
INSERT
  5
28B6
  8
0
  2
STDGX5
 10
275.0
 20
0.0
 30
0.0
  0
TEXT
  5
29DE
  8
0
 62
     3
 10
0.0
 20
0.0
 30
0.0
 40
10.0
  1
TESP4040
  7
STANDARD1
  0
ENDSEC
  0
EOF
