  0
SECTION
  2
HEADER
  9
$ACADVER
  1
AC1009
  9
$INSBASE
 10
0.0
 20
0.0
 30
0.0
  9
$EXTMIN
 10
0.0
 20
-2.960436562073669
 30
0.0
  9
$EXTMAX
 10
642.0
 20
216.00000000000011
 30
0.0
  9
$LIMMIN
 10
0.0
 20
0.0
  9
$LIMMAX
 10
187.5
 20
135.0
  9
$ORTHOMODE
 70
     1
  9
$REGENMODE
 70
     1
  9
$FILLMODE
 70
     1
  9
$QTEXTMODE
 70
     0
  9
$MIRRTEXT
 70
     0
  9
$DRAGMODE
 70
     2
  9
$LTSCALE
 40
5.0
  9
$OSMODE
 70
    37
  9
$ATTMODE
 70
     1
  9
$TEXTSIZE
 40
5.0
  9
$TRACEWID
 40
0.05
  9
$TEXTSTYLE
  7
STANDARD
  9
$CLAYER
  8
0
  9
$CELTYPE
  6
BYLAYER
  9
$CECOLOR
 62
   256
  9
$DIMSCALE
 40
0.5
  9
$DIMASZ
 40
3.0
  9
$DIMEXO
 40
2.0
  9
$DIMDLI
 40
0.38
  9
$DIMRND
 40
0.0
  9
$DIMDLE
 40
0.0
  9
$DIMEXE
 40
2.0
  9
$DIMTP
 40
0.0
  9
$DIMTM
 40
0.0
  9
$DIMTXT
 40
3.2000000000000002
  9
$DIMCEN
 40
0.0
  9
$DIMTSZ
 40
0.0
  9
$DIMTOL
 70
     0
  9
$DIMLIM
 70
     0
  9
$DIMTIH
 70
     0
  9
$DIMTOH
 70
     0
  9
$DIMSE1
 70
     0
  9
$DIMSE2
 70
     0
  9
$DIMTAD
 70
     1
  9
$DIMZIN
 70
     0
  9
$DIMBLK
  1

  9
$DIMASO
 70
     0
  9
$DIMSHO
 70
     0
  9
$DIMPOST
  1

  9
$DIMAPOST
  1

  9
$DIMALT
 70
     0
  9
$DIMALTD
 70
     2
  9
$DIMALTF
 40
25.399999999999999
  9
$DIMLFAC
 40
1.0
  9
$DIMTOFL
 70
     1
  9
$DIMTVP
 40
1.6000000000000001
  9
$DIMTIX
 70
     1
  9
$DIMSOXD
 70
     0
  9
$DIMSAH
 70
     0
  9
$DIMBLK1
  1

  9
$DIMBLK2
  1

  9
$DIMSTYLE
  2
STANDARD
  9
$DIMCLRD
 70
     0
  9
$DIMCLRE
 70
     0
  9
$DIMCLRT
 70
     0
  9
$DIMTFAC
 40
1.0
  9
$DIMGAP
 40
0.09
  9
$LUNITS
 70
     2
  9
$LUPREC
 70
     4
  9
$SKETCHINC
 40
0.1
  9
$FILLETRAD
 40
0.0
  9
$AUNITS
 70
     0
  9
$AUPREC
 70
     4
  9
$MENU
  1
E:\r13\win\SUPPORT\ACAD
  9
$ELEVATION
 40
0.0
  9
$PELEVATION
 40
0.0
  9
$THICKNESS
 40
0.0
  9
$LIMCHECK
 70
     0
  9
$BLIPMODE
 70
     0
  9
$CHAMFERA
 40
0.0
  9
$CHAMFERB
 40
0.0
  9
$SKPOLY
 70
     0
  9
$TDCREATE
 40
2449840.6523611108
  9
$TDUPDATE
 40
2456981.561271111
  9
$TDINDWG
 40
0.2225407986
  9
$TDUSRTIMER
 40
0.2225407986
  9
$USRTIMER
 70
     1
  9
$ANGBASE
 50
0.0
  9
$ANGDIR
 70
     0
  9
$PDMODE
 70
     0
  9
$PDSIZE
 40
0.0
  9
$PLINEWID
 40
0.0
  9
$COORDS
 70
     1
  9
$SPLFRAME
 70
     0
  9
$SPLINETYPE
 70
     6
  9
$SPLINESEGS
 70
     8
  9
$ATTDIA
 70
     0
  9
$ATTREQ
 70
     1
  9
$HANDLING
 70
     1
  9
$HANDSEED
  5
873
  9
$SURFTAB1
 70
     6
  9
$SURFTAB2
 70
     6
  9
$SURFTYPE
 70
     6
  9
$SURFU
 70
     6
  9
$SURFV
 70
     6
  9
$UCSNAME
  2

  9
$UCSORG
 10
0.0
 20
0.0
 30
0.0
  9
$UCSXDIR
 10
1.0
 20
0.0
 30
0.0
  9
$UCSYDIR
 10
0.0
 20
1.0
 30
0.0
  9
$PUCSNAME
  2

  9
$PUCSORG
 10
0.0
 20
0.0
 30
0.0
  9
$PUCSXDIR
 10
1.0
 20
0.0
 30
0.0
  9
$PUCSYDIR
 10
0.0
 20
1.0
 30
0.0
  9
$USERI1
 70
     0
  9
$USERI2
 70
     1
  9
$USERI3
 70
     0
  9
$USERI4
 70
     0
  9
$USERI5
 70
     0
  9
$USERR1
 40
0.0
  9
$USERR2
 40
0.0
  9
$USERR3
 40
0.0
  9
$USERR4
 40
0.0
  9
$USERR5
 40
0.0
  9
$WORLDVIEW
 70
     1
  9
$SHADEDGE
 70
     3
  9
$SHADEDIF
 70
    70
  9
$TILEMODE
 70
     1
  9
$MAXACTVP
 70
    16
  9
$PLIMCHECK
 70
     0
  9
$PEXTMIN
 10
1.0000000000000000E+020
 20
1.0000000000000000E+020
 30
1.0000000000000000E+020
  9
$PEXTMAX
 10
-1.0000000000000000E+020
 20
-1.0000000000000000E+020
 30
-1.0000000000000000E+020
  9
$PLIMMIN
 10
0.0
 20
0.0
  9
$PLIMMAX
 10
12.0
 20
9.0
  9
$UNITMODE
 70
     0
  9
$VISRETAIN
 70
     0
  9
$PLINEGEN
 70
     0
  9
$PSLTSCALE
 70
     0
  0
ENDSEC
  0
SECTION
  2
TABLES
  0
TABLE
  2
VPORT
 70
     1
  0
VPORT
  2
*ACTIVE
 70
     0
 10
0.0
 20
0.0
 11
1.0
 21
1.0
 12
427.16127508839969
 22
106.5248562492863
 13
0.0
 23
0.0
 14
5.0
 24
5.0
 15
5.0
 25
5.0
 16
0.0
 26
0.0
 36
1.0
 17
0.0
 27
0.0
 37
0.0
 40
329.47298157217659
 41
2.6019575856443709
 42
50.0
 43
0.0
 44
0.0
 50
0.0
 51
0.0
 71
     0
 72
   500
 73
     1
 74
     0
 75
     0
 76
     0
 77
     0
 78
     2
  0
ENDTAB
  0
TABLE
  2
LTYPE
 70
     3
  0
LTYPE
  2
CONTINUOUS
 70
     0
  3
Solid Line
 72
    65
 73
     0
 40
0.0
  0
LTYPE
  2
CENTER
 70
     0
  3
____ _ ____ _ ____ _ ____ _ ____ _ ____ _ ____
 72
    65
 73
     4
 40
2.0
 49
1.25
 49
-0.25
 49
0.25
 49
-0.25
  0
LTYPE
  2
PHANTOM2
 70
     0
  3
___ _ _ ___ _ _ ___ _ _ ___ _ _
 72
    65
 73
     6
 40
1.25
 49
0.625
 49
-0.125
 49
0.125
 49
-0.125
 49
0.125
 49
-0.125
  0
ENDTAB
  0
TABLE
  2
LAYER
 70
     2
  0
LAYER
  2
0
 70
     0
 62
     7
  6
CONTINUOUS
  0
LAYER
  2
1
 70
     0
 62
     1
  6
CENTER
  0
ENDTAB
  0
TABLE
  2
STYLE
 70
     2
  0
STYLE
  2
STANDARD
 70
     0
 40
0.0
 41
1.0
 50
0.0
 71
     0
 42
5.0
  3
TXT
  4
BIGFONT
  0
STYLE
  2
STANDARD1
 70
     0
 40
0.0
 41
1.0
 50
0.0
 71
     0
 42
3.0
  3
txt
  4

  0
ENDTAB
  0
TABLE
  2
VIEW
 70
     0
  0
ENDTAB
  0
TABLE
  2
UCS
 70
     0
  0
ENDTAB
  0
TABLE
  2
APPID
 70
     4
  0
APPID
  2
ACAD
 70
     0
  0
APPID
  2
ACAD_MLEADERVER
 70
     0
  0
APPID
  2
ACAD_EXEMPT_FROM_CAD_STANDARDS
 70
     0
  0
APPID
  2
ACAD_NAV_VCDISPLAY
 70
     0
  0
ENDTAB
  0
TABLE
  2
DIMSTYLE
 70
     1
  0
DIMSTYLE
  2
STANDARD
 70
     0
  3

  4

  5

  6

  7

 40
1.0
 41
0.18
 42
0.0625
 43
0.38
 44
0.18
 45
0.0
 46
0.0
 47
0.0
 48
0.0
140
0.18
141
0.09
142
0.0
143
25.399999999999999
144
1.0
145
0.0
146
1.0
147
0.09
 71
     0
 72
     0
 73
     1
 74
     1
 75
     0
 76
     0
 77
     0
 78
     0
170
     0
171
     2
172
     0
173
     0
174
     0
175
     0
176
     0
177
     0
178
     0
  0
ENDTAB
  0
ENDSEC
  0
SECTION
  2
BLOCKS
  0
BLOCK
  8
0
  2
$MODEL_SPACE
 70
     0
 10
0.0
 20
0.0
 30
0.0
  3
$MODEL_SPACE
  1

  0
ENDBLK
  5
62F
  8
0
  0
BLOCK
 67
     1
  8
0
  2
$PAPER_SPACE
 70
     0
 10
0.0
 20
0.0
 30
0.0
  3
$PAPER_SPACE
  1

  0
ENDBLK
  5
62D
 67
     1
  8
0
  0
BLOCK
  8
0
  2
STDGX5
 70
     0
 10
0.0
 20
0.0
 30
0.0
  3
STDGX5
  1

  0
ENDBLK
  5
114
  8
0
  0
ENDSEC
  0
SECTION
  2
ENTITIES
  0
INSERT
  5
1D2
  8
0
  2
STDGX5
 10
0.0
 20
0.0
 30
0.0
 41
0.25
 42
0.25
 43
0.25
  0
INSERT
  5
1D3
  8
0
  2
STDGX5
 10
0.0
 20
0.0
 30
0.0
 41
0.25
 42
0.25
 43
0.25
  0
INSERT
  5
1D4
  8
0
  2
STDGX5
 10
68.75
 20
0.0
 30
0.0
 41
0.25
 42
0.25
 43
0.25
  0
INSERT
  5
1D5
  8
0
  2
STDGX5
 10
68.75
 20
0.0
 30
0.0
 41
0.25
 42
0.25
 43
0.25
  0
INSERT
  5
35E
  8
0
  2
STDGX5
 10
0.0
 20
0.0
 30
0.0
 41
0.5
 42
0.5
 43
0.5
  0
INSERT
  5
35F
  8
0
  2
STDGX5
 10
0.0
 20
0.0
 30
0.0
 41
0.5
 42
0.5
 43
0.5
  0
INSERT
  5
360
  8
0
  2
STDGX5
 10
137.5
 20
0.0
 30
0.0
 41
0.5
 42
0.5
 43
0.5
  0
INSERT
  5
361
  8
0
  2
STDGX5
 10
137.5
 20
0.0
 30
0.0
 41
0.5
 42
0.5
 43
0.5
  0
INSERT
  5
3E0
  8
0
  2
STDGX5
 10
-35.0
 20
-100.0
 30
0.0
 41
0.3333333333333333
 42
0.3333333333333333
 43
0.3333333333333333
  0
INSERT
  5
3E1
  8
0
  2
STDGX5
 10
-35.0
 20
-100.0
 30
0.0
 41
0.3333333333333333
 42
0.3333333333333333
 43
0.3333333333333333
  0
INSERT
  5
3E2
  8
0
  2
STDGX5
 10
56.666666666666643
 20
-100.0
 30
0.0
 41
0.3333333333333333
 42
0.3333333333333333
 43
0.3333333333333333
  0
INSERT
  5
3E3
  8
0
  2
STDGX5
 10
56.666666666666643
 20
-100.0
 30
0.0
 41
0.3333333333333333
 42
0.3333333333333333
 43
0.3333333333333333
  0
INSERT
  5
43A
  8
0
  2
STDGX5
 10
-35.0
 20
-100.0
 30
0.0
 41
0.3333333333333333
 42
0.3333333333333333
 43
0.3333333333333333
  0
INSERT
  5
43B
  8
0
  2
STDGX5
 10
-35.0
 20
-100.0
 30
0.0
 41
0.3333333333333333
 42
0.3333333333333333
 43
0.3333333333333333
  0
INSERT
  5
43C
  8
0
  2
STDGX5
 10
56.666666666666657
 20
-100.0
 30
0.0
 41
0.3333333333333333
 42
0.3333333333333333
 43
0.3333333333333333
  0
INSERT
  5
43D
  8
0
  2
STDGX5
 10
56.666666666666657
 20
-100.0
 30
0.0
 41
0.3333333333333333
 42
0.3333333333333333
 43
0.3333333333333333
  0
INSERT
  5
541
  8
0
  2
STDGX5
 10
0.0
 20
0.0
 30
0.0
  0
INSERT
  5
542
  8
0
  2
STDGX5
 10
0.0
 20
0.0
 30
0.0
  0
INSERT
  5
543
  8
0
  2
STDGX5
 10
275.0
 20
0.0
 30
0.0
  0
INSERT
  5
544
  8
0
  2
STDGX5
 10
275.0
 20
0.0
 30
0.0
  0
LINE
  5
591
  8
0
 10
116.0
 20
90.0
 30
0.0
 11
601.0
 21
90.0
 31
0.0
  0
LINE
  5
592
  8
0
 10
116.0
 20
70.0
 30
0.0
 11
601.0
 21
70.0
 31
0.0
  0
LINE
  5
593
  8
0
 10
101.0
 20
140.0
 30
0.0
 11
601.0
 21
140.0
 31
0.0
  0
LINE
  5
594
  8
0
 10
101.0
 20
146.0
 30
0.0
 11
601.0
 21
146.0
 31
0.0
  0
LINE
  5
595
  8
0
 10
116.0
 20
196.0
 30
0.0
 11
601.0
 21
196.00000000000011
 31
0.0
  0
LINE
  5
596
  8
0
 10
116.0
 20
216.0
 30
0.0
 11
601.0
 21
216.00000000000011
 31
0.0
  0
LINE
  5
597
  8
1
 10
127.0
 20
80.0
 30
0.0
 11
135.0
 21
80.0
 31
0.0
  0
LINE
  5
598
  8
0
 10
116.0
 20
76.650000000000006
 30
0.0
 11
116.0
 21
70.0
 31
0.0
  0
LINE
  5
599
  8
0
 10
101.0
 20
83.349999999999994
 30
0.0
 11
116.0
 21
83.349999999999994
 31
0.0
  0
LINE
  5
59A
  8
0
 10
101.0
 20
76.650000000000006
 30
0.0
 11
116.0
 21
76.650000000000006
 31
0.0
  0
LINE
  5
59B
  8
0
 10
101.0
 20
83.349999999999994
 30
0.0
 11
101.0
 21
76.650000000000006
 31
0.0
  0
LINE
  5
59C
  8
0
 10
116.0
 20
83.349999999999994
 30
0.0
 11
116.0
 21
90.0
 31
0.0
  0
CIRCLE
  5
59D
  8
0
 10
131.0
 20
80.0
 30
0.0
 40
2.75
  0
LINE
  5
59E
  8
1
 10
131.0
 20
76.0
 30
0.0
 11
131.0
 21
84.0
 31
0.0
  0
LINE
  5
59F
  8
0
 10
66.0
 20
216.0
 30
0.0
 11
66.0
 21
196.0
 31
0.0
  0
LINE
  5
5A0
  8
0
 10
60.0
 20
216.0
 30
0.0
 11
60.0
 21
196.0
 31
0.0
  0
LINE
  5
5A1
  8
0
 10
60.0
 20
196.0
 30
0.0
 11
66.0
 21
196.0
 31
0.0
  0
LINE
  5
5A2
  8
0
 10
60.0
 20
202.65000000000001
 30
0.0
 11
66.0
 21
202.65000000000001
 31
0.0
  0
LINE
  5
5A3
  8
0
 10
60.0
 20
209.34999999999999
 30
0.0
 11
66.0
 21
209.34999999999999
 31
0.0
  0
LINE
  5
5A4
  8
0
 10
66.0
 20
216.0
 30
0.0
 11
60.0
 21
216.0
 31
0.0
  0
LINE
  5
5A5
  8
1
 10
138.0
 20
206.0
 30
0.0
 11
124.0
 21
206.0
 31
0.0
  0
CIRCLE
  5
5A6
  8
0
 10
131.0
 20
206.0
 30
0.0
 40
5.0
  0
LINE
  5
5A7
  8
0
 10
101.0
 20
146.0
 30
0.0
 11
101.0
 21
140.0
 31
0.0
  0
LINE
  5
5A8
  8
0
 10
116.0
 20
146.0
 30
0.0
 11
116.0
 21
140.0
 31
0.0
  0
LINE
  5
5A9
  8
0
 10
101.0
 20
209.34999999999999
 30
0.0
 11
101.0
 21
202.65000000000001
 31
0.0
  0
LINE
  5
5AA
  8
0
 10
101.0
 20
202.65000000000001
 30
0.0
 11
116.0
 21
202.65000000000001
 31
0.0
  0
LINE
  5
5AB
  8
0
 10
116.0
 20
202.65000000000001
 30
0.0
 11
116.0
 21
196.0
 31
0.0
  0
LINE
  5
5AC
  8
0
 10
101.0
 20
209.34999999999999
 30
0.0
 11
116.0
 21
209.34999999999999
 31
0.0
  0
LINE
  5
5AD
  8
0
 10
116.0
 20
209.34999999999999
 30
0.0
 11
116.0
 21
216.0
 31
0.0
  0
CIRCLE
  5
5AE
  8
0
 10
131.0
 20
206.0
 30
0.0
 40
2.75
  0
LINE
  5
5AF
  8
1
 10
131.0
 20
213.0
 30
0.0
 11
131.0
 21
199.0
 31
0.0
  0
LINE
  5
5B3
  8
0
 10
601.0
 20
76.5
 30
0.0
 11
601.0
 21
70.0
 31
0.0
  0
LINE
  5
5B4
  8
0
 10
601.0
 20
90.000000000000014
 30
0.0
 11
601.0
 21
83.500000000000014
 31
0.0
  0
LINE
  5
5B5
  8
0
 10
586.5
 20
209.5
 30
0.0
 11
601.0
 21
209.5
 31
0.0
  0
LINE
  5
5B6
  8
0
 10
586.5
 20
202.5
 30
0.0
 11
601.0
 21
202.5
 31
0.0
  0
LINE
  5
5B8
  8
0
 10
601.0
 20
146.0
 30
0.0
 11
601.0
 21
140.0
 31
0.0
  0
LINE
  5
5B9
  8
0
 10
601.0
 20
202.5
 30
0.0
 11
601.0
 21
196.0
 31
0.0
  0
LINE
  5
5BA
  8
0
 10
601.0
 20
216.0
 30
0.0
 11
601.0
 21
209.5
 31
0.0
  0
LINE
  5
5BB
  8
0
 10
636.0
 20
216.0
 30
0.0
 11
636.0
 21
196.0
 31
0.0
  0
LINE
  5
5BC
  8
0
 10
642.0
 20
216.0
 30
0.0
 11
642.0
 21
196.0
 31
0.0
  0
LINE
  5
5BD
  8
0
 10
636.0
 20
196.0
 30
0.0
 11
642.0
 21
196.0
 31
0.0
  0
LINE
  5
5BE
  8
0
 10
636.0
 20
202.5
 30
0.0
 11
642.0
 21
202.49999999999989
 31
0.0
  0
LINE
  5
5BF
  8
0
 10
636.0
 20
209.5
 30
0.0
 11
642.0
 21
209.5
 31
0.0
  0
LINE
  5
5C0
  8
0
 10
636.0
 20
216.0
 30
0.0
 11
642.0
 21
216.0
 31
0.0
  0
ARC
  5
64E
  8
0
 10
586.5
 20
206.0
 30
0.0
 40
3.5
 50
90.0
 51
270.0
  0
ARC
  5
667
  8
0
 10
586.5
 20
79.999999999999943
 30
0.0
 40
3.5
 50
90.0
 51
270.0
  0
LINE
  5
668
  8
0
 10
586.5
 20
76.499999999999972
 30
0.0
 11
601.0
 21
76.5
 31
0.0
  0
LINE
  5
669
  8
0
 10
586.5
 20
83.500000000000028
 30
0.0
 11
601.0
 21
83.499999999999986
 31
0.0
  0
TEXT
  5
740
  8
0
 62
     3
 10
0.0
 20
0.0
 30
0.0
 40
10.0
  1
TCR20X6
  7
STANDARD1
  0
ENDSEC
  0
EOF
