  0
SECTION
  2
HEADER
  9
$ACADVER
  1
AC1009
  9
$INSBASE
 10
0.0
 20
0.0
 30
0.0
  9
$EXTMIN
 10
0.0
 20
-2.960436562073669
 30
0.0
  9
$EXTMAX
 10
364.28184054416039
 20
385.9172346661357
 30
0.0
  9
$LIMMIN
 10
0.0
 20
0.0
  9
$LIMMAX
 10
420.0
 20
297.0
  9
$ORTHOMODE
 70
     1
  9
$REGENMODE
 70
     1
  9
$FILLMODE
 70
     1
  9
$QTEXTMODE
 70
     0
  9
$MIRRTEXT
 70
     0
  9
$DRAGMODE
 70
     2
  9
$LTSCALE
 40
10.0
  9
$OSMODE
 70
    37
  9
$ATTMODE
 70
     1
  9
$TEXTSIZE
 40
2.5
  9
$TRACEWID
 40
1.0
  9
$TEXTSTYLE
  7
STANDARD
  9
$CLAYER
  8
0
  9
$CELTYPE
  6
BYLAYER
  9
$CECOLOR
 62
   256
  9
$DIMSCALE
 40
1.0
  9
$DIMASZ
 40
2.5
  9
$DIMEXO
 40
0.625
  9
$DIMDLI
 40
3.75
  9
$DIMRND
 40
0.0
  9
$DIMDLE
 40
0.0
  9
$DIMEXE
 40
1.25
  9
$DIMTP
 40
0.0
  9
$DIMTM
 40
0.0
  9
$DIMTXT
 40
2.5
  9
$DIMCEN
 40
2.5
  9
$DIMTSZ
 40
0.0
  9
$DIMTOL
 70
     0
  9
$DIMLIM
 70
     0
  9
$DIMTIH
 70
     0
  9
$DIMTOH
 70
     0
  9
$DIMSE1
 70
     0
  9
$DIMSE2
 70
     0
  9
$DIMTAD
 70
     1
  9
$DIMZIN
 70
     8
  9
$DIMBLK
  1

  9
$DIMASO
 70
     1
  9
$DIMSHO
 70
     1
  9
$DIMPOST
  1

  9
$DIMAPOST
  1

  9
$DIMALT
 70
     0
  9
$DIMALTD
 70
     3
  9
$DIMALTF
 40
0.03937007874016
  9
$DIMLFAC
 40
1.0
  9
$DIMTOFL
 70
     1
  9
$DIMTVP
 40
0.0
  9
$DIMTIX
 70
     0
  9
$DIMSOXD
 70
     0
  9
$DIMSAH
 70
     0
  9
$DIMBLK1
  1

  9
$DIMBLK2
  1

  9
$DIMSTYLE
  2
ISO-25
  9
$DIMCLRD
 70
     0
  9
$DIMCLRE
 70
     0
  9
$DIMCLRT
 70
     0
  9
$DIMTFAC
 40
1.0
  9
$DIMGAP
 40
0.625
  9
$LUNITS
 70
     2
  9
$LUPREC
 70
     4
  9
$SKETCHINC
 40
1.0
  9
$FILLETRAD
 40
0.0
  9
$AUNITS
 70
     0
  9
$AUPREC
 70
     2
  9
$MENU
  1
.
  9
$ELEVATION
 40
0.0
  9
$PELEVATION
 40
0.0
  9
$THICKNESS
 40
0.0
  9
$LIMCHECK
 70
     0
  9
$BLIPMODE
 70
     0
  9
$CHAMFERA
 40
0.0
  9
$CHAMFERB
 40
0.0
  9
$SKPOLY
 70
     0
  9
$TDCREATE
 40
2454083.4444627082
  9
$TDUPDATE
 40
2457161.724218877
  9
$TDINDWG
 40
1.7101210416999999
  9
$TDUSRTIMER
 40
1.7101210416999999
  9
$USRTIMER
 70
     1
  9
$ANGBASE
 50
0.0
  9
$ANGDIR
 70
     0
  9
$PDMODE
 70
     0
  9
$PDSIZE
 40
0.0
  9
$PLINEWID
 40
0.0
  9
$COORDS
 70
     1
  9
$SPLFRAME
 70
     0
  9
$SPLINETYPE
 70
     6
  9
$SPLINESEGS
 70
     8
  9
$ATTDIA
 70
     0
  9
$ATTREQ
 70
     1
  9
$HANDLING
 70
     1
  9
$HANDSEED
  5
F2F3
  9
$SURFTAB1
 70
     6
  9
$SURFTAB2
 70
     6
  9
$SURFTYPE
 70
     6
  9
$SURFU
 70
     6
  9
$SURFV
 70
     6
  9
$UCSNAME
  2

  9
$UCSORG
 10
0.0
 20
0.0
 30
0.0
  9
$UCSXDIR
 10
1.0
 20
0.0
 30
0.0
  9
$UCSYDIR
 10
0.0
 20
1.0
 30
0.0
  9
$PUCSNAME
  2

  9
$PUCSORG
 10
0.0
 20
0.0
 30
0.0
  9
$PUCSXDIR
 10
1.0
 20
0.0
 30
0.0
  9
$PUCSYDIR
 10
0.0
 20
1.0
 30
0.0
  9
$USERI1
 70
     0
  9
$USERI2
 70
     0
  9
$USERI3
 70
     0
  9
$USERI4
 70
     0
  9
$USERI5
 70
     0
  9
$USERR1
 40
0.0
  9
$USERR2
 40
0.0
  9
$USERR3
 40
0.0
  9
$USERR4
 40
0.0
  9
$USERR5
 40
0.0
  9
$WORLDVIEW
 70
     1
  9
$SHADEDGE
 70
     3
  9
$SHADEDIF
 70
    70
  9
$TILEMODE
 70
     1
  9
$MAXACTVP
 70
    64
  9
$PLIMCHECK
 70
     0
  9
$PEXTMIN
 10
0.0
 20
0.0
 30
0.0
  9
$PEXTMAX
 10
0.0
 20
0.0
 30
0.0
  9
$PLIMMIN
 10
0.0
 20
0.0
  9
$PLIMMAX
 10
12.0
 20
9.0
  9
$UNITMODE
 70
     0
  9
$VISRETAIN
 70
     1
  9
$PLINEGEN
 70
     0
  9
$PSLTSCALE
 70
     1
  0
ENDSEC
  0
SECTION
  2
TABLES
  0
TABLE
  2
VPORT
 70
     1
  0
VPORT
  2
*ACTIVE
 70
     0
 10
0.0
 20
0.0
 11
1.0
 21
1.0
 12
184.55803872311111
 22
191.48657605395991
 13
0.0
 23
0.0
 14
10.0
 24
10.0
 15
10.0
 25
10.0
 16
0.0
 26
0.0
 36
1.0
 17
0.0
 27
0.0
 37
0.0
 40
392.19054203340738
 41
1.368715083798882
 42
50.0
 43
0.0
 44
0.0
 50
0.0
 51
0.0
 71
     0
 72
  1000
 73
     1
 74
     3
 75
     0
 76
     0
 77
     0
 78
     0
  0
ENDTAB
  0
TABLE
  2
LTYPE
 70
     2
  0
LTYPE
  2
CONTINUOUS
 70
     0
  3
Solid line
 72
    65
 73
     0
 40
0.0
  0
LTYPE
  2
CENTER
 70
     0
  3
____ _ ____ _ ____ _ ____ _ ____ _ ____ _ ____
 72
    65
 73
     4
 40
2.0
 49
1.25
 49
-0.25
 49
0.25
 49
-0.25
  0
ENDTAB
  0
TABLE
  2
LAYER
 70
     4
  0
LAYER
  2
0
 70
     0
 62
     7
  6
CONTINUOUS
  0
LAYER
  2
DEFPOINTS
 70
     0
 62
     7
  6
CONTINUOUS
  0
LAYER
  2
1
 70
     0
 62
     1
  6
CENTER
  0
LAYER
  2
3
 70
     0
 62
     3
  6
CONTINUOUS
  0
ENDTAB
  0
TABLE
  2
STYLE
 70
     2
  0
STYLE
  2
STANDARD
 70
     0
 40
0.0
 41
1.0
 50
0.0
 71
     0
 42
2.5
  3
txt
  4

  0
STYLE
  2
STANDARD1
 70
     0
 40
0.0
 41
1.0
 50
0.0
 71
     0
 42
3.0
  3
txt
  4

  0
ENDTAB
  0
TABLE
  2
VIEW
 70
     2
  0
VIEW
  2
OLE1
 70
     0
 40
17.336203194614189
 10
1078.262703908531
 20
377.67444865954309
 41
31.074911629702001
 11
0.0
 21
0.0
 31
1.0
 12
0.0
 22
0.0
 32
0.0
 42
50.0
 43
0.0
 44
0.0
 50
0.0
 71
     0
  0
VIEW
  2
OLE2
 70
     0
 40
50.523198253338478
 10
1031.767738941523
 20
579.92835671582054
 41
90.562155008667546
 11
0.0
 21
0.0
 31
1.0
 12
0.0
 22
0.0
 32
0.0
 42
50.0
 43
0.0
 44
0.0
 50
0.0
 71
     0
  0
ENDTAB
  0
TABLE
  2
UCS
 70
     0
  0
ENDTAB
  0
TABLE
  2
APPID
 70
    42
  0
APPID
  2
ACAD
 70
     0
  0
APPID
  2
_FTCNV
 70
     0
  0
APPID
  2
DCO15
 70
     0
  0
APPID
  2
GENIUS_GENOREF_13
 70
     0
  0
APPID
  2
GENIUS_GENOENT_13
 70
     0
  0
APPID
  2
GENIUS_GENBH_13
 70
     0
  0
APPID
  2
GENIUS_GENOBJ_13
 70
     0
  0
APPID
  2
GENIUS_GENODEF_13
 70
     0
  0
APPID
  2
GENIUS_GENOLIS_13
 70
     0
  0
APPID
  2
GENIUS_GENOBJ-NBEHI-BHF_13
 70
     0
  0
APPID
  2
GENIUS_GENOBJ-NBEHI-BHB_13
 70
     0
  0
APPID
  2
GENIUS_GENOBJ-F-PART_13
 70
     0
  0
APPID
  2
GENIUS_GEFSTDP_13
 70
     0
  0
APPID
  2
GENIUS_GENOBJ-N-RSSYM_13
 70
     0
  0
APPID
  2
GENIUS_GENSYMENT_13
 70
     0
  0
APPID
  2
GENIUS_GENOBJ-N-TIT_13
 70
     0
  0
APPID
  2
GENIUS_GENTITLE_13
 70
     0
  0
APPID
  2
GENIUS_GENZVEED_13
 70
     0
  0
APPID
  2
GENIUS_GENOBJ-N-LEADER_13
 70
     0
  0
APPID
  2
GENIUS_GENOBJ-N-FIL_13
 70
     0
  0
APPID
  2
GENIUS_GENOBJ-N-SEC_13
 70
     0
  0
APPID
  2
GENIUS_GENOBJ-N-CRS_13
 70
     0
  0
APPID
  2
GENIUS_GENOBJ-N-ZOO_13
 70
     0
  0
APPID
  2
GENIUS_GENZOO_13
 70
     0
  0
APPID
  2
GENIUS_GENOBJ-F-TOL_13
 70
     0
  0
APPID
  2
GENIUS_GENFIL_13
 70
     0
  0
APPID
  2
GENIUS_GENOBJ-N-CHA_13
 70
     0
  0
APPID
  2
_CALL_MAC$
 70
     0
  0
APPID
  2
ASM_BASE
 70
     0
  0
APPID
  2
ASM_EXPLO_VER_2_00
 70
     0
  0
APPID
  2
ASM_CADM_VER_12_00
 70
     0
  0
APPID
  2
ASM_BASEFORO
 70
     0
  0
APPID
  2
ASM_BASETRAVI
 70
     0
  0
APPID
  2
ASM_BASETRAVI1
 70
     0
  0
APPID
  2
ASM_GRUPPI
 70
     0
  0
APPID
  2
ASM_CADM_ALBERO
 70
     0
  0
APPID
  2
ASM_GOLE
 70
     0
  0
APPID
  2
ACAD_MLEADERVER
 70
     0
  0
APPID
  2
ACAD_EXEMPT_FROM_CAD_STANDARDS
 70
     0
  0
APPID
  2
ACAD_DSTYLE_DIMJAG
 70
     0
  0
APPID
  2
ACAD_DSTYLE_DIMTALN
 70
     0
  0
APPID
  2
ACAD_NAV_VCDISPLAY
 70
     0
  0
ENDTAB
  0
TABLE
  2
DIMSTYLE
 70
     2
  0
DIMSTYLE
  2
ISO-25
 70
     0
  3

  4

  5

  6

  7

 40
1.0
 41
2.5
 42
0.625
 43
3.75
 44
1.25
 45
0.0
 46
0.0
 47
0.0
 48
0.0
140
2.5
141
2.5
142
0.0
143
0.03937007874016
144
1.0
145
0.0
146
1.0
147
0.625
 71
     0
 72
     0
 73
     0
 74
     0
 75
     0
 76
     0
 77
     1
 78
     8
170
     0
171
     3
172
     1
173
     0
174
     0
175
     0
176
     0
177
     0
178
     0
  0
DIMSTYLE
  2
STANDARD
 70
     0
  3

  4

  5

  6

  7

 40
1.0
 41
0.18
 42
0.0625
 43
0.38
 44
0.18
 45
0.0
 46
0.0
 47
0.0
 48
0.0
140
0.18
141
0.09
142
0.0
143
25.399999999999999
144
1.0
145
0.0
146
1.0
147
0.09
 71
     0
 72
     0
 73
     1
 74
     1
 75
     0
 76
     0
 77
     0
 78
     0
170
     0
171
     2
172
     0
173
     0
174
     0
175
     0
176
     0
177
     0
178
     0
  0
ENDTAB
  0
ENDSEC
  0
SECTION
  2
BLOCKS
  0
BLOCK
  8
0
  2
$MODEL_SPACE
 70
     0
 10
0.0
 20
0.0
 30
0.0
  3
$MODEL_SPACE
  1

  0
ENDBLK
  5
21
  8
0
  0
BLOCK
 67
     1
  8
0
  2
$PAPER_SPACE
 70
     0
 10
0.0
 20
0.0
 30
0.0
  3
$PAPER_SPACE
  1

  0
ENDBLK
  5
53
 67
     1
  8
0
  0
ENDSEC
  0
SECTION
  2
ENTITIES
  0
LINE
  5
C4BE
  8
0
 10
170.1761802157514
 20
153.6815775015416
 30
0.0
 11
170.46485668626951
 21
153.18157835090781
 31
0.0
  0
LINE
  5
C4BF
  8
0
 10
170.1761802157514
 20
160.5597560682358
 30
0.0
 11
170.1761802157514
 21
153.6815775015416
 31
0.0
  0
ARC
  5
C4C0
  8
0
 10
176.9261811098211
 20
153.1815783360066
 30
0.0
 40
10.00000000000003
 50
109.9484299754417
 51
132.4541502043985
  0
ARC
  5
C4C1
  8
0
 10
176.9261811098211
 20
153.1815783360066
 30
0.0
 40
10.000000000000011
 50
61.942650590943302
 51
70.051570024558245
  0
LINE
  5
C4C2
  8
0
 10
172.47618189660241
 20
128.48157840008159
 30
0.0
 11
172.47618189660241
 21
127.9815783181252
 31
0.0
  0
LINE
  5
C4C3
  8
0
 10
181.37617981640031
 20
127.9815783181252
 30
0.0
 11
181.37617981640031
 21
128.48157840008159
 31
0.0
  0
LINE
  5
C4C4
  8
0
 10
173.92618036476301
 20
162.8680800476136
 30
0.0
 11
173.92618036476301
 21
162.58157914662979
 31
0.0
  0
LINE
  5
C4C5
  8
0
 10
173.92618036476301
 20
145.98157754326479
 30
0.0
 11
173.92618036476301
 21
128.48157840008159
 31
0.0
  0
LINE
  5
C4C6
  8
0
 10
179.9261813482396
 20
128.48157840008159
 30
0.0
 11
179.9261813482396
 21
145.98157754326479
 31
0.0
  0
LINE
  5
C4C7
  8
0
 10
179.9261813482396
 20
162.58157914662979
 30
0.0
 11
179.9261813482396
 21
162.8680800476136
 31
0.0
  0
LINE
  5
C4C8
  8
0
 10
179.9261813482396
 20
162.8680800476136
 30
0.0
 11
179.31268191543739
 21
163.4815794804158
 31
0.0
  0
LINE
  5
C4C9
  8
0
 10
174.53967979756521
 20
163.4815794804158
 30
0.0
 11
173.92618036476301
 21
162.8680800476136
 31
0.0
  0
LINE
  5
C4CA
  8
0
 10
181.9261816760652
 20
124.48157834105901
 30
0.0
 11
182.69968232718631
 21
124.6888377576429
 31
0.0
  0
LINE
  5
C4CB
  8
0
 10
171.1526793858163
 20
124.6888377576429
 30
0.0
 11
171.92618003693741
 21
124.48157834105901
 31
0.0
  0
LINE
  5
C4CC
  8
0
 10
171.92618003693741
 20
149.18157769525669
 30
0.0
 11
171.1526793858163
 21
148.7349954822125
 31
0.0
  0
LINE
  5
C4CD
  8
0
 10
181.9261816760652
 20
145.98157754326479
 30
0.0
 11
182.69968232718631
 21
146.42815975630899
 31
0.0
  0
LINE
  5
C4CE
  8
0
 10
182.69968232718631
 20
148.7349954822125
 30
0.0
 11
181.9261816760652
 21
149.18157769525669
 31
0.0
  0
LINE
  5
C4CF
  8
0
 10
171.1526793858163
 20
146.42815975630899
 30
0.0
 11
171.92618003693741
 21
145.98157754326479
 31
0.0
  0
CIRCLE
  5
C4D0
  8
0
 10
245.9261811098213
 20
161.6815783360066
 30
0.0
 40
4.0
  0
LINE
  5
C4D1
  8
0
 10
170.1761802157514
 20
153.6815775015416
 30
0.0
 11
170.92618173566979
 21
153.6815775015416
 31
0.0
  0
LINE
  5
C4D2
  8
0
 10
170.46485668626951
 20
153.18157835090781
 30
0.0
 11
170.92618173566979
 21
153.18157835090781
 31
0.0
  0
LINE
  5
C4D3
  8
0
 10
174.0361136814706
 20
158.95835435176511
 30
0.0
 11
174.0361136814706
 21
160.5597560682358
 31
0.0
  0
ARC
  5
C4D4
  8
0
 10
176.9261811098211
 20
153.1815783360066
 30
0.0
 40
7.9240141342630386
 50
76.202513949446654
 51
111.3905288537446
  0
LINE
  5
C4D5
  8
0
 10
170.1761802157514
 20
160.5597560682358
 30
0.0
 11
174.0361136814706
 21
160.5597560682358
 31
0.0
  0
LINE
  5
C4D6
  8
0
 10
180.33792329824681
 20
162.58157914662979
 30
0.0
 11
173.51443892139491
 21
162.58157914662971
 31
0.0
  0
LINE
  5
C4D9
  8
0
 10
182.69968232718631
 20
124.6888377576429
 30
0.0
 11
182.69968232718631
 21
127.9815783181252
 31
0.0
  0
LINE
  5
C4DA
  8
0
 10
182.69968232718631
 20
124.6888377576429
 30
0.0
 11
181.25630742517629
 21
124.48157834105901
 31
0.0
  0
LINE
  5
C4DB
  8
0
 10
181.25630742517629
 20
124.48157834105901
 30
0.0
 11
179.81293252316641
 21
124.6888377576429
 31
0.0
  0
LINE
  5
C4DC
  8
0
 10
179.81293252316641
 20
124.6888377576429
 30
0.0
 11
179.81293252316641
 21
127.9815783181252
 31
0.0
  0
LINE
  5
C4DD
  8
0
 10
179.81293252316641
 20
124.6888377576429
 30
0.0
 11
176.92618271914651
 21
124.48157834105901
 31
0.0
  0
LINE
  5
C4DE
  8
0
 10
176.92618271914651
 20
124.48157834105901
 30
0.0
 11
174.0394291898362
 21
124.6888377576429
 31
0.0
  0
LINE
  5
C4DF
  8
0
 10
174.0394291898362
 20
124.6888377576429
 30
0.0
 11
174.0394291898362
 21
127.9815783181252
 31
0.0
  0
LINE
  5
C4E1
  8
0
 10
174.0394291898362
 20
124.6888377576429
 30
0.0
 11
172.59605428782629
 21
124.48157834105901
 31
0.0
  0
LINE
  5
C4E2
  8
0
 10
172.59605428782629
 20
124.48157834105901
 30
0.0
 11
171.1526793858163
 21
124.6888377576429
 31
0.0
  0
LINE
  5
C4E3
  8
0
 10
171.1526793858163
 20
124.6888377576429
 30
0.0
 11
171.1526793858163
 21
127.9815783181252
 31
0.0
  0
LINE
  5
C4E4
  8
0
 10
171.1526793858163
 20
127.9815783181252
 30
0.0
 11
182.69968232718631
 21
127.9815783181252
 31
0.0
  0
LINE
  5
C4E7
  8
0
 10
172.47618189660241
 20
128.48157840008159
 30
0.0
 11
181.37617981640031
 21
128.48157840008159
 31
0.0
  0
LINE
  5
C4E8
  8
0
 10
179.9261813482396
 20
162.8680800476136
 30
0.0
 11
173.92618036476301
 21
162.8680800476136
 31
0.0
  0
LINE
  5
C4E9
  8
0
 10
179.31268191543739
 20
163.4815794804158
 30
0.0
 11
174.53967979756521
 21
163.4815794804158
 31
0.0
  0
LINE
  5
C4EA
  8
0
 10
171.92618003693789
 20
124.48157834105891
 30
0.0
 11
181.9261816760652
 21
124.48157834105901
 31
0.0
  0
POLYLINE
  5
C4EC
  8
0
 66
     1
 10
0.0
 20
0.0
 30
0.0
 70
   128
  0
VERTEX
  5
EEDC
  8
0
 10
176.92618271914651
 20
149.18157769525669
 30
0.0
  0
VERTEX
  5
EEDD
  8
0
 10
178.36955762115639
 20
149.06370392227791
 30
0.0
  0
VERTEX
  5
EEDE
  8
0
 10
179.81293252316641
 20
148.7349954822125
 30
0.0
  0
SEQEND
  5
EEDF
  8
0
  0
POLYLINE
  5
C4ED
  8
0
 66
     1
 10
0.0
 20
0.0
 30
0.0
 70
   128
  0
VERTEX
  5
EEE0
  8
0
 10
179.81293252316641
 20
148.7349954822125
 30
0.0
  0
VERTEX
  5
EEE1
  8
0
 10
180.52008202878159
 20
149.0590044685664
 30
0.0
  0
VERTEX
  5
EEE2
  8
0
 10
181.25630742517629
 20
149.18157769525669
 30
0.0
  0
SEQEND
  5
EEE3
  8
0
  0
POLYLINE
  5
C4EE
  8
0
 66
     1
 10
0.0
 20
0.0
 30
0.0
 70
   128
  0
VERTEX
  5
EEE4
  8
0
 10
176.92618271914651
 20
145.98157754326479
 30
0.0
  0
VERTEX
  5
EEE5
  8
0
 10
175.48280409184619
 20
146.09945317888869
 30
0.0
  0
VERTEX
  5
EEE6
  8
0
 10
174.0394291898362
 20
146.42815975630899
 30
0.0
  0
SEQEND
  5
EEE7
  8
0
  0
LINE
  5
C4EF
  8
0
 10
174.0394291898362
 20
146.42815975630899
 30
0.0
 11
174.0394291898362
 21
148.7349954822125
 31
0.0
  0
POLYLINE
  5
C4F0
  8
0
 66
     1
 10
0.0
 20
0.0
 30
0.0
 70
   128
  0
VERTEX
  5
EEE8
  8
0
 10
174.0394291898362
 20
148.7349954822125
 30
0.0
  0
VERTEX
  5
EEE9
  8
0
 10
175.45373192635699
 20
149.0590044685664
 30
0.0
  0
VERTEX
  5
EEEA
  8
0
 10
176.92618271914651
 20
149.18157769525669
 30
0.0
  0
SEQEND
  5
EEEB
  8
0
  0
LINE
  5
C4F1
  8
0
 10
179.81293252316641
 20
148.7349954822125
 30
0.0
 11
179.81293252316641
 21
146.42815975630899
 31
0.0
  0
POLYLINE
  5
C4F2
  8
0
 66
     1
 10
0.0
 20
0.0
 30
0.0
 70
   128
  0
VERTEX
  5
EEEC
  8
0
 10
179.81293252316641
 20
146.42815975630899
 30
0.0
  0
VERTEX
  5
EEED
  8
0
 10
178.39862978664561
 20
146.10415263260029
 30
0.0
  0
VERTEX
  5
EEEE
  8
0
 10
176.92618271914651
 20
145.98157754326479
 30
0.0
  0
SEQEND
  5
EEEF
  8
0
  0
POLYLINE
  5
C4F3
  8
0
 66
     1
 10
0.0
 20
0.0
 30
0.0
 70
   128
  0
VERTEX
  5
EEF0
  8
0
 10
182.69968232718631
 20
146.42815975630899
 30
0.0
  0
VERTEX
  5
EEF1
  8
0
 10
181.9925328215711
 20
146.10415263260029
 30
0.0
  0
VERTEX
  5
EEF2
  8
0
 10
181.25630742517629
 20
145.98157754326479
 30
0.0
  0
SEQEND
  5
EEF3
  8
0
  0
POLYLINE
  5
C4F4
  8
0
 66
     1
 10
0.0
 20
0.0
 30
0.0
 70
   128
  0
VERTEX
  5
EEF4
  8
0
 10
181.25630742517629
 20
145.98157754326479
 30
0.0
  0
VERTEX
  5
EEF5
  8
0
 10
180.53462183681651
 20
146.09945317888869
 30
0.0
  0
VERTEX
  5
EEF6
  8
0
 10
179.81293252316641
 20
146.42815975630899
 30
0.0
  0
SEQEND
  5
EEF7
  8
0
  0
POLYLINE
  5
C4F5
  8
0
 66
     1
 10
0.0
 20
0.0
 30
0.0
 70
   128
  0
VERTEX
  5
EEF8
  8
0
 10
181.25630742517629
 20
149.18157769525669
 30
0.0
  0
VERTEX
  5
EEF9
  8
0
 10
181.9779967388265
 20
149.06370392227791
 30
0.0
  0
VERTEX
  5
EEFA
  8
0
 10
182.69968232718631
 20
148.7349954822125
 30
0.0
  0
SEQEND
  5
EEFB
  8
0
  0
LINE
  5
C4F6
  8
0
 10
182.69968232718631
 20
146.42815975630899
 30
0.0
 11
182.69968232718631
 21
148.7349954822125
 31
0.0
  0
POLYLINE
  5
C4F8
  8
0
 66
     1
 10
0.0
 20
0.0
 30
0.0
 70
   128
  0
VERTEX
  5
EEFC
  8
0
 10
172.59605428782629
 20
149.18157769525669
 30
0.0
  0
VERTEX
  5
EEFD
  8
0
 10
173.31774360147639
 20
149.06370392227791
 30
0.0
  0
VERTEX
  5
EEFE
  8
0
 10
174.0394291898362
 20
148.7349954822125
 30
0.0
  0
SEQEND
  5
EEFF
  8
0
  0
POLYLINE
  5
C4F9
  8
0
 66
     1
 10
0.0
 20
0.0
 30
0.0
 70
   128
  0
VERTEX
  5
EF00
  8
0
 10
174.0394291898362
 20
146.42815975630899
 30
0.0
  0
VERTEX
  5
EF01
  8
0
 10
173.33227968422099
 20
146.10415263260029
 30
0.0
  0
VERTEX
  5
EF02
  8
0
 10
172.59605428782629
 20
145.98157754326479
 30
0.0
  0
SEQEND
  5
EF03
  8
0
  0
POLYLINE
  5
C4FB
  8
0
 66
     1
 10
0.0
 20
0.0
 30
0.0
 70
   128
  0
VERTEX
  5
EF04
  8
0
 10
172.59605428782629
 20
145.98157754326479
 30
0.0
  0
VERTEX
  5
EF05
  8
0
 10
171.8743649741761
 20
146.09945317888869
 30
0.0
  0
VERTEX
  5
EF06
  8
0
 10
171.1526793858163
 20
146.42815975630899
 30
0.0
  0
SEQEND
  5
EF07
  8
0
  0
LINE
  5
C4FC
  8
0
 10
171.1526793858163
 20
146.42815975630899
 30
0.0
 11
171.1526793858163
 21
148.7349954822125
 31
0.0
  0
POLYLINE
  5
C4FD
  8
0
 66
     1
 10
0.0
 20
0.0
 30
0.0
 70
   128
  0
VERTEX
  5
EF08
  8
0
 10
171.1526793858163
 20
148.7349954822125
 30
0.0
  0
VERTEX
  5
EF09
  8
0
 10
171.8598288914315
 20
149.0590044685664
 30
0.0
  0
VERTEX
  5
EF0A
  8
0
 10
172.59605428782629
 20
149.18157769525669
 30
0.0
  0
SEQEND
  5
EF0B
  8
0
  0
LINE
  5
C4FF
  8
0
 10
171.92618003693741
 20
145.98157754326479
 30
0.0
 11
181.9261816760652
 21
145.98157754326471
 31
0.0
  0
ARC
  5
C500
  8
0
 10
212.42618110981991
 20
189.68157833600651
 30
0.0
 40
22.000000000001201
 50
10.273059200487641
 51
19.79520893038698
  0
ARC
  5
C501
  8
0
 10
226.69373165299979
 20
192.26750205836399
 30
0.0
 40
7.4999999999998304
 50
348.1183971492049
 51
10.273059200487641
  0
LINE
  5
C502
  8
0
 10
233.91153863278581
 20
190.13410186553619
 30
0.0
 11
234.03304549512811
 21
190.72332358146329
 31
0.0
  0
LINE
  5
C504
  8
0
 10
213.31121786144919
 20
187.1815783360066
 30
0.0
 11
213.9283624908085
 21
183.68157869363449
 31
0.0
  0
ARC
  5
C505
  8
0
 10
230.02618110982121
 20
190.28157833600659
 30
0.0
 40
17.000000000000011
 50
125.61620672850241
 51
190.5068420687019
  0
LINE
  5
C508
  8
0
 10
219.92618091983149
 20
170.68157842541359
 30
0.0
 11
219.92618091983149
 21
163.18157812739031
 31
0.0
  0
LINE
  5
C509
  8
0
 10
218.42618113962359
 20
172.1815777399602
 30
0.0
 11
213.9261813333392
 21
172.1815777399602
 31
0.0
  0
LINE
  5
C50B
  8
0
 10
213.9261813333392
 20
183.68157869363449
 30
0.0
 11
218.42618113962359
 21
183.68157869363449
 31
0.0
  0
ARC
  5
C50C
  8
0
 10
226.9261811098213
 20
189.6815783360066
 30
0.0
 40
7.0000000000000009
 50
0.0
 51
27.660449899299788
  0
POLYLINE
  5
C50D
  8
0
 66
     1
 10
0.0
 20
0.0
 30
0.0
 70
   128
  0
VERTEX
  5
EF0C
  8
0
 10
220.12618104574631
 20
191.34290641332291
 30
0.0
  0
VERTEX
  5
EF0D
  8
0
 10
219.99137955365131
 20
190.63474362874649
 30
0.0
  0
VERTEX
  5
EF0E
  8
0
 10
219.92618091983149
 20
189.6815759518208
 30
0.0
  0
SEQEND
  5
EF0F
  8
0
  0
LINE
  5
C50E
  8
0
 10
233.92618088630391
 20
163.17980936932349
 30
0.0
 11
233.92618088630391
 21
163.9563796270572
 31
0.0
  0
LINE
  5
C510
  8
0
 10
233.92618088630391
 20
163.9563789048257
 30
0.0
 11
233.92618088630391
 21
163.18157812739031
 31
0.0
  0
POLYLINE
  5
C511
  8
0
 66
     1
 10
0.0
 20
0.0
 30
0.0
 70
   128
  0
VERTEX
  5
EF10
  8
0
 10
219.92618091983149
 20
163.18157812739031
 30
0.0
  0
VERTEX
  5
EF11
  8
0
 10
219.99137955365131
 20
162.22841045046471
 30
0.0
  0
VERTEX
  5
EF12
  8
0
 10
220.12618104574631
 20
161.52025511646889
 30
0.0
  0
SEQEND
  5
EF13
  8
0
  0
ARC
  5
C512
  8
0
 10
226.9261811098213
 20
163.1815783360066
 30
0.0
 40
7.0
 50
332.33955010070019
 51
0.0
  0
ARC
  5
C513
  8
0
 10
218.4261811098213
 20
170.6815783360066
 30
0.0
 40
1.5
 50
0.0
 51
90.0
  0
LINE
  5
C514
  8
0
 10
219.92618091983149
 20
189.6815759518208
 30
0.0
 11
219.92618091983149
 21
185.18157800818111
 31
0.0
  0
ARC
  5
C515
  8
0
 10
218.4261811098213
 20
185.1815783360066
 30
0.0
 40
1.5
 50
270.0
 51
0.0
  0
LINE
  5
C516
  8
0
 10
213.92618133333869
 20
183.68157869363449
 30
0.0
 11
213.92618133333869
 21
172.1815777399602
 31
0.0
  0
LINE
  5
C51A
  8
0
 10
170.92618173566979
 20
149.18157769525669
 30
0.0
 11
201.92618122903039
 21
149.18157769525669
 31
0.0
  0
LINE
  5
C51B
  8
0
 10
170.92618173566979
 20
155.68157782936709
 30
0.0
 11
170.92618173566979
 21
149.18157769525669
 31
0.0
  0
ARC
  5
C51C
  8
0
 10
173.92618110982099
 20
155.6815783360066
 30
0.0
 40
3.0000000000000142
 50
111.86999999999691
 51
180.0
  0
LINE
  5
C51D
  8
0
 10
200.90243233946489
 20
169.74220549846311
 30
0.0
 11
172.80867523161101
 21
158.4656735339226
 31
0.0
  0
ARC
  5
C51E
  8
0
 10
208.35246992640759
 20
151.1815783360066
 30
0.0
 40
20.00000000000005
 50
105.7424987132964
 51
111.86999999999691
  0
ARC
  5
C520
  8
0
 10
204.9261811098211
 20
150.1815783360066
 30
0.0
 40
3.000000000000056
 50
131.81031489576989
 51
180.0
  0
LINE
  5
C521
  8
0
 10
201.92618122903039
 20
150.18157785916941
 30
0.0
 11
201.92618122903039
 21
149.18157769525669
 31
0.0
  0
POLYLINE
  5
C523
  8
0
 66
     1
 10
0.0
 20
0.0
 30
0.0
 70
   128
  0
VERTEX
  5
EF14
  8
0
 10
202.92618139294311
 20
152.41764610791819
 30
0.0
  0
VERTEX
  5
EF15
  8
0
 10
203.64567837325259
 20
152.89456708515311
 30
0.0
  0
VERTEX
  5
EF16
  8
0
 10
204.46268855241459
 20
153.1455585190119
 30
0.0
  0
SEQEND
  5
EF17
  8
0
  0
POLYLINE
  5
C524
  8
0
 66
     1
 10
0.0
 20
0.0
 30
0.0
 70
   128
  0
VERTEX
  5
EF18
  8
0
 10
202.92618139294311
 20
170.43139537954951
 30
0.0
  0
VERTEX
  5
EF19
  8
0
 10
203.69019745496439
 20
170.63056802535669
 30
0.0
  0
VERTEX
  5
EF1A
  8
0
 10
204.46268855241459
 20
170.7996738531651
 30
0.0
  0
SEQEND
  5
EF1B
  8
0
  0
LINE
  5
C525
  8
0
 10
208.35246997532789
 20
171.18157943869249
 30
0.0
 11
219.84039428233569
 21
171.18157943869249
 31
0.0
  0
LINE
  5
C527
  8
0
 10
220.12618104574631
 20
153.18157835090781
 30
0.0
 11
204.92618172076871
 21
153.18157835090781
 31
0.0
  0
ARC
  5
C528
  8
0
 10
208.35246992640759
 20
151.1815783360066
 30
0.0
 40
20.000000000000028
 50
90.0
 51
101.2148763154555
  0
ARC
  5
C529
  8
0
 10
204.9261811098211
 20
150.1815783360066
 30
0.0
 40
3.0
 50
90.0
 51
98.887644294972986
  0
ARC
  5
C52D
  8
0
 10
244.9261811098213
 20
163.1815783360066
 30
0.0
 40
8.0000000000000284
 50
16.924242520648711
 51
90.0
  0
LINE
  5
C52F
  8
0
 10
233.2175030803437
 20
171.18157943869249
 30
0.0
 11
244.92618082669921
 21
171.18157943869249
 31
0.0
  0
CIRCLE
  5
C531
  8
0
 10
226.62618110982109
 20
139.6815783360066
 30
0.0
 40
4.0000000000016476
  0
LINE
  5
C56D
  8
0
 10
219.92618091983149
 20
213.169590888268
 30
0.0
 11
227.43702390809901
 21
213.169590888268
 31
0.0
  0
LINE
  5
C56E
  8
0
 10
219.92618091983149
 20
211.87716102386139
 30
0.0
 11
219.92618091983149
 21
213.169590888268
 31
0.0
  0
LINE
  5
C56F
  8
0
 10
220.12618104574631
 20
211.87716102386139
 30
0.0
 11
219.92618091983149
 21
211.87716102386139
 31
0.0
  0
CIRCLE
  5
C573
  8
0
 10
226.62618110982109
 20
189.6815783360066
 30
0.0
 40
4.000000000001676
  0
ARC
  5
C578
  8
0
 10
226.62618110982109
 20
139.6815783360066
 30
0.0
 40
6.5
 50
180.0
 51
0.0
  0
LINE
  5
C579
  8
0
 10
220.12618104574631
 20
139.6815780007305
 30
0.0
 11
220.12618104574631
 21
213.169590888268
 31
0.0
  0
LINE
  5
C57A
  8
0
 10
233.12618131396721
 20
221.04318699875361
 30
0.0
 11
233.12618131396721
 21
139.6815780007305
 31
0.0
  0
LINE
  5
C583
  8
0
 10
220.12618104574631
 20
211.0615757682385
 30
0.0
 11
218.12618118358199
 21
211.0615757682385
 31
0.0
  0
LINE
  5
C584
  8
0
 10
218.12618118358199
 20
206.06158053661011
 30
0.0
 11
220.12618104574631
 21
206.06158053661011
 31
0.0
  0
LINE
  5
C585
  8
0
 10
218.12618118358199
 20
211.0615757682385
 30
0.0
 11
218.12618118358199
 21
206.06158053661011
 31
0.0
  0
LINE
  5
C58E
  8
0
 10
252.9261802753563
 20
124.6815783360066
 30
0.0
 11
223.9261811098213
 21
124.6815783360066
 31
0.0
  0
LINE
  5
C58F
  8
0
 10
223.9261811098213
 20
127.1815782801272
 30
0.0
 11
252.9261802753563
 21
127.1815782801272
 31
0.0
  0
CIRCLE
  5
C590
  8
0
 10
247.12618110982109
 20
146.88157833600661
 30
0.0
 40
2.5
  0
CIRCLE
  5
C591
  8
0
 10
240.12618110982109
 20
137.88157833600661
 30
0.0
 40
2.5
  0
ARC
  5
C592
  8
0
 10
254.9261811098213
 20
128.6815783360066
 30
0.0
 40
2.0
 50
120.0000000000008
 51
180.0
  0
ARC
  5
C593
  8
0
 10
219.9261811098213
 20
129.23388902552699
 30
0.0
 40
4.0
 50
0.0
 51
49.999999999997272
  0
LINE
  5
C594
  8
0
 10
222.4973315803463
 20
132.2980665990176
 30
0.0
 11
220.05503056218279
 21
134.34740094626559
 31
0.0
  0
ARC
  5
C595
  8
0
 10
222.62618110982109
 20
137.41157833600661
 30
0.0
 40
4.000000000000056
 50
180.0
 51
229.99999999999719
  0
LINE
  5
C596
  8
0
 10
218.62618126553841
 20
137.41157794529809
 30
0.0
 11
218.62618126553841
 21
139.6815780007305
 31
0.0
  0
ARC
  5
C597
  8
0
 10
226.62618110982109
 20
139.6815783360066
 30
0.0
 40
7.9999999999999973
 50
144.34091230385999
 51
180.0
  0
LINE
  5
C598
  8
0
 10
233.12618131396721
 20
157.7553463556828
 30
0.0
 11
242.3535214236135
 21
167.17959320331241
 31
0.0
  0
ARC
  5
C599
  8
0
 10
245.9261811098213
 20
163.6815783360066
 30
0.0
 40
5.0000000000000284
 50
90.0
 51
135.60485541610001
  0
LINE
  5
C59A
  8
0
 10
245.92618099061201
 20
168.68157809758799
 30
0.0
 11
247.9261813184375
 21
168.68157809758799
 31
0.0
  0
ARC
  5
C59B
  8
0
 10
247.9261811098213
 20
163.6815783360066
 30
0.0
 40
5.0000000000000284
 50
0.0
 51
90.0
  0
LINE
  5
C59C
  8
0
 10
252.9261802753563
 20
163.6815791406693
 30
0.0
 11
252.9261802753563
 21
157.68157815719269
 31
0.0
  0
ARC
  5
C59D
  8
0
 10
254.9261811098213
 20
157.6815783360066
 30
0.0
 40
2.0
 50
180.0
 51
239.99999999999909
  0
LINE
  5
C59F
  8
0
 10
252.9261802753563
 20
128.6815785259964
 30
0.0
 11
252.9261802753563
 21
124.6815783360066
 31
0.0
  0
LINE
  5
C5A0
  8
0
 10
223.9261811098213
 20
124.6815783360066
 30
0.0
 11
223.9261811098213
 21
129.23388913432379
 31
0.0
  0
LINE
  5
C5A1
  8
0
 10
257.42618194428633
 20
130.68157838816069
 30
0.0
 11
254.92618060318179
 21
130.68157838816069
 31
0.0
  0
LINE
  5
C5A2
  8
0
 10
254.92618060318179
 20
155.68157782936709
 30
0.0
 11
257.42618194428633
 21
155.68157782936709
 31
0.0
  0
LINE
  5
C5A3
  8
0
 10
257.42618194428633
 20
155.68157782936709
 30
0.0
 11
257.42618194428633
 21
130.68157838816069
 31
0.0
  0
POLYLINE
  5
C5A4
  8
0
 66
     1
 10
0.0
 20
0.0
 30
0.0
 70
   128
  0
VERTEX
  5
EF1C
  8
0
 10
254.92618060318179
 20
155.68157782936709
 30
0.0
  0
VERTEX
  5
EF1D
  8
0
 10
254.3434855958576
 20
155.76834356570859
 30
0.0
  0
VERTEX
  5
EF1E
  8
0
 10
253.92618043926899
 20
155.94952678466461
 30
0.0
  0
SEQEND
  5
EF1F
  8
0
  0
POLYLINE
  5
C5A5
  8
0
 66
     1
 10
0.0
 20
0.0
 30
0.0
 70
   128
  0
VERTEX
  5
EF20
  8
0
 10
253.92618043926899
 20
130.4136289672019
 30
0.0
  0
VERTEX
  5
EF21
  8
0
 10
254.48465733436299
 20
130.63223365852849
 30
0.0
  0
VERTEX
  5
EF22
  8
0
 10
254.92618060318179
 20
130.68157838816069
 30
0.0
  0
SEQEND
  5
EF23
  8
0
  0
LINE
  5
C5A6
  8
0
 10
241.9261811098213
 20
354.96157606626201
 30
0.0
 11
241.9261811098213
 21
353.5950578778789
 31
0.0
  0
LINE
  5
C5A7
  8
0
 10
249.9261811098213
 20
353.5950578778789
 30
0.0
 11
249.9261811098213
 21
354.96157606626201
 31
0.0
  0
ARC
  5
C5A8
  8
0
 10
245.9261811098213
 20
306.66157606624222
 30
0.0
 40
60.000000000021849
 50
91.910213171708165
 51
93.822553729283911
  0
ARC
  5
C5A9
  8
0
 10
245.9261811098213
 20
306.66157606624222
 30
0.0
 40
60.000000000021849
 50
86.177446270716075
 51
88.089786828291835
  0
LINE
  5
C5AA
  8
0
 10
241.9261811098213
 20
366.52809425464511
 30
0.0
 11
241.9261811098213
 21
365.16157606626189
 31
0.0
  0
LINE
  5
C5AB
  8
0
 10
249.9261811098213
 20
365.16157606626189
 30
0.0
 11
249.9261811098213
 21
366.52809425464511
 31
0.0
  0
ARC
  5
C5AC
  8
0
 10
245.9261811098213
 20
413.4615760662486
 30
0.0
 40
59.999999999986642
 50
266.17744627072909
 51
270.0
  0
ARC
  5
C5AD
  8
0
 10
245.9261811098213
 20
413.4615760662486
 30
0.0
 40
59.999999999986642
 50
270.0
 51
273.82255372927079
  0
LINE
  5
C5AE
  8
0
 10
242.9261811098213
 20
362.66157606626189
 30
0.0
 11
242.9261811098213
 21
362.61157606626188
 31
0.0
  0
LINE
  5
C5AF
  8
0
 10
242.9261811098213
 20
357.51157606626202
 30
0.0
 11
242.9261811098213
 21
357.46157606626201
 31
0.0
  0
LINE
  5
C5B0
  8
0
 10
248.9261811098213
 20
357.46157606626201
 30
0.0
 11
248.9261811098213
 21
357.51157606626202
 31
0.0
  0
LINE
  5
C5B1
  8
0
 10
248.9261811098213
 20
362.61157606626188
 30
0.0
 11
248.9261811098213
 21
362.66157606626189
 31
0.0
  0
LINE
  5
C5B2
  8
0
 10
241.4261811098213
 20
360.11157606626188
 30
0.0
 11
241.4261811098213
 21
360.01157606626202
 31
0.0
  0
LINE
  5
C5B3
  8
0
 10
250.4261811098213
 20
360.01157606626202
 30
0.0
 11
250.4261811098213
 21
360.11157606626188
 31
0.0
  0
LINE
  5
C5C0
  8
0
 10
241.9261811098213
 20
353.5950578778789
 30
0.0
 11
249.9261811098213
 21
353.5950578778789
 31
0.0
  0
LINE
  5
C5C1
  8
0
 10
247.9261811098213
 20
366.62823346852377
 30
0.0
 11
243.9261811098213
 21
366.62823346852377
 31
0.0
  0
LINE
  5
C5C2
  8
0
 10
249.92618110983719
 20
366.52809425464511
 30
0.0
 11
241.9261811098213
 21
366.52809425464511
 31
0.0
  0
ARC
  5
C5C4
  8
0
 10
176.9261811098211
 20
360.06157606626198
 30
0.0
 40
6.7500000000000098
 50
295.3507442673407
 51
64.649255732659213
  0
LINE
  5
C5C5
  8
0
 10
174.0361119064973
 20
353.96157606626213
 30
0.0
 11
179.81625031314479
 21
353.96157606626213
 31
0.0
  0
ARC
  5
C5C6
  8
0
 10
176.9261811098211
 20
360.06157606626198
 30
0.0
 40
6.7500000000000231
 50
115.3507442673407
 51
244.64925573265921
  0
LINE
  5
C5C7
  8
0
 10
179.81625031314479
 20
366.16157606626189
 30
0.0
 11
174.0361119064973
 21
366.16157606626189
 31
0.0
  0
LINE
  5
C5CE
  8
0
 10
208.35246992640759
 20
364.17863277199058
 30
0.0
 11
209.585299605382
 21
363.66571899476543
 31
0.0
  0
LINE
  5
C5CF
  8
0
 10
209.585299605382
 20
366.37345585020591
 30
0.0
 11
208.35246992640759
 21
366.88636962743112
 31
0.0
  0
ARC
  5
C5D2
  8
0
 10
202.9261811098213
 20
364.81157606626238
 30
0.0
 40
3.9999999999995581
 50
67.410445864602039
 51
90.0
  0
ARC
  5
C5D3
  8
0
 10
202.9261811098217
 20
364.81157606626471
 30
0.0
 40
1.4999999999973279
 50
67.410445864587729
 51
90.000000000026048
  0
LINE
  5
C5D5
  8
0
 10
203.502371611999
 20
366.19649646296352
 30
0.0
 11
208.35246992640759
 21
364.17863277199058
 31
0.0
  0
LINE
  5
C5D6
  8
0
 10
208.35246992640759
 20
366.88636962743112
 30
0.0
 11
204.46268911562919
 21
368.50469712413269
 31
0.0
  0
LINE
  5
C5D7
  8
0
 10
252.9261811098213
 20
360.11157606626188
 30
0.0
 11
252.9261811098213
 21
362.61157606626188
 31
0.0
  0
LINE
  5
C5D8
  8
0
 10
237.52710443906591
 20
360.11157606626188
 30
0.0
 11
252.9261811098213
 21
360.11157606626188
 31
0.0
  0
LINE
  5
C5D9
  8
0
 10
252.9261811098213
 20
362.61157606626188
 30
0.0
 11
237.52710443906591
 21
362.61157606626199
 31
0.0
  0
LINE
  5
C5DA
  8
0
 10
208.35246992640759
 20
353.23678250509278
 30
0.0
 11
209.585299605382
 21
353.74969628231793
 31
0.0
  0
LINE
  5
C5DC
  8
0
 10
209.585299605382
 20
356.45743313775853
 30
0.0
 11
208.35246992640759
 21
355.94451936053338
 31
0.0
  0
LINE
  5
C5E0
  8
0
 10
252.9261811098213
 20
357.51157606626202
 30
0.0
 11
252.9261811098213
 21
360.01157606626202
 31
0.0
  0
LINE
  5
C5E1
  8
0
 10
237.52710443906591
 20
357.51157606626202
 30
0.0
 11
252.9261811098213
 21
357.51157606626202
 31
0.0
  0
LINE
  5
C5E2
  8
0
 10
252.9261811098213
 20
360.01157606626202
 30
0.0
 11
237.52710443906591
 21
360.01157606626202
 31
0.0
  0
POLYLINE
  5
C5E3
  8
0
 66
     1
 10
0.0
 20
0.0
 30
0.0
 70
   128
  0
VERTEX
  5
EF24
  8
0
 10
202.9261811098211
 20
351.31157606626198
 30
0.0
  0
VERTEX
  5
EF25
  8
0
 10
203.69019682565661
 20
351.38521897782022
 30
0.0
  0
VERTEX
  5
EF26
  8
0
 10
204.46268911562919
 20
351.61845500839132
 30
0.0
  0
SEQEND
  5
EF27
  8
0
  0
LINE
  5
C5E7
  8
0
 10
203.502371611999
 20
353.92665566956038
 30
0.0
 11
202.9261811098211
 21
353.81157606626198
 31
0.0
  0
LINE
  5
C5E8
  8
0
 10
204.46268911562919
 20
351.61845500839132
 30
0.0
 11
208.35246992640759
 21
353.23678250509278
 31
0.0
  0
LINE
  5
C5E9
  8
0
 10
208.35246992640759
 20
355.94451936053338
 30
0.0
 11
203.502371611999
 21
353.92665566956038
 31
0.0
  0
LINE
  5
C5EA
  8
0
 10
170.92618110982099
 20
366.31157606626198
 30
0.0
 11
202.9261811098217
 21
366.31157606626198
 31
0.0
  0
LINE
  5
C5EB
  8
0
 10
202.9261811098213
 20
368.81157606626198
 30
0.0
 11
170.92618110982099
 21
368.81157606626198
 31
0.0
  0
LINE
  5
C5EC
  8
0
 10
202.9261811098211
 20
351.31157606626198
 30
0.0
 11
170.92618110982099
 21
351.31157606626198
 31
0.0
  0
LINE
  5
C5ED
  8
0
 10
202.9261811098217
 20
353.81157606626192
 30
0.0
 11
170.92618110982099
 21
353.81157606626198
 31
0.0
  0
LINE
  5
C5EE
  8
0
 10
170.92618110982099
 20
363.15390528547528
 30
0.0
 11
170.92618110982099
 21
368.81157606626198
 31
0.0
  0
LINE
  5
C5EF
  8
0
 10
170.92618110982099
 20
351.31157606626198
 30
0.0
 11
170.92618110982099
 21
356.96924684704868
 31
0.0
  0
LINE
  5
C5F0
  8
0
 10
195.92618110982099
 20
357.01157606626202
 30
0.0
 11
182.94780879675091
 21
357.01157606626202
 31
0.0
  0
ARC
  5
C5F1
  8
0
 10
195.92618110982099
 20
360.06157606626198
 30
0.0
 40
3.0500000000000109
 50
270.0
 51
90.0
  0
LINE
  5
C5F2
  8
0
 10
182.94780879675091
 20
363.11157606626188
 30
0.0
 11
195.92618110982099
 21
363.11157606626188
 31
0.0
  0
LINE
  5
C5F3
  8
0
 10
201.9261811098211
 20
366.31157606626198
 30
0.0
 11
201.9261811098211
 21
353.81157606626198
 31
0.0
  0
LINE
  5
C610
  8
0
 10
252.9261811098213
 20
365.16157606626189
 30
0.0
 11
252.9261811098213
 21
362.661576066262
 31
0.0
  0
LINE
  5
C61B
  8
0
 10
252.9261811098213
 20
354.96157606626201
 30
0.0
 11
252.9261811098213
 21
357.46157606626201
 31
0.0
  0
ARC
  5
C624
  8
0
 10
253.9261811098213
 20
361.66157606626263
 30
0.0
 40
3.4999999999994951
 50
73.398450400970063
 51
90.0
  0
ARC
  5
C626
  8
0
 10
253.9261811098213
 20
361.661576066262
 30
0.0
 40
1.000000000000056
 50
0.0
 51
89.999999999986969
  0
LINE
  5
C627
  8
0
 10
253.9261811098213
 20
362.661576066262
 30
0.0
 11
237.52710443906579
 21
362.66157606626177
 31
0.0
  0
LINE
  5
C628
  8
0
 10
237.52710443906579
 20
365.161576066262
 30
0.0
 11
253.9261811098213
 21
365.16157606626189
 31
0.0
  0
POLYLINE
  5
C629
  8
0
 66
     1
 10
0.0
 20
0.0
 30
0.0
 70
   128
  0
VERTEX
  5
EF28
  8
0
 10
254.9261811098213
 20
355.10747410001233
 30
0.0
  0
VERTEX
  5
EF29
  8
0
 10
254.34348608981691
 20
354.98654274934682
 30
0.0
  0
VERTEX
  5
EF2A
  8
0
 10
253.9261811098213
 20
354.96157606626213
 30
0.0
  0
SEQEND
  5
EF2B
  8
0
  0
ARC
  5
C62A
  8
0
 10
253.9261811098213
 20
358.46157606626213
 30
0.0
 40
1.000000000000056
 50
270.0
 51
0.0
  0
LINE
  5
C62C
  8
0
 10
253.9261811098213
 20
354.96157606626213
 30
0.0
 11
237.52710443906579
 21
354.96157606626213
 31
0.0
  0
LINE
  5
C62D
  8
0
 10
253.9261811098213
 20
357.46157606626201
 30
0.0
 11
237.52710443906579
 21
357.46157606626201
 31
0.0
  0
LINE
  5
C62E
  8
0
 10
257.4261811098213
 20
358.46157606626213
 30
0.0
 11
257.4261811098213
 21
361.661576066262
 31
0.0
  0
LINE
  5
C62F
  8
0
 10
254.9261811098213
 20
361.661576066262
 30
0.0
 11
254.9261811098213
 21
358.46157606626213
 31
0.0
  0
ARC
  5
C630
  8
0
 10
253.9261811098213
 20
361.661576066262
 30
0.0
 40
3.5000000000000009
 50
0.0
 51
73.398450400970063
  0
ARC
  5
C631
  8
0
 10
253.9261811098213
 20
358.46157606626213
 30
0.0
 40
3.5000000000000009
 50
286.60154959902979
 51
0.0
  0
ARC
  5
C632
  8
0
 10
244.9261811098213
 20
373.56157606626221
 30
0.0
 40
2.750000000000056
 50
270.0
 51
90.0
  0
LINE
  5
C633
  8
0
 10
243.9261811098213
 20
376.31157606626198
 30
0.0
 11
244.9261811098213
 21
376.31157606626198
 31
0.0
  0
ARC
  5
C634
  8
0
 10
243.9261811098213
 20
373.56157606626221
 30
0.0
 40
2.750000000000056
 50
90.0
 51
270.0
  0
LINE
  5
C635
  8
0
 10
244.9261811098213
 20
370.81157606626198
 30
0.0
 11
243.9261811098213
 21
370.81157606626198
 31
0.0
  0
LINE
  5
C636
  8
0
 10
248.9261811098213
 20
379.06157606626198
 30
0.0
 11
237.52710443906579
 21
379.06157606626221
 31
0.0
  0
ARC
  5
C637
  8
0
 10
248.9261811098213
 20
375.06157606626221
 30
0.0
 40
4.0
 50
0.0
 51
90.0
  0
LINE
  5
C638
  8
0
 10
252.9261811098213
 20
375.06157606626221
 30
0.0
 11
252.9261811098213
 21
365.16157606626211
 31
0.0
  0
ARC
  5
C639
  8
0
 10
244.9261811098213
 20
346.56157606626209
 30
0.0
 40
2.75
 50
270.0
 51
90.0
  0
LINE
  5
C63A
  8
0
 10
243.9261811098213
 20
349.31157606626209
 30
0.0
 11
244.9261811098213
 21
349.31157606626209
 31
0.0
  0
ARC
  5
C63B
  8
0
 10
243.9261811098213
 20
346.56157606626209
 30
0.0
 40
2.75
 50
90.0
 51
270.0
  0
LINE
  5
C63C
  8
0
 10
244.9261811098213
 20
343.81157606626221
 30
0.0
 11
243.9261811098213
 21
343.81157606626221
 31
0.0
  0
LINE
  5
C63D
  8
0
 10
237.52710443906579
 20
341.06157606626209
 30
0.0
 11
248.9261811098213
 21
341.06157606626209
 31
0.0
  0
ARC
  5
C63E
  8
0
 10
248.9261811098213
 20
345.06157606626209
 30
0.0
 40
4.0
 50
270.0
 51
0.0
  0
LINE
  5
C63F
  8
0
 10
252.9261811098213
 20
354.96157606626213
 30
0.0
 11
252.9261811098213
 21
345.06157606626209
 31
0.0
  0
LINE
  5
C640
  8
0
 10
84.62618173563601
 20
145.6815783360066
 30
0.0
 11
82.926181735669829
 21
145.6815783360066
 31
0.0
  0
LINE
  5
C641
  8
0
 10
82.926181735669829
 20
133.6815783360066
 30
0.0
 11
84.62618173563601
 21
133.6815783360066
 31
0.0
  0
LINE
  5
C642
  8
0
 10
84.62618173563601
 20
133.6815783359643
 30
0.0
 11
84.826181735656291
 21
133.8815783360414
 31
0.0
  0
LINE
  5
C643
  8
0
 10
84.826181735656291
 20
145.48157833597179
 30
0.0
 11
84.62618173563601
 21
145.68157833604889
 31
0.0
  0
LINE
  5
C644
  8
0
 10
82.926181735669829
 20
145.6815783359402
 30
0.0
 11
82.826181735669934
 21
145.58157833594021
 31
0.0
  0
LINE
  5
C645
  8
0
 10
82.826181735669934
 20
133.78157833607301
 30
0.0
 11
82.926181735669829
 21
133.68157833607299
 31
0.0
  0
LINE
  5
C646
  8
0
 10
95.276181735669766
 20
133.6815783360066
 30
0.0
 11
96.776181735655655
 21
133.6815783360066
 31
0.0
  0
LINE
  5
C647
  8
0
 10
96.776181735655655
 20
145.6815783360066
 30
0.0
 11
95.276181735669766
 21
145.6815783360066
 31
0.0
  0
LINE
  5
C648
  8
0
 10
96.776181735655655
 20
133.6815783359643
 30
0.0
 11
97.026181735649743
 21
133.93157833595839
 31
0.0
  0
LINE
  5
C649
  8
0
 10
97.026181735649743
 20
145.4315783360548
 30
0.0
 11
96.776181735655655
 21
145.68157833604889
 31
0.0
  0
LINE
  5
C64A
  8
0
 10
95.276181735669766
 20
145.6815783360276
 30
0.0
 11
95.02618173558335
 21
145.4315783359979
 31
0.0
  0
LINE
  5
C64B
  8
0
 10
95.02618173558335
 20
133.93157833601521
 30
0.0
 11
95.276181735669766
 21
133.68157833598559
 31
0.0
  0
ARC
  5
C64C
  8
0
 10
89.926181735670085
 20
153.1815783360066
 30
0.0
 40
10.000000000000011
 50
109.9464008146936
 51
127.5895029648518
  0
ARC
  5
C64D
  8
0
 10
89.926181735670085
 20
153.1815783360066
 30
0.0
 40
10.000000000000041
 50
52.410497035148218
 51
70.053272820686246
  0
LINE
  5
C64E
  8
0
 10
85.476181735670025
 20
128.48157833600649
 30
0.0
 11
85.476181735670025
 21
127.98157833600661
 31
0.0
  0
LINE
  5
C64F
  8
0
 10
94.376181735670116
 20
127.98157833600661
 30
0.0
 11
94.376181735670116
 21
128.48157833600649
 31
0.0
  0
LINE
  5
C650
  8
0
 10
92.926181735738965
 20
162.86807833600659
 30
0.0
 11
92.312681735701517
 21
163.48157833598719
 31
0.0
  0
LINE
  5
C651
  8
0
 10
87.539681735638624
 20
163.48157833598719
 30
0.0
 11
86.926181735601176
 21
162.86807833600659
 31
0.0
  0
LINE
  5
C652
  8
0
 10
86.92618173567007
 20
162.86807833600659
 30
0.0
 11
86.92618173567007
 21
162.5815783360066
 31
0.0
  0
LINE
  5
C653
  8
0
 10
86.92618173567007
 20
145.9815783359879
 30
0.0
 11
86.92618173567007
 21
128.48157833600649
 31
0.0
  0
LINE
  5
C654
  8
0
 10
92.92618173567007
 20
128.48157833600649
 30
0.0
 11
92.92618173567007
 21
145.9815783359879
 31
0.0
  0
LINE
  5
C655
  8
0
 10
92.92618173567007
 20
162.58157833600589
 30
0.0
 11
92.92618173567007
 21
162.86807833600659
 31
0.0
  0
LINE
  5
C656
  8
0
 10
83.026181735582895
 20
195.6815783359807
 30
0.0
 11
82.826181735633099
 21
195.48157833603091
 31
0.0
  0
LINE
  5
C657
  8
0
 10
82.826181735633099
 20
183.88157833598231
 30
0.0
 11
83.026181735582895
 21
183.68157833603249
 31
0.0
  0
LINE
  5
C658
  8
0
 10
84.726181735669797
 20
195.6815783360066
 30
0.0
 11
83.026181735582895
 21
195.6815783360066
 31
0.0
  0
LINE
  5
C659
  8
0
 10
83.026181735582895
 20
183.6815783360066
 30
0.0
 11
84.726181735669797
 21
183.6815783360066
 31
0.0
  0
LINE
  5
C65A
  8
0
 10
84.726181735669797
 20
183.68157833597769
 30
0.0
 11
84.926181735617547
 21
183.8815783359255
 31
0.0
  0
LINE
  5
C65B
  8
0
 10
84.926181735617547
 20
195.48157833608769
 30
0.0
 11
84.726181735669797
 21
195.6815783360355
 31
0.0
  0
LINE
  5
C65C
  8
0
 10
95.176181735669843
 20
183.6815783360066
 30
0.0
 11
96.676181735680757
 21
183.6815783360066
 31
0.0
  0
LINE
  5
C65D
  8
0
 10
96.676181735680757
 20
195.6815783360066
 30
0.0
 11
95.176181735669843
 21
195.6815783360066
 31
0.0
  0
LINE
  5
C65E
  8
0
 10
96.676181735680757
 20
183.6815783359757
 30
0.0
 11
96.926181735674845
 21
183.93157833596979
 31
0.0
  0
LINE
  5
C65F
  8
0
 10
96.926181735674845
 20
195.4315783360434
 30
0.0
 11
96.676181735680757
 21
195.68157833603749
 31
0.0
  0
LINE
  5
C660
  8
0
 10
95.176181735669843
 20
195.68157833599111
 30
0.0
 11
94.926181735665295
 21
195.43157833598659
 31
0.0
  0
LINE
  5
C661
  8
0
 10
94.926181735665295
 20
183.9315783360266
 30
0.0
 11
95.176181735669843
 21
183.681578336022
 31
0.0
  0
LINE
  5
C662
  8
0
 10
92.426181735669843
 20
204.65491612440451
 30
0.0
 11
87.426181735669843
 21
204.65491612440439
 31
0.0
  0
LINE
  5
C664
  8
0
 10
87.426181735669843
 20
196.6815783360066
 30
0.0
 11
84.926181735669843
 21
196.6815783360066
 31
0.0
  0
LINE
  5
C665
  8
0
 10
94.926181735669843
 20
196.6815783360066
 30
0.0
 11
92.426181735669843
 21
196.6815783360066
 31
0.0
  0
LINE
  5
C666
  8
0
 10
89.976181735669797
 20
167.6815783360066
 30
0.0
 11
89.876181735669888
 21
167.6815783360066
 31
0.0
  0
LINE
  5
C667
  8
0
 10
99.526181735669752
 20
135.6815783360066
 30
0.0
 11
100.89269992405271
 21
135.6815783360066
 31
0.0
  0
LINE
  5
C668
  8
0
 10
100.89269992405271
 20
143.6815783360066
 30
0.0
 11
99.526181735669752
 21
143.6815783360066
 31
0.0
  0
ARC
  5
C669
  8
0
 10
41.026181735677021
 20
139.6815783360066
 30
0.0
 40
59.999999999993292
 50
356.17744627072182
 51
0.0
  0
ARC
  5
C66A
  8
0
 10
41.026181735677021
 20
139.6815783360066
 30
0.0
 40
59.999999999993292
 50
0.0
 51
3.8225537292773901
  0
ARC
  5
C66B
  8
0
 10
138.82618173571521
 20
139.6815783360066
 30
0.0
 40
60.000000000046697
 50
181.91021317170819
 51
183.82255372927739
  0
ARC
  5
C66C
  8
0
 10
138.82618173571521
 20
139.6815783360066
 30
0.0
 40
60.000000000046697
 50
176.17744627072261
 51
178.08978682829181
  0
LINE
  5
C66D
  8
0
 10
78.959663547286695
 20
135.6815783360066
 30
0.0
 11
80.326181735669934
 21
135.6815783360066
 31
0.0
  0
LINE
  5
C66E
  8
0
 10
80.326181735669934
 20
143.6815783360066
 30
0.0
 11
78.959663547286695
 21
143.6815783360066
 31
0.0
  0
LINE
  5
C66F
  8
0
 10
99.526181735669752
 20
185.6815783360066
 30
0.0
 11
100.89269992405271
 21
185.6815783360066
 31
0.0
  0
LINE
  5
C670
  8
0
 10
100.89269992405271
 20
193.6815783360066
 30
0.0
 11
99.526181735669752
 21
193.6815783360066
 31
0.0
  0
ARC
  5
C671
  8
0
 10
41.026181735677021
 20
189.6815783360066
 30
0.0
 40
59.999999999993292
 50
356.17744627072182
 51
0.0
  0
ARC
  5
C672
  8
0
 10
41.026181735677021
 20
189.6815783360066
 30
0.0
 40
59.999999999993292
 50
0.0
 51
3.8225537292773901
  0
ARC
  5
C673
  8
0
 10
138.82618173571521
 20
189.6815783360066
 30
0.0
 40
60.000000000046697
 50
181.91021317170819
 51
183.82255372927739
  0
ARC
  5
C674
  8
0
 10
138.82618173571521
 20
189.6815783360066
 30
0.0
 40
60.000000000046697
 50
176.17744627072261
 51
178.08978682829181
  0
LINE
  5
C675
  8
0
 10
78.959663547286695
 20
185.6815783360066
 30
0.0
 11
80.326181735669934
 21
185.6815783360066
 31
0.0
  0
LINE
  5
C676
  8
0
 10
80.326181735669934
 20
193.6815783360066
 30
0.0
 11
78.959663547286695
 21
193.6815783360066
 31
0.0
  0
LINE
  5
C677
  8
0
 10
96.926181735674845
 20
186.6815783360066
 30
0.0
 11
97.026181735669752
 21
186.6815783360066
 31
0.0
  0
LINE
  5
C678
  8
0
 10
97.026181735669752
 20
192.6815783360066
 30
0.0
 11
96.926181735674845
 21
192.6815783360066
 31
0.0
  0
LINE
  5
C679
  8
0
 10
80.326181735669934
 20
133.1815783360066
 30
0.0
 11
82.826181735669934
 21
133.1815783360066
 31
0.0
  0
LINE
  5
C67A
  8
0
 10
97.026181735669752
 20
133.1815783360066
 30
0.0
 11
99.526181735669752
 21
133.1815783360066
 31
0.0
  0
LINE
  5
C680
  8
0
 10
93.337926157516449
 20
162.5815783360066
 30
0.0
 11
86.514437313823706
 21
162.5815783360066
 31
0.0
  0
LINE
  5
C681
  8
0
 10
96.026181735669979
 20
153.1815783358507
 30
0.0
 11
96.026181735669979
 21
161.10559247026961
 31
0.0
  0
LINE
  5
C682
  8
0
 10
83.826181735669934
 20
160.55975561769341
 30
0.0
 11
96.026181735669979
 21
160.55975561769341
 31
0.0
  0
LINE
  5
C683
  8
0
 10
83.826181735669934
 20
161.10559247026961
 30
0.0
 11
83.826181735669934
 21
153.1815783360048
 31
0.0
  0
LINE
  5
C684
  8
0
 10
83.826181735669934
 20
153.68157833598099
 30
0.0
 11
96.026181735669979
 21
153.68157833598099
 31
0.0
  0
LINE
  5
C68A
  8
0
 10
84.926181735670085
 20
127.98157833600661
 30
0.0
 11
94.926181735670284
 21
127.98157833600671
 31
0.0
  0
LINE
  5
C68B
  8
0
 10
89.926181735670085
 20
124.68883775767129
 30
0.0
 11
89.926181735670085
 21
127.98157833600661
 31
0.0
  0
ARC
  5
C68C
  8
0
 10
87.340657870760424
 20
140.69453439453429
 30
0.0
 40
16.21318162753094
 50
270.30223427731892
 51
279.1761623635748
  0
ARC
  5
C68D
  8
0
 10
87.511346641974114
 20
140.6902045748686
 30
0.0
 40
16.20884997809765
 50
260.82264952710563
 51
269.69895383373881
  0
LINE
  5
C68E
  8
0
 10
84.926181735670085
 20
127.98157833600661
 30
0.0
 11
84.926181735669843
 21
124.48157833600411
 31
0.0
  0
LINE
  5
C68F
  8
0
 10
94.92618173567098
 20
124.4815783360042
 30
0.0
 11
94.926181735670085
 21
127.98157833600661
 31
0.0
  0
ARC
  5
C690
  8
0
 10
92.340657870362747
 20
140.69453440218919
 30
0.0
 40
16.213181635187642
 50
270.30223427853042
 51
279.17616236063208
  0
ARC
  5
C691
  8
0
 10
92.511346641578484
 20
140.69020456723121
 30
0.0
 40
16.208849970458399
 50
260.82264952416278
 51
269.69895383495037
  0
LINE
  5
C695
  8
0
 10
85.476181735670025
 20
128.48157833600649
 30
0.0
 11
94.376181735670116
 21
128.48157833600649
 31
0.0
  0
LINE
  5
C697
  8
0
 10
84.926181735669616
 20
124.48157833600359
 30
0.0
 11
94.926181735655064
 21
124.48157833600411
 31
0.0
  0
LINE
  5
C69B
  8
0
 10
92.926181735738965
 20
162.86807833600659
 30
0.0
 11
86.926181735601176
 21
162.86807833600659
 31
0.0
  0
LINE
  5
C69C
  8
0
 10
92.312681735701517
 20
163.48157833598719
 30
0.0
 11
87.539681735638624
 21
163.48157833598719
 31
0.0
  0
ARC
  5
C69D
  8
0
 10
87.538562168318776
 20
153.83157882012631
 30
0.0
 40
7.8508048607982612
 50
250.56403107723
 51
269.17981092142747
  0
POLYLINE
  5
C69F
  8
0
 66
     1
 10
0.0
 20
0.0
 30
0.0
 70
   128
  0
VERTEX
  5
EF2C
  8
0
 10
84.926181810680418
 20
148.73499637359529
 30
0.0
  0
VERTEX
  5
EF2D
  8
0
 10
86.151002425752708
 20
149.0590047467449
 30
0.0
  0
VERTEX
  5
EF2E
  8
0
 10
87.426181735670085
 20
149.18157833598431
 30
0.0
  0
SEQEND
  5
EF2F
  8
0
  0
ARC
  5
C6A0
  8
0
 10
87.313801173627326
 20
141.33157670053009
 30
0.0
 40
7.8508060138675857
 50
70.564032754914393
 51
89.179810097350398
  0
LINE
  5
C6A1
  8
0
 10
89.926181735670085
 20
146.42816032341389
 30
0.0
 11
89.926181773181725
 21
148.7349963610958
 31
0.0
  0
ARC
  5
C6A2
  8
0
 10
87.311679791950382
 20
153.84345520079179
 30
0.0
 40
7.8627106351549259
 50
270.83440817419643
 51
289.42174982737077
  0
ARC
  5
C6A3
  8
0
 10
92.538562168327871
 20
153.8315788201852
 30
0.0
 40
7.8508048608577141
 50
250.5640310773
 51
269.17981092112791
  0
POLYLINE
  5
C6A5
  8
0
 66
     1
 10
0.0
 20
0.0
 30
0.0
 70
   128
  0
VERTEX
  5
EF30
  8
0
 10
89.926181810693606
 20
148.7349963735997
 30
0.0
  0
VERTEX
  5
EF31
  8
0
 10
91.151002425759529
 20
149.0590047467461
 30
0.0
  0
VERTEX
  5
EF32
  8
0
 10
92.426181735670085
 20
149.18157833598431
 30
0.0
  0
SEQEND
  5
EF33
  8
0
  0
ARC
  5
C6A6
  8
0
 10
92.31380133191692
 20
141.3315780930719
 30
0.0
 40
7.8508046192025791
 50
70.564030678672992
 51
89.179811106984886
  0
ARC
  5
C6A8
  8
0
 10
92.311679791959918
 20
153.8434552007304
 30
0.0
 40
7.8627106350929621
 50
270.83440817390982
 51
289.42174982743899
  0
POLYLINE
  5
C6A9
  8
0
 66
     1
 10
0.0
 20
0.0
 30
0.0
 70
   128
  0
VERTEX
  5
EF34
  8
0
 10
84.926181735672344
 20
149.18157833598559
 30
0.0
  0
VERTEX
  5
EF35
  8
0
 10
84.926181735670085
 20
149.15166301471319
 30
0.0
  0
VERTEX
  5
EF36
  8
0
 10
84.926181735670085
 20
149.06370361690031
 30
0.0
  0
VERTEX
  5
EF37
  8
0
 10
84.926181735670085
 20
148.92174215854399
 30
0.0
  0
VERTEX
  5
EF38
  8
0
 10
84.926182326160855
 20
145.98157833600561
 30
0.0
  0
SEQEND
  5
EF39
  8
0
  0
LINE
  5
C6AC
  8
0
 10
94.926181735683926
 20
145.98157833600581
 30
0.0
 11
94.926181735667797
 21
149.18157833598559
 31
0.0
  0
LINE
  5
C6AE
  8
0
 10
84.926181735700766
 20
145.98157833600561
 30
0.0
 11
94.926181735639375
 21
145.98157833600561
 31
0.0
  0
LINE
  5
C6B4
  8
0
 10
96.926181735674845
 20
195.43157833604329
 30
0.0
 11
96.926181735674845
 21
183.93157833596979
 31
0.0
  0
LINE
  5
C6BC
  8
0
 10
87.426181735669843
 20
206.06157833600659
 30
0.0
 11
87.426181735669843
 21
183.6815783360066
 31
0.0
  0
LINE
  5
C6BD
  8
0
 10
92.426181735669843
 20
171.6815783360066
 30
0.0
 11
87.426181735669843
 21
171.6815783360066
 31
0.0
  0
LINE
  5
C6C6
  8
0
 10
92.426181735669843
 20
206.06157833600659
 30
0.0
 11
92.426181735669843
 21
183.6815783360066
 31
0.0
  0
LINE
  5
C6CD
  8
0
 10
84.926181735669843
 20
183.6815783360066
 30
0.0
 11
94.926181735670085
 21
183.6815783360066
 31
0.0
  0
LINE
  5
C6D0
  8
0
 10
94.926181735669843
 20
172.1815783360066
 30
0.0
 11
84.926181735669843
 21
172.1815783360066
 31
0.0
  0
LINE
  5
C6DC
  8
0
 10
87.426181735669843
 20
171.1815783360066
 30
0.0
 11
87.426181735669843
 21
172.1815783360066
 31
0.0
  0
LINE
  5
C6DF
  8
0
 10
92.426181735669843
 20
171.1815783360066
 30
0.0
 11
92.426181735669843
 21
172.1815783360066
 31
0.0
  0
LINE
  5
C6E4
  8
0
 10
84.926181735669843
 20
196.6815783360066
 30
0.0
 11
84.926181735669843
 21
171.1815783360066
 31
0.0
  0
LINE
  5
C6E5
  8
0
 10
94.926181735669843
 20
196.6815783360066
 30
0.0
 11
94.926181735669843
 21
171.1815783360066
 31
0.0
  0
LINE
  5
C6E8
  8
0
 10
98.676181735670085
 20
149.1815783360066
 30
0.0
 11
81.176181735670085
 21
149.1815783360066
 31
0.0
  0
LINE
  5
C6ED
  8
0
 10
96.176181735669843
 20
153.1815783358488
 30
0.0
 11
83.676181735670085
 21
153.1815783360066
 31
0.0
  0
ARC
  5
C6FB
  8
0
 10
81.611049819404798
 20
170.38102420268001
 30
0.0
 40
0.4377754351507322
 50
106.999451378274
 51
173.39304503682229
  0
POLYLINE
  5
C6FC
  8
0
 10
83.101388174500698
 20
171.18157833600662
 30
0.0
 66
     1
 70
     8
  0
VERTEX
  8
0
  5
EFE7
 10
83.1014
 20
171.182
 30
0.000000
  70
    32
  0
VERTEX
  8
0
  5
EFE8
 10
83.0887
 20
171.182
 30
0.000000
  70
    32
  0
VERTEX
  8
0
  5
EFE9
 10
83.0759
 20
171.181
 30
0.000000
  70
    32
  0
VERTEX
  8
0
  5
EFEA
 10
83.0632
 20
171.181
 30
0.000000
  70
    32
  0
VERTEX
  8
0
  5
EFEB
 10
83.0505
 20
171.181
 30
0.000000
  70
    32
  0
VERTEX
  8
0
  5
EFEC
 10
83.0378
 20
171.181
 30
0.000000
  70
    32
  0
VERTEX
  8
0
  5
EFED
 10
83.0250
 20
171.181
 30
0.000000
  70
    32
  0
VERTEX
  8
0
  5
EFEE
 10
83.0123
 20
171.180
 30
0.000000
  70
    32
  0
VERTEX
  8
0
  5
EFEF
 10
82.9996
 20
171.180
 30
0.000000
  70
    32
  0
VERTEX
  8
0
  5
EFF0
 10
82.9869
 20
171.180
 30
0.000000
  70
    32
  0
VERTEX
  8
0
  5
EFF1
 10
82.9742
 20
171.179
 30
0.000000
  70
    32
  0
VERTEX
  8
0
  5
EFF2
 10
82.9614
 20
171.179
 30
0.000000
  70
    32
  0
VERTEX
  8
0
  5
EFF3
 10
82.9487
 20
171.178
 30
0.000000
  70
    32
  0
VERTEX
  8
0
  5
EFF4
 10
82.9360
 20
171.178
 30
0.000000
  70
    32
  0
VERTEX
  8
0
  5
EFF5
 10
82.9233
 20
171.177
 30
0.000000
  70
    32
  0
VERTEX
  8
0
  5
EFF6
 10
82.9105
 20
171.176
 30
0.000000
  70
    32
  0
VERTEX
  8
0
  5
EFF7
 10
82.8978
 20
171.176
 30
0.000000
  70
    32
  0
VERTEX
  8
0
  5
EFF8
 10
82.8851
 20
171.175
 30
0.000000
  70
    32
  0
VERTEX
  8
0
  5
EFF9
 10
82.8724
 20
171.174
 30
0.000000
  70
    32
  0
VERTEX
  8
0
  5
EFFA
 10
82.8597
 20
171.173
 30
0.000000
  70
    32
  0
VERTEX
  8
0
  5
EFFB
 10
82.8469
 20
171.172
 30
0.000000
  70
    32
  0
VERTEX
  8
0
  5
EFFC
 10
82.8342
 20
171.171
 30
0.000000
  70
    32
  0
VERTEX
  8
0
  5
EFFD
 10
82.8215
 20
171.170
 30
0.000000
  70
    32
  0
VERTEX
  8
0
  5
EFFE
 10
82.8088
 20
171.169
 30
0.000000
  70
    32
  0
VERTEX
  8
0
  5
EFFF
 10
82.7961
 20
171.168
 30
0.000000
  70
    32
  0
VERTEX
  8
0
  5
F000
 10
82.7834
 20
171.167
 30
0.000000
  70
    32
  0
VERTEX
  8
0
  5
F001
 10
82.7706
 20
171.166
 30
0.000000
  70
    32
  0
VERTEX
  8
0
  5
F002
 10
82.7579
 20
171.165
 30
0.000000
  70
    32
  0
VERTEX
  8
0
  5
F003
 10
82.7452
 20
171.163
 30
0.000000
  70
    32
  0
VERTEX
  8
0
  5
F004
 10
82.7325
 20
171.162
 30
0.000000
  70
    32
  0
VERTEX
  8
0
  5
F005
 10
82.7198
 20
171.161
 30
0.000000
  70
    32
  0
VERTEX
  8
0
  5
F006
 10
82.7071
 20
171.159
 30
0.000000
  70
    32
  0
VERTEX
  8
0
  5
F007
 10
82.6944
 20
171.158
 30
0.000000
  70
    32
  0
VERTEX
  8
0
  5
F008
 10
82.6817
 20
171.156
 30
0.000000
  70
    32
  0
VERTEX
  8
0
  5
F009
 10
82.6690
 20
171.155
 30
0.000000
  70
    32
  0
VERTEX
  8
0
  5
F00A
 10
82.6563
 20
171.153
 30
0.000000
  70
    32
  0
VERTEX
  8
0
  5
F00B
 10
82.6435
 20
171.151
 30
0.000000
  70
    32
  0
VERTEX
  8
0
  5
F00C
 10
82.6308
 20
171.150
 30
0.000000
  70
    32
  0
VERTEX
  8
0
  5
F00D
 10
82.6181
 20
171.148
 30
0.000000
  70
    32
  0
VERTEX
  8
0
  5
F00E
 10
82.6054
 20
171.146
 30
0.000000
  70
    32
  0
VERTEX
  8
0
  5
F00F
 10
82.5927
 20
171.144
 30
0.000000
  70
    32
  0
VERTEX
  8
0
  5
F010
 10
82.5800
 20
171.142
 30
0.000000
  70
    32
  0
VERTEX
  8
0
  5
F011
 10
82.5673
 20
171.140
 30
0.000000
  70
    32
  0
VERTEX
  8
0
  5
F012
 10
82.5546
 20
171.138
 30
0.000000
  70
    32
  0
VERTEX
  8
0
  5
F013
 10
82.5419
 20
171.136
 30
0.000000
  70
    32
  0
VERTEX
  8
0
  5
F014
 10
82.5292
 20
171.134
 30
0.000000
  70
    32
  0
VERTEX
  8
0
  5
F015
 10
82.5166
 20
171.132
 30
0.000000
  70
    32
  0
VERTEX
  8
0
  5
F016
 10
82.5039
 20
171.130
 30
0.000000
  70
    32
  0
VERTEX
  8
0
  5
F017
 10
82.4912
 20
171.128
 30
0.000000
  70
    32
  0
VERTEX
  8
0
  5
F018
 10
82.4785
 20
171.125
 30
0.000000
  70
    32
  0
VERTEX
  8
0
  5
F019
 10
82.4658
 20
171.123
 30
0.000000
  70
    32
  0
VERTEX
  8
0
  5
F01A
 10
82.4531
 20
171.121
 30
0.000000
  70
    32
  0
VERTEX
  8
0
  5
F01B
 10
82.4404
 20
171.118
 30
0.000000
  70
    32
  0
VERTEX
  8
0
  5
F01C
 10
82.4277
 20
171.116
 30
0.000000
  70
    32
  0
VERTEX
  8
0
  5
F01D
 10
82.4151
 20
171.113
 30
0.000000
  70
    32
  0
VERTEX
  8
0
  5
F01E
 10
82.4024
 20
171.111
 30
0.000000
  70
    32
  0
VERTEX
  8
0
  5
F01F
 10
82.3897
 20
171.108
 30
0.000000
  70
    32
  0
VERTEX
  8
0
  5
F020
 10
82.3770
 20
171.106
 30
0.000000
  70
    32
  0
VERTEX
  8
0
  5
F021
 10
82.3643
 20
171.103
 30
0.000000
  70
    32
  0
VERTEX
  8
0
  5
F022
 10
82.3517
 20
171.100
 30
0.000000
  70
    32
  0
VERTEX
  8
0
  5
F023
 10
82.3390
 20
171.097
 30
0.000000
  70
    32
  0
VERTEX
  8
0
  5
F024
 10
82.3263
 20
171.095
 30
0.000000
  70
    32
  0
VERTEX
  8
0
  5
F025
 10
82.3137
 20
171.092
 30
0.000000
  70
    32
  0
VERTEX
  8
0
  5
F026
 10
82.3010
 20
171.089
 30
0.000000
  70
    32
  0
VERTEX
  8
0
  5
F027
 10
82.2883
 20
171.086
 30
0.000000
  70
    32
  0
VERTEX
  8
0
  5
F028
 10
82.2757
 20
171.083
 30
0.000000
  70
    32
  0
VERTEX
  8
0
  5
F029
 10
82.2630
 20
171.080
 30
0.000000
  70
    32
  0
VERTEX
  8
0
  5
F02A
 10
82.2504
 20
171.077
 30
0.000000
  70
    32
  0
VERTEX
  8
0
  5
F02B
 10
82.2377
 20
171.074
 30
0.000000
  70
    32
  0
VERTEX
  8
0
  5
F02C
 10
82.2250
 20
171.070
 30
0.000000
  70
    32
  0
VERTEX
  8
0
  5
F02D
 10
82.2124
 20
171.067
 30
0.000000
  70
    32
  0
VERTEX
  8
0
  5
F02E
 10
82.1997
 20
171.064
 30
0.000000
  70
    32
  0
VERTEX
  8
0
  5
F02F
 10
82.1871
 20
171.060
 30
0.000000
  70
    32
  0
VERTEX
  8
0
  5
F030
 10
82.1744
 20
171.057
 30
0.000000
  70
    32
  0
VERTEX
  8
0
  5
F031
 10
82.1618
 20
171.054
 30
0.000000
  70
    32
  0
VERTEX
  8
0
  5
F032
 10
82.1492
 20
171.050
 30
0.000000
  70
    32
  0
VERTEX
  8
0
  5
F033
 10
82.1365
 20
171.047
 30
0.000000
  70
    32
  0
VERTEX
  8
0
  5
F034
 10
82.1239
 20
171.043
 30
0.000000
  70
    32
  0
VERTEX
  8
0
  5
F035
 10
82.1112
 20
171.039
 30
0.000000
  70
    32
  0
VERTEX
  8
0
  5
F036
 10
82.0986
 20
171.036
 30
0.000000
  70
    32
  0
VERTEX
  8
0
  5
F037
 10
82.0860
 20
171.032
 30
0.000000
  70
    32
  0
VERTEX
  8
0
  5
F038
 10
82.0734
 20
171.028
 30
0.000000
  70
    32
  0
VERTEX
  8
0
  5
F039
 10
82.0607
 20
171.025
 30
0.000000
  70
    32
  0
VERTEX
  8
0
  5
F03A
 10
82.0481
 20
171.021
 30
0.000000
  70
    32
  0
VERTEX
  8
0
  5
F03B
 10
82.0355
 20
171.017
 30
0.000000
  70
    32
  0
VERTEX
  8
0
  5
F03C
 10
82.0229
 20
171.013
 30
0.000000
  70
    32
  0
VERTEX
  8
0
  5
F03D
 10
82.0103
 20
171.009
 30
0.000000
  70
    32
  0
VERTEX
  8
0
  5
F03E
 10
81.9976
 20
171.005
 30
0.000000
  70
    32
  0
VERTEX
  8
0
  5
F03F
 10
81.9850
 20
171.001
 30
0.000000
  70
    32
  0
VERTEX
  8
0
  5
F040
 10
81.9724
 20
170.997
 30
0.000000
  70
    32
  0
VERTEX
  8
0
  5
F041
 10
81.9598
 20
170.992
 30
0.000000
  70
    32
  0
VERTEX
  8
0
  5
F042
 10
81.9472
 20
170.988
 30
0.000000
  70
    32
  0
VERTEX
  8
0
  5
F043
 10
81.9346
 20
170.984
 30
0.000000
  70
    32
  0
VERTEX
  8
0
  5
F044
 10
81.9220
 20
170.980
 30
0.000000
  70
    32
  0
VERTEX
  8
0
  5
F045
 10
81.9094
 20
170.975
 30
0.000000
  70
    32
  0
VERTEX
  8
0
  5
F046
 10
81.8968
 20
170.971
 30
0.000000
  70
    32
  0
VERTEX
  8
0
  5
F047
 10
81.8842
 20
170.966
 30
0.000000
  70
    32
  0
VERTEX
  8
0
  5
F048
 10
81.8717
 20
170.962
 30
0.000000
  70
    32
  0
VERTEX
  8
0
  5
F049
 10
81.8591
 20
170.957
 30
0.000000
  70
    32
  0
VERTEX
  8
0
  5
F04A
 10
81.8465
 20
170.953
 30
0.000000
  70
    32
  0
VERTEX
  8
0
  5
F04B
 10
81.8339
 20
170.948
 30
0.000000
  70
    32
  0
VERTEX
  8
0
  5
F04C
 10
81.8213
 20
170.944
 30
0.000000
  70
    32
  0
VERTEX
  8
0
  5
F04D
 10
81.8088
 20
170.939
 30
0.000000
  70
    32
  0
VERTEX
  8
0
  5
F04E
 10
81.7962
 20
170.934
 30
0.000000
  70
    32
  0
VERTEX
  8
0
  5
F04F
 10
81.7836
 20
170.929
 30
0.000000
  70
    32
  0
VERTEX
  8
0
  5
F050
 10
81.7711
 20
170.924
 30
0.000000
  70
    32
  0
VERTEX
  8
0
  5
F051
 10
81.7585
 20
170.919
 30
0.000000
  70
    32
  0
VERTEX
  8
0
  5
F052
 10
81.7460
 20
170.914
 30
0.000000
  70
    32
  0
VERTEX
  8
0
  5
F053
 10
81.7334
 20
170.909
 30
0.000000
  70
    32
  0
VERTEX
  8
0
  5
F054
 10
81.7209
 20
170.904
 30
0.000000
  70
    32
  0
VERTEX
  8
0
  5
F055
 10
81.7083
 20
170.899
 30
0.000000
  70
    32
  0
VERTEX
  8
0
  5
F056
 10
81.6958
 20
170.894
 30
0.000000
  70
    32
  0
VERTEX
  8
0
  5
F057
 10
81.6832
 20
170.889
 30
0.000000
  70
    32
  0
VERTEX
  8
0
  5
F058
 10
81.6707
 20
170.884
 30
0.000000
  70
    32
  0
VERTEX
  8
0
  5
F059
 10
81.6582
 20
170.878
 30
0.000000
  70
    32
  0
VERTEX
  8
0
  5
F05A
 10
81.6456
 20
170.873
 30
0.000000
  70
    32
  0
VERTEX
  8
0
  5
F05B
 10
81.6331
 20
170.868
 30
0.000000
  70
    32
  0
VERTEX
  8
0
  5
F05C
 10
81.6206
 20
170.862
 30
0.000000
  70
    32
  0
VERTEX
  8
0
  5
F05D
 10
81.6081
 20
170.857
 30
0.000000
  70
    32
  0
VERTEX
  8
0
  5
F05E
 10
81.5955
 20
170.851
 30
0.000000
  70
    32
  0
VERTEX
  8
0
  5
F05F
 10
81.5830
 20
170.846
 30
0.000000
  70
    32
  0
VERTEX
  8
0
  5
F060
 10
81.5705
 20
170.840
 30
0.000000
  70
    32
  0
VERTEX
  8
0
  5
F061
 10
81.5580
 20
170.835
 30
0.000000
  70
    32
  0
VERTEX
  8
0
  5
F062
 10
81.5455
 20
170.829
 30
0.000000
  70
    32
  0
VERTEX
  8
0
  5
F063
 10
81.5330
 20
170.823
 30
0.000000
  70
    32
  0
VERTEX
  8
0
  5
F064
 10
81.5205
 20
170.817
 30
0.000000
  70
    32
  0
VERTEX
  8
0
  5
F065
 10
81.5080
 20
170.811
 30
0.000000
  70
    32
  0
VERTEX
  8
0
  5
F066
 10
81.4955
 20
170.806
 30
0.000000
  70
    32
  0
VERTEX
  8
0
  5
F067
 10
81.4831
 20
170.800
 30
0.000000
  70
    32
  0
SEQEND
  8
0
  5
F068
  0
LINE
  5
C6FD
  8
0
 10
89.876181735670116
 20
171.1815783360066
 30
0.0
 11
83.101388174500698
 21
171.1815783360066
 31
0.0
  0
POLYLINE
  5
C6FE
  8
0
 10
85.809125029941242
 20
171.18157833600662
 30
0.0
 66
     1
 70
     8
  0
VERTEX
  8
0
  5
F069
 10
85.8091
 20
171.182
 30
0.000000
  70
    32
  0
VERTEX
  8
0
  5
F06A
 10
85.7932
 20
171.182
 30
0.000000
  70
    32
  0
VERTEX
  8
0
  5
F06B
 10
85.7773
 20
171.181
 30
0.000000
  70
    32
  0
VERTEX
  8
0
  5
F06C
 10
85.7614
 20
171.181
 30
0.000000
  70
    32
  0
VERTEX
  8
0
  5
F06D
 10
85.7454
 20
171.181
 30
0.000000
  70
    32
  0
VERTEX
  8
0
  5
F06E
 10
85.7295
 20
171.181
 30
0.000000
  70
    32
  0
VERTEX
  8
0
  5
F06F
 10
85.7136
 20
171.180
 30
0.000000
  70
    32
  0
VERTEX
  8
0
  5
F070
 10
85.6977
 20
171.180
 30
0.000000
  70
    32
  0
VERTEX
  8
0
  5
F071
 10
85.6817
 20
171.179
 30
0.000000
  70
    32
  0
VERTEX
  8
0
  5
F072
 10
85.6658
 20
171.179
 30
0.000000
  70
    32
  0
VERTEX
  8
0
  5
F073
 10
85.6499
 20
171.178
 30
0.000000
  70
    32
  0
VERTEX
  8
0
  5
F074
 10
85.6340
 20
171.177
 30
0.000000
  70
    32
  0
VERTEX
  8
0
  5
F075
 10
85.6181
 20
171.176
 30
0.000000
  70
    32
  0
VERTEX
  8
0
  5
F076
 10
85.6021
 20
171.175
 30
0.000000
  70
    32
  0
VERTEX
  8
0
  5
F077
 10
85.5862
 20
171.174
 30
0.000000
  70
    32
  0
VERTEX
  8
0
  5
F078
 10
85.5703
 20
171.173
 30
0.000000
  70
    32
  0
VERTEX
  8
0
  5
F079
 10
85.5544
 20
171.172
 30
0.000000
  70
    32
  0
VERTEX
  8
0
  5
F07A
 10
85.5385
 20
171.171
 30
0.000000
  70
    32
  0
VERTEX
  8
0
  5
F07B
 10
85.5226
 20
171.170
 30
0.000000
  70
    32
  0
VERTEX
  8
0
  5
F07C
 10
85.5066
 20
171.168
 30
0.000000
  70
    32
  0
VERTEX
  8
0
  5
F07D
 10
85.4907
 20
171.167
 30
0.000000
  70
    32
  0
VERTEX
  8
0
  5
F07E
 10
85.4748
 20
171.165
 30
0.000000
  70
    32
  0
VERTEX
  8
0
  5
F07F
 10
85.4589
 20
171.164
 30
0.000000
  70
    32
  0
VERTEX
  8
0
  5
F080
 10
85.4430
 20
171.162
 30
0.000000
  70
    32
  0
VERTEX
  8
0
  5
F081
 10
85.4271
 20
171.160
 30
0.000000
  70
    32
  0
VERTEX
  8
0
  5
F082
 10
85.4112
 20
171.159
 30
0.000000
  70
    32
  0
VERTEX
  8
0
  5
F083
 10
85.3953
 20
171.157
 30
0.000000
  70
    32
  0
VERTEX
  8
0
  5
F084
 10
85.3794
 20
171.155
 30
0.000000
  70
    32
  0
VERTEX
  8
0
  5
F085
 10
85.3635
 20
171.153
 30
0.000000
  70
    32
  0
VERTEX
  8
0
  5
F086
 10
85.3476
 20
171.151
 30
0.000000
  70
    32
  0
VERTEX
  8
0
  5
F087
 10
85.3317
 20
171.149
 30
0.000000
  70
    32
  0
VERTEX
  8
0
  5
F088
 10
85.3158
 20
171.146
 30
0.000000
  70
    32
  0
VERTEX
  8
0
  5
F089
 10
85.2999
 20
171.144
 30
0.000000
  70
    32
  0
VERTEX
  8
0
  5
F08A
 10
85.2840
 20
171.142
 30
0.000000
  70
    32
  0
VERTEX
  8
0
  5
F08B
 10
85.2681
 20
171.139
 30
0.000000
  70
    32
  0
VERTEX
  8
0
  5
F08C
 10
85.2522
 20
171.137
 30
0.000000
  70
    32
  0
VERTEX
  8
0
  5
F08D
 10
85.2363
 20
171.134
 30
0.000000
  70
    32
  0
VERTEX
  8
0
  5
F08E
 10
85.2205
 20
171.131
 30
0.000000
  70
    32
  0
VERTEX
  8
0
  5
F08F
 10
85.2046
 20
171.129
 30
0.000000
  70
    32
  0
VERTEX
  8
0
  5
F090
 10
85.1887
 20
171.126
 30
0.000000
  70
    32
  0
VERTEX
  8
0
  5
F091
 10
85.1728
 20
171.123
 30
0.000000
  70
    32
  0
VERTEX
  8
0
  5
F092
 10
85.1569
 20
171.120
 30
0.000000
  70
    32
  0
VERTEX
  8
0
  5
F093
 10
85.1411
 20
171.117
 30
0.000000
  70
    32
  0
VERTEX
  8
0
  5
F094
 10
85.1252
 20
171.114
 30
0.000000
  70
    32
  0
VERTEX
  8
0
  5
F095
 10
85.1093
 20
171.111
 30
0.000000
  70
    32
  0
VERTEX
  8
0
  5
F096
 10
85.0935
 20
171.107
 30
0.000000
  70
    32
  0
VERTEX
  8
0
  5
F097
 10
85.0776
 20
171.104
 30
0.000000
  70
    32
  0
VERTEX
  8
0
  5
F098
 10
85.0617
 20
171.101
 30
0.000000
  70
    32
  0
VERTEX
  8
0
  5
F099
 10
85.0459
 20
171.097
 30
0.000000
  70
    32
  0
VERTEX
  8
0
  5
F09A
 10
85.0300
 20
171.094
 30
0.000000
  70
    32
  0
VERTEX
  8
0
  5
F09B
 10
85.0142
 20
171.090
 30
0.000000
  70
    32
  0
VERTEX
  8
0
  5
F09C
 10
84.9983
 20
171.086
 30
0.000000
  70
    32
  0
VERTEX
  8
0
  5
F09D
 10
84.9825
 20
171.083
 30
0.000000
  70
    32
  0
VERTEX
  8
0
  5
F09E
 10
84.9666
 20
171.079
 30
0.000000
  70
    32
  0
VERTEX
  8
0
  5
F09F
 10
84.9508
 20
171.075
 30
0.000000
  70
    32
  0
VERTEX
  8
0
  5
F0A0
 10
84.9350
 20
171.071
 30
0.000000
  70
    32
  0
VERTEX
  8
0
  5
F0A1
 10
84.9191
 20
171.067
 30
0.000000
  70
    32
  0
VERTEX
  8
0
  5
F0A2
 10
84.9033
 20
171.063
 30
0.000000
  70
    32
  0
VERTEX
  8
0
  5
F0A3
 10
84.8875
 20
171.059
 30
0.000000
  70
    32
  0
VERTEX
  8
0
  5
F0A4
 10
84.8716
 20
171.054
 30
0.000000
  70
    32
  0
VERTEX
  8
0
  5
F0A5
 10
84.8558
 20
171.050
 30
0.000000
  70
    32
  0
VERTEX
  8
0
  5
F0A6
 10
84.8400
 20
171.045
 30
0.000000
  70
    32
  0
VERTEX
  8
0
  5
F0A7
 10
84.8242
 20
171.041
 30
0.000000
  70
    32
  0
VERTEX
  8
0
  5
F0A8
 10
84.8084
 20
171.036
 30
0.000000
  70
    32
  0
VERTEX
  8
0
  5
F0A9
 10
84.7926
 20
171.032
 30
0.000000
  70
    32
  0
VERTEX
  8
0
  5
F0AA
 10
84.7768
 20
171.027
 30
0.000000
  70
    32
  0
VERTEX
  8
0
  5
F0AB
 10
84.7610
 20
171.022
 30
0.000000
  70
    32
  0
VERTEX
  8
0
  5
F0AC
 10
84.7452
 20
171.017
 30
0.000000
  70
    32
  0
VERTEX
  8
0
  5
F0AD
 10
84.7294
 20
171.012
 30
0.000000
  70
    32
  0
VERTEX
  8
0
  5
F0AE
 10
84.7136
 20
171.007
 30
0.000000
  70
    32
  0
VERTEX
  8
0
  5
F0AF
 10
84.6978
 20
171.002
 30
0.000000
  70
    32
  0
VERTEX
  8
0
  5
F0B0
 10
84.6820
 20
170.997
 30
0.000000
  70
    32
  0
VERTEX
  8
0
  5
F0B1
 10
84.6663
 20
170.992
 30
0.000000
  70
    32
  0
VERTEX
  8
0
  5
F0B2
 10
84.6505
 20
170.987
 30
0.000000
  70
    32
  0
VERTEX
  8
0
  5
F0B3
 10
84.6347
 20
170.981
 30
0.000000
  70
    32
  0
VERTEX
  8
0
  5
F0B4
 10
84.6190
 20
170.976
 30
0.000000
  70
    32
  0
VERTEX
  8
0
  5
F0B5
 10
84.6032
 20
170.970
 30
0.000000
  70
    32
  0
VERTEX
  8
0
  5
F0B6
 10
84.5875
 20
170.965
 30
0.000000
  70
    32
  0
VERTEX
  8
0
  5
F0B7
 10
84.5717
 20
170.959
 30
0.000000
  70
    32
  0
VERTEX
  8
0
  5
F0B8
 10
84.5560
 20
170.953
 30
0.000000
  70
    32
  0
VERTEX
  8
0
  5
F0B9
 10
84.5402
 20
170.948
 30
0.000000
  70
    32
  0
VERTEX
  8
0
  5
F0BA
 10
84.5245
 20
170.942
 30
0.000000
  70
    32
  0
VERTEX
  8
0
  5
F0BB
 10
84.5088
 20
170.936
 30
0.000000
  70
    32
  0
VERTEX
  8
0
  5
F0BC
 10
84.4930
 20
170.930
 30
0.000000
  70
    32
  0
VERTEX
  8
0
  5
F0BD
 10
84.4773
 20
170.924
 30
0.000000
  70
    32
  0
VERTEX
  8
0
  5
F0BE
 10
84.4616
 20
170.918
 30
0.000000
  70
    32
  0
VERTEX
  8
0
  5
F0BF
 10
84.4459
 20
170.911
 30
0.000000
  70
    32
  0
VERTEX
  8
0
  5
F0C0
 10
84.4302
 20
170.905
 30
0.000000
  70
    32
  0
VERTEX
  8
0
  5
F0C1
 10
84.4145
 20
170.899
 30
0.000000
  70
    32
  0
VERTEX
  8
0
  5
F0C2
 10
84.3988
 20
170.892
 30
0.000000
  70
    32
  0
VERTEX
  8
0
  5
F0C3
 10
84.3831
 20
170.886
 30
0.000000
  70
    32
  0
VERTEX
  8
0
  5
F0C4
 10
84.3674
 20
170.879
 30
0.000000
  70
    32
  0
VERTEX
  8
0
  5
F0C5
 10
84.3517
 20
170.872
 30
0.000000
  70
    32
  0
VERTEX
  8
0
  5
F0C6
 10
84.3361
 20
170.866
 30
0.000000
  70
    32
  0
VERTEX
  8
0
  5
F0C7
 10
84.3204
 20
170.859
 30
0.000000
  70
    32
  0
VERTEX
  8
0
  5
F0C8
 10
84.3047
 20
170.852
 30
0.000000
  70
    32
  0
VERTEX
  8
0
  5
F0C9
 10
84.2891
 20
170.845
 30
0.000000
  70
    32
  0
VERTEX
  8
0
  5
F0CA
 10
84.2734
 20
170.838
 30
0.000000
  70
    32
  0
VERTEX
  8
0
  5
F0CB
 10
84.2578
 20
170.831
 30
0.000000
  70
    32
  0
VERTEX
  8
0
  5
F0CC
 10
84.2421
 20
170.824
 30
0.000000
  70
    32
  0
VERTEX
  8
0
  5
F0CD
 10
84.2265
 20
170.816
 30
0.000000
  70
    32
  0
VERTEX
  8
0
  5
F0CE
 10
84.2109
 20
170.809
 30
0.000000
  70
    32
  0
VERTEX
  8
0
  5
F0CF
 10
84.1952
 20
170.802
 30
0.000000
  70
    32
  0
VERTEX
  8
0
  5
F0D0
 10
84.1796
 20
170.794
 30
0.000000
  70
    32
  0
VERTEX
  8
0
  5
F0D1
 10
84.1640
 20
170.787
 30
0.000000
  70
    32
  0
VERTEX
  8
0
  5
F0D2
 10
84.1484
 20
170.779
 30
0.000000
  70
    32
  0
VERTEX
  8
0
  5
F0D3
 10
84.1328
 20
170.772
 30
0.000000
  70
    32
  0
VERTEX
  8
0
  5
F0D4
 10
84.1172
 20
170.764
 30
0.000000
  70
    32
  0
VERTEX
  8
0
  5
F0D5
 10
84.1016
 20
170.756
 30
0.000000
  70
    32
  0
VERTEX
  8
0
  5
F0D6
 10
84.0860
 20
170.748
 30
0.000000
  70
    32
  0
VERTEX
  8
0
  5
F0D7
 10
84.0705
 20
170.740
 30
0.000000
  70
    32
  0
VERTEX
  8
0
  5
F0D8
 10
84.0549
 20
170.732
 30
0.000000
  70
    32
  0
VERTEX
  8
0
  5
F0D9
 10
84.0393
 20
170.724
 30
0.000000
  70
    32
  0
VERTEX
  8
0
  5
F0DA
 10
84.0238
 20
170.716
 30
0.000000
  70
    32
  0
VERTEX
  8
0
  5
F0DB
 10
84.0082
 20
170.708
 30
0.000000
  70
    32
  0
VERTEX
  8
0
  5
F0DC
 10
83.9927
 20
170.699
 30
0.000000
  70
    32
  0
VERTEX
  8
0
  5
F0DD
 10
83.9772
 20
170.691
 30
0.000000
  70
    32
  0
VERTEX
  8
0
  5
F0DE
 10
83.9616
 20
170.682
 30
0.000000
  70
    32
  0
VERTEX
  8
0
  5
F0DF
 10
83.9461
 20
170.674
 30
0.000000
  70
    32
  0
VERTEX
  8
0
  5
F0E0
 10
83.9306
 20
170.665
 30
0.000000
  70
    32
  0
VERTEX
  8
0
  5
F0E1
 10
83.9151
 20
170.657
 30
0.000000
  70
    32
  0
VERTEX
  8
0
  5
F0E2
 10
83.8996
 20
170.648
 30
0.000000
  70
    32
  0
VERTEX
  8
0
  5
F0E3
 10
83.8841
 20
170.639
 30
0.000000
  70
    32
  0
VERTEX
  8
0
  5
F0E4
 10
83.8686
 20
170.630
 30
0.000000
  70
    32
  0
VERTEX
  8
0
  5
F0E5
 10
83.8531
 20
170.621
 30
0.000000
  70
    32
  0
VERTEX
  8
0
  5
F0E6
 10
83.8376
 20
170.612
 30
0.000000
  70
    32
  0
VERTEX
  8
0
  5
F0E7
 10
83.8222
 20
170.603
 30
0.000000
  70
    32
  0
VERTEX
  8
0
  5
F0E8
 10
83.8067
 20
170.594
 30
0.000000
  70
    32
  0
VERTEX
  8
0
  5
F0E9
 10
83.7913
 20
170.585
 30
0.000000
  70
    32
  0
SEQEND
  8
0
  5
F0EA
  0
ARC
  5
C6FF
  8
0
 10
83.868226597866396
 20
170.4069435143808
 30
0.0
 40
0.1935950368659208
 50
113.42560680689949
 51
172.74443797498199
  0
LINE
  5
C700
  8
0
 10
83.676181735670085
 20
153.18157833600671
 30
0.0
 11
83.676181735669843
 21
170.431393651458
 31
0.0
  0
LINE
  5
C701
  8
0
 10
81.176181735669843
 20
170.431393651458
 30
0.0
 11
81.176181735669843
 21
149.1815783360066
 31
0.0
  0
LINE
  5
C702
  8
0
 10
96.750975296838988
 20
171.1815783360066
 30
0.0
 11
89.976181735669797
 21
171.1815783360066
 31
0.0
  0
POLYLINE
  5
C703
  8
0
 10
98.369302793540285
 20
170.79967215890656
 30
0.0
 66
     1
 70
     8
  0
VERTEX
  8
0
  5
F0EB
 10
98.3693
 20
170.800
 30
0.000000
  70
    32
  0
VERTEX
  8
0
  5
F0EC
 10
98.3568
 20
170.806
 30
0.000000
  70
    32
  0
VERTEX
  8
0
  5
F0ED
 10
98.3443
 20
170.811
 30
0.000000
  70
    32
  0
VERTEX
  8
0
  5
F0EE
 10
98.3318
 20
170.817
 30
0.000000
  70
    32
  0
VERTEX
  8
0
  5
F0EF
 10
98.3193
 20
170.823
 30
0.000000
  70
    32
  0
VERTEX
  8
0
  5
F0F0
 10
98.3068
 20
170.829
 30
0.000000
  70
    32
  0
VERTEX
  8
0
  5
F0F1
 10
98.2943
 20
170.835
 30
0.000000
  70
    32
  0
VERTEX
  8
0
  5
F0F2
 10
98.2818
 20
170.840
 30
0.000000
  70
    32
  0
VERTEX
  8
0
  5
F0F3
 10
98.2693
 20
170.846
 30
0.000000
  70
    32
  0
VERTEX
  8
0
  5
F0F4
 10
98.2568
 20
170.851
 30
0.000000
  70
    32
  0
VERTEX
  8
0
  5
F0F5
 10
98.2443
 20
170.857
 30
0.000000
  70
    32
  0
VERTEX
  8
0
  5
F0F6
 10
98.2318
 20
170.862
 30
0.000000
  70
    32
  0
VERTEX
  8
0
  5
F0F7
 10
98.2193
 20
170.868
 30
0.000000
  70
    32
  0
VERTEX
  8
0
  5
F0F8
 10
98.2067
 20
170.873
 30
0.000000
  70
    32
  0
VERTEX
  8
0
  5
F0F9
 10
98.1942
 20
170.878
 30
0.000000
  70
    32
  0
VERTEX
  8
0
  5
F0FA
 10
98.1817
 20
170.884
 30
0.000000
  70
    32
  0
VERTEX
  8
0
  5
F0FB
 10
98.1691
 20
170.889
 30
0.000000
  70
    32
  0
VERTEX
  8
0
  5
F0FC
 10
98.1566
 20
170.894
 30
0.000000
  70
    32
  0
VERTEX
  8
0
  5
F0FD
 10
98.1441
 20
170.899
 30
0.000000
  70
    32
  0
VERTEX
  8
0
  5
F0FE
 10
98.1315
 20
170.904
 30
0.000000
  70
    32
  0
VERTEX
  8
0
  5
F0FF
 10
98.1190
 20
170.909
 30
0.000000
  70
    32
  0
VERTEX
  8
0
  5
F100
 10
98.1064
 20
170.914
 30
0.000000
  70
    32
  0
VERTEX
  8
0
  5
F101
 10
98.0939
 20
170.919
 30
0.000000
  70
    32
  0
VERTEX
  8
0
  5
F102
 10
98.0813
 20
170.924
 30
0.000000
  70
    32
  0
VERTEX
  8
0
  5
F103
 10
98.0687
 20
170.929
 30
0.000000
  70
    32
  0
VERTEX
  8
0
  5
F104
 10
98.0562
 20
170.934
 30
0.000000
  70
    32
  0
VERTEX
  8
0
  5
F105
 10
98.0436
 20
170.939
 30
0.000000
  70
    32
  0
VERTEX
  8
0
  5
F106
 10
98.0310
 20
170.944
 30
0.000000
  70
    32
  0
VERTEX
  8
0
  5
F107
 10
98.0184
 20
170.948
 30
0.000000
  70
    32
  0
VERTEX
  8
0
  5
F108
 10
98.0059
 20
170.953
 30
0.000000
  70
    32
  0
VERTEX
  8
0
  5
F109
 10
97.9933
 20
170.957
 30
0.000000
  70
    32
  0
VERTEX
  8
0
  5
F10A
 10
97.9807
 20
170.962
 30
0.000000
  70
    32
  0
VERTEX
  8
0
  5
F10B
 10
97.9681
 20
170.966
 30
0.000000
  70
    32
  0
VERTEX
  8
0
  5
F10C
 10
97.9555
 20
170.971
 30
0.000000
  70
    32
  0
VERTEX
  8
0
  5
F10D
 10
97.9429
 20
170.975
 30
0.000000
  70
    32
  0
VERTEX
  8
0
  5
F10E
 10
97.9303
 20
170.980
 30
0.000000
  70
    32
  0
VERTEX
  8
0
  5
F10F
 10
97.9178
 20
170.984
 30
0.000000
  70
    32
  0
VERTEX
  8
0
  5
F110
 10
97.9052
 20
170.988
 30
0.000000
  70
    32
  0
VERTEX
  8
0
  5
F111
 10
97.8925
 20
170.992
 30
0.000000
  70
    32
  0
VERTEX
  8
0
  5
F112
 10
97.8799
 20
170.997
 30
0.000000
  70
    32
  0
VERTEX
  8
0
  5
F113
 10
97.8673
 20
171.001
 30
0.000000
  70
    32
  0
VERTEX
  8
0
  5
F114
 10
97.8547
 20
171.005
 30
0.000000
  70
    32
  0
VERTEX
  8
0
  5
F115
 10
97.8421
 20
171.009
 30
0.000000
  70
    32
  0
VERTEX
  8
0
  5
F116
 10
97.8295
 20
171.013
 30
0.000000
  70
    32
  0
VERTEX
  8
0
  5
F117
 10
97.8169
 20
171.017
 30
0.000000
  70
    32
  0
VERTEX
  8
0
  5
F118
 10
97.8043
 20
171.021
 30
0.000000
  70
    32
  0
VERTEX
  8
0
  5
F119
 10
97.7916
 20
171.025
 30
0.000000
  70
    32
  0
VERTEX
  8
0
  5
F11A
 10
97.7790
 20
171.028
 30
0.000000
  70
    32
  0
VERTEX
  8
0
  5
F11B
 10
97.7664
 20
171.032
 30
0.000000
  70
    32
  0
VERTEX
  8
0
  5
F11C
 10
97.7538
 20
171.036
 30
0.000000
  70
    32
  0
VERTEX
  8
0
  5
F11D
 10
97.7411
 20
171.039
 30
0.000000
  70
    32
  0
VERTEX
  8
0
  5
F11E
 10
97.7285
 20
171.043
 30
0.000000
  70
    32
  0
VERTEX
  8
0
  5
F11F
 10
97.7158
 20
171.047
 30
0.000000
  70
    32
  0
VERTEX
  8
0
  5
F120
 10
97.7032
 20
171.050
 30
0.000000
  70
    32
  0
VERTEX
  8
0
  5
F121
 10
97.6906
 20
171.054
 30
0.000000
  70
    32
  0
VERTEX
  8
0
  5
F122
 10
97.6779
 20
171.057
 30
0.000000
  70
    32
  0
VERTEX
  8
0
  5
F123
 10
97.6653
 20
171.060
 30
0.000000
  70
    32
  0
VERTEX
  8
0
  5
F124
 10
97.6526
 20
171.064
 30
0.000000
  70
    32
  0
VERTEX
  8
0
  5
F125
 10
97.6400
 20
171.067
 30
0.000000
  70
    32
  0
VERTEX
  8
0
  5
F126
 10
97.6273
 20
171.070
 30
0.000000
  70
    32
  0
VERTEX
  8
0
  5
F127
 10
97.6147
 20
171.074
 30
0.000000
  70
    32
  0
VERTEX
  8
0
  5
F128
 10
97.6020
 20
171.077
 30
0.000000
  70
    32
  0
VERTEX
  8
0
  5
F129
 10
97.5894
 20
171.080
 30
0.000000
  70
    32
  0
VERTEX
  8
0
  5
F12A
 10
97.5767
 20
171.083
 30
0.000000
  70
    32
  0
VERTEX
  8
0
  5
F12B
 10
97.5640
 20
171.086
 30
0.000000
  70
    32
  0
VERTEX
  8
0
  5
F12C
 10
97.5514
 20
171.089
 30
0.000000
  70
    32
  0
VERTEX
  8
0
  5
F12D
 10
97.5387
 20
171.092
 30
0.000000
  70
    32
  0
VERTEX
  8
0
  5
F12E
 10
97.5260
 20
171.095
 30
0.000000
  70
    32
  0
VERTEX
  8
0
  5
F12F
 10
97.5134
 20
171.097
 30
0.000000
  70
    32
  0
VERTEX
  8
0
  5
F130
 10
97.5007
 20
171.100
 30
0.000000
  70
    32
  0
VERTEX
  8
0
  5
F131
 10
97.4880
 20
171.103
 30
0.000000
  70
    32
  0
VERTEX
  8
0
  5
F132
 10
97.4753
 20
171.106
 30
0.000000
  70
    32
  0
VERTEX
  8
0
  5
F133
 10
97.4627
 20
171.108
 30
0.000000
  70
    32
  0
VERTEX
  8
0
  5
F134
 10
97.4500
 20
171.111
 30
0.000000
  70
    32
  0
VERTEX
  8
0
  5
F135
 10
97.4373
 20
171.113
 30
0.000000
  70
    32
  0
VERTEX
  8
0
  5
F136
 10
97.4246
 20
171.116
 30
0.000000
  70
    32
  0
VERTEX
  8
0
  5
F137
 10
97.4119
 20
171.118
 30
0.000000
  70
    32
  0
VERTEX
  8
0
  5
F138
 10
97.3993
 20
171.121
 30
0.000000
  70
    32
  0
VERTEX
  8
0
  5
F139
 10
97.3866
 20
171.123
 30
0.000000
  70
    32
  0
VERTEX
  8
0
  5
F13A
 10
97.3739
 20
171.125
 30
0.000000
  70
    32
  0
VERTEX
  8
0
  5
F13B
 10
97.3612
 20
171.128
 30
0.000000
  70
    32
  0
VERTEX
  8
0
  5
F13C
 10
97.3485
 20
171.130
 30
0.000000
  70
    32
  0
VERTEX
  8
0
  5
F13D
 10
97.3358
 20
171.132
 30
0.000000
  70
    32
  0
VERTEX
  8
0
  5
F13E
 10
97.3231
 20
171.134
 30
0.000000
  70
    32
  0
VERTEX
  8
0
  5
F13F
 10
97.3104
 20
171.136
 30
0.000000
  70
    32
  0
VERTEX
  8
0
  5
F140
 10
97.2977
 20
171.138
 30
0.000000
  70
    32
  0
VERTEX
  8
0
  5
F141
 10
97.2850
 20
171.140
 30
0.000000
  70
    32
  0
VERTEX
  8
0
  5
F142
 10
97.2723
 20
171.142
 30
0.000000
  70
    32
  0
VERTEX
  8
0
  5
F143
 10
97.2596
 20
171.144
 30
0.000000
  70
    32
  0
VERTEX
  8
0
  5
F144
 10
97.2469
 20
171.146
 30
0.000000
  70
    32
  0
VERTEX
  8
0
  5
F145
 10
97.2342
 20
171.148
 30
0.000000
  70
    32
  0
VERTEX
  8
0
  5
F146
 10
97.2215
 20
171.150
 30
0.000000
  70
    32
  0
VERTEX
  8
0
  5
F147
 10
97.2088
 20
171.151
 30
0.000000
  70
    32
  0
VERTEX
  8
0
  5
F148
 10
97.1961
 20
171.153
 30
0.000000
  70
    32
  0
VERTEX
  8
0
  5
F149
 10
97.1834
 20
171.155
 30
0.000000
  70
    32
  0
VERTEX
  8
0
  5
F14A
 10
97.1707
 20
171.156
 30
0.000000
  70
    32
  0
VERTEX
  8
0
  5
F14B
 10
97.1580
 20
171.158
 30
0.000000
  70
    32
  0
VERTEX
  8
0
  5
F14C
 10
97.1453
 20
171.159
 30
0.000000
  70
    32
  0
VERTEX
  8
0
  5
F14D
 10
97.1326
 20
171.161
 30
0.000000
  70
    32
  0
VERTEX
  8
0
  5
F14E
 10
97.1199
 20
171.162
 30
0.000000
  70
    32
  0
VERTEX
  8
0
  5
F14F
 10
97.1071
 20
171.163
 30
0.000000
  70
    32
  0
VERTEX
  8
0
  5
F150
 10
97.0944
 20
171.165
 30
0.000000
  70
    32
  0
VERTEX
  8
0
  5
F151
 10
97.0817
 20
171.166
 30
0.000000
  70
    32
  0
VERTEX
  8
0
  5
F152
 10
97.0690
 20
171.167
 30
0.000000
  70
    32
  0
VERTEX
  8
0
  5
F153
 10
97.0563
 20
171.168
 30
0.000000
  70
    32
  0
VERTEX
  8
0
  5
F154
 10
97.0436
 20
171.169
 30
0.000000
  70
    32
  0
VERTEX
  8
0
  5
F155
 10
97.0309
 20
171.170
 30
0.000000
  70
    32
  0
VERTEX
  8
0
  5
F156
 10
97.0181
 20
171.171
 30
0.000000
  70
    32
  0
VERTEX
  8
0
  5
F157
 10
97.0054
 20
171.172
 30
0.000000
  70
    32
  0
VERTEX
  8
0
  5
F158
 10
96.9927
 20
171.173
 30
0.000000
  70
    32
  0
VERTEX
  8
0
  5
F159
 10
96.9800
 20
171.174
 30
0.000000
  70
    32
  0
VERTEX
  8
0
  5
F15A
 10
96.9673
 20
171.175
 30
0.000000
  70
    32
  0
VERTEX
  8
0
  5
F15B
 10
96.9545
 20
171.176
 30
0.000000
  70
    32
  0
VERTEX
  8
0
  5
F15C
 10
96.9418
 20
171.176
 30
0.000000
  70
    32
  0
VERTEX
  8
0
  5
F15D
 10
96.9291
 20
171.177
 30
0.000000
  70
    32
  0
VERTEX
  8
0
  5
F15E
 10
96.9164
 20
171.178
 30
0.000000
  70
    32
  0
VERTEX
  8
0
  5
F15F
 10
96.9037
 20
171.178
 30
0.000000
  70
    32
  0
VERTEX
  8
0
  5
F160
 10
96.8909
 20
171.179
 30
0.000000
  70
    32
  0
VERTEX
  8
0
  5
F161
 10
96.8782
 20
171.179
 30
0.000000
  70
    32
  0
VERTEX
  8
0
  5
F162
 10
96.8655
 20
171.180
 30
0.000000
  70
    32
  0
VERTEX
  8
0
  5
F163
 10
96.8528
 20
171.180
 30
0.000000
  70
    32
  0
VERTEX
  8
0
  5
F164
 10
96.8400
 20
171.180
 30
0.000000
  70
    32
  0
VERTEX
  8
0
  5
F165
 10
96.8273
 20
171.181
 30
0.000000
  70
    32
  0
VERTEX
  8
0
  5
F166
 10
96.8146
 20
171.181
 30
0.000000
  70
    32
  0
VERTEX
  8
0
  5
F167
 10
96.8019
 20
171.181
 30
0.000000
  70
    32
  0
VERTEX
  8
0
  5
F168
 10
96.7891
 20
171.181
 30
0.000000
  70
    32
  0
VERTEX
  8
0
  5
F169
 10
96.7764
 20
171.181
 30
0.000000
  70
    32
  0
VERTEX
  8
0
  5
F16A
 10
96.7637
 20
171.182
 30
0.000000
  70
    32
  0
VERTEX
  8
0
  5
F16B
 10
96.7510
 20
171.182
 30
0.000000
  70
    32
  0
SEQEND
  8
0
  5
F16C
  0
POLYLINE
  5
C704
  8
0
 66
     1
 10
0.0
 20
0.0
 30
0.0
 70
   128
  0
VERTEX
  5
EF3A
  8
0
 10
98.676181735669843
 20
170.431393651458
 30
0.0
  0
VERTEX
  5
EF3B
  8
0
 10
98.602538824111662
 20
170.6305682720936
 30
0.0
  0
VERTEX
  5
EF3C
  8
0
 10
98.369302793540555
 20
170.79967215890639
 30
0.0
  0
SEQEND
  5
EF3D
  8
0
  0
LINE
  5
C705
  8
0
 10
96.061102132371389
 20
170.58458187516439
 30
0.0
 11
96.176181735669843
 21
170.431393651458
 31
0.0
  0
POLYLINE
  5
C706
  8
0
 10
96.061102132371161
 20
170.58458187516462
 30
0.0
 66
     1
 70
     8
  0
VERTEX
  8
0
  5
F16D
 10
96.0611
 20
170.585
 30
0.000000
  70
    32
  0
VERTEX
  8
0
  5
F16E
 10
96.0457
 20
170.594
 30
0.000000
  70
    32
  0
VERTEX
  8
0
  5
F16F
 10
96.0302
 20
170.603
 30
0.000000
  70
    32
  0
VERTEX
  8
0
  5
F170
 10
96.0147
 20
170.612
 30
0.000000
  70
    32
  0
VERTEX
  8
0
  5
F171
 10
95.9993
 20
170.621
 30
0.000000
  70
    32
  0
VERTEX
  8
0
  5
F172
 10
95.9838
 20
170.630
 30
0.000000
  70
    32
  0
VERTEX
  8
0
  5
F173
 10
95.9683
 20
170.639
 30
0.000000
  70
    32
  0
VERTEX
  8
0
  5
F174
 10
95.9528
 20
170.648
 30
0.000000
  70
    32
  0
VERTEX
  8
0
  5
F175
 10
95.9373
 20
170.657
 30
0.000000
  70
    32
  0
VERTEX
  8
0
  5
F176
 10
95.9218
 20
170.665
 30
0.000000
  70
    32
  0
VERTEX
  8
0
  5
F177
 10
95.9063
 20
170.674
 30
0.000000
  70
    32
  0
VERTEX
  8
0
  5
F178
 10
95.8907
 20
170.682
 30
0.000000
  70
    32
  0
VERTEX
  8
0
  5
F179
 10
95.8752
 20
170.691
 30
0.000000
  70
    32
  0
VERTEX
  8
0
  5
F17A
 10
95.8597
 20
170.699
 30
0.000000
  70
    32
  0
VERTEX
  8
0
  5
F17B
 10
95.8441
 20
170.708
 30
0.000000
  70
    32
  0
VERTEX
  8
0
  5
F17C
 10
95.8286
 20
170.716
 30
0.000000
  70
    32
  0
VERTEX
  8
0
  5
F17D
 10
95.8130
 20
170.724
 30
0.000000
  70
    32
  0
VERTEX
  8
0
  5
F17E
 10
95.7975
 20
170.732
 30
0.000000
  70
    32
  0
VERTEX
  8
0
  5
F17F
 10
95.7819
 20
170.740
 30
0.000000
  70
    32
  0
VERTEX
  8
0
  5
F180
 10
95.7663
 20
170.748
 30
0.000000
  70
    32
  0
VERTEX
  8
0
  5
F181
 10
95.7507
 20
170.756
 30
0.000000
  70
    32
  0
VERTEX
  8
0
  5
F182
 10
95.7352
 20
170.764
 30
0.000000
  70
    32
  0
VERTEX
  8
0
  5
F183
 10
95.7196
 20
170.772
 30
0.000000
  70
    32
  0
VERTEX
  8
0
  5
F184
 10
95.7040
 20
170.779
 30
0.000000
  70
    32
  0
VERTEX
  8
0
  5
F185
 10
95.6884
 20
170.787
 30
0.000000
  70
    32
  0
VERTEX
  8
0
  5
F186
 10
95.6727
 20
170.794
 30
0.000000
  70
    32
  0
VERTEX
  8
0
  5
F187
 10
95.6571
 20
170.802
 30
0.000000
  70
    32
  0
VERTEX
  8
0
  5
F188
 10
95.6415
 20
170.809
 30
0.000000
  70
    32
  0
VERTEX
  8
0
  5
F189
 10
95.6259
 20
170.816
 30
0.000000
  70
    32
  0
VERTEX
  8
0
  5
F18A
 10
95.6102
 20
170.824
 30
0.000000
  70
    32
  0
VERTEX
  8
0
  5
F18B
 10
95.5946
 20
170.831
 30
0.000000
  70
    32
  0
VERTEX
  8
0
  5
F18C
 10
95.5789
 20
170.838
 30
0.000000
  70
    32
  0
VERTEX
  8
0
  5
F18D
 10
95.5633
 20
170.845
 30
0.000000
  70
    32
  0
VERTEX
  8
0
  5
F18E
 10
95.5476
 20
170.852
 30
0.000000
  70
    32
  0
VERTEX
  8
0
  5
F18F
 10
95.5320
 20
170.859
 30
0.000000
  70
    32
  0
VERTEX
  8
0
  5
F190
 10
95.5163
 20
170.866
 30
0.000000
  70
    32
  0
VERTEX
  8
0
  5
F191
 10
95.5006
 20
170.872
 30
0.000000
  70
    32
  0
VERTEX
  8
0
  5
F192
 10
95.4849
 20
170.879
 30
0.000000
  70
    32
  0
VERTEX
  8
0
  5
F193
 10
95.4693
 20
170.886
 30
0.000000
  70
    32
  0
VERTEX
  8
0
  5
F194
 10
95.4536
 20
170.892
 30
0.000000
  70
    32
  0
VERTEX
  8
0
  5
F195
 10
95.4379
 20
170.899
 30
0.000000
  70
    32
  0
VERTEX
  8
0
  5
F196
 10
95.4222
 20
170.905
 30
0.000000
  70
    32
  0
VERTEX
  8
0
  5
F197
 10
95.4065
 20
170.911
 30
0.000000
  70
    32
  0
VERTEX
  8
0
  5
F198
 10
95.3908
 20
170.918
 30
0.000000
  70
    32
  0
VERTEX
  8
0
  5
F199
 10
95.3750
 20
170.924
 30
0.000000
  70
    32
  0
VERTEX
  8
0
  5
F19A
 10
95.3593
 20
170.930
 30
0.000000
  70
    32
  0
VERTEX
  8
0
  5
F19B
 10
95.3436
 20
170.936
 30
0.000000
  70
    32
  0
VERTEX
  8
0
  5
F19C
 10
95.3279
 20
170.942
 30
0.000000
  70
    32
  0
VERTEX
  8
0
  5
F19D
 10
95.3121
 20
170.948
 30
0.000000
  70
    32
  0
VERTEX
  8
0
  5
F19E
 10
95.2964
 20
170.953
 30
0.000000
  70
    32
  0
VERTEX
  8
0
  5
F19F
 10
95.2807
 20
170.959
 30
0.000000
  70
    32
  0
VERTEX
  8
0
  5
F1A0
 10
95.2649
 20
170.965
 30
0.000000
  70
    32
  0
VERTEX
  8
0
  5
F1A1
 10
95.2491
 20
170.970
 30
0.000000
  70
    32
  0
VERTEX
  8
0
  5
F1A2
 10
95.2334
 20
170.976
 30
0.000000
  70
    32
  0
VERTEX
  8
0
  5
F1A3
 10
95.2176
 20
170.981
 30
0.000000
  70
    32
  0
VERTEX
  8
0
  5
F1A4
 10
95.2019
 20
170.987
 30
0.000000
  70
    32
  0
VERTEX
  8
0
  5
F1A5
 10
95.1861
 20
170.992
 30
0.000000
  70
    32
  0
VERTEX
  8
0
  5
F1A6
 10
95.1703
 20
170.997
 30
0.000000
  70
    32
  0
VERTEX
  8
0
  5
F1A7
 10
95.1545
 20
171.002
 30
0.000000
  70
    32
  0
VERTEX
  8
0
  5
F1A8
 10
95.1388
 20
171.007
 30
0.000000
  70
    32
  0
VERTEX
  8
0
  5
F1A9
 10
95.1230
 20
171.012
 30
0.000000
  70
    32
  0
VERTEX
  8
0
  5
F1AA
 10
95.1072
 20
171.017
 30
0.000000
  70
    32
  0
VERTEX
  8
0
  5
F1AB
 10
95.0914
 20
171.022
 30
0.000000
  70
    32
  0
VERTEX
  8
0
  5
F1AC
 10
95.0756
 20
171.027
 30
0.000000
  70
    32
  0
VERTEX
  8
0
  5
F1AD
 10
95.0598
 20
171.032
 30
0.000000
  70
    32
  0
VERTEX
  8
0
  5
F1AE
 10
95.0440
 20
171.036
 30
0.000000
  70
    32
  0
VERTEX
  8
0
  5
F1AF
 10
95.0282
 20
171.041
 30
0.000000
  70
    32
  0
VERTEX
  8
0
  5
F1B0
 10
95.0124
 20
171.045
 30
0.000000
  70
    32
  0
VERTEX
  8
0
  5
F1B1
 10
94.9965
 20
171.050
 30
0.000000
  70
    32
  0
VERTEX
  8
0
  5
F1B2
 10
94.9807
 20
171.054
 30
0.000000
  70
    32
  0
VERTEX
  8
0
  5
F1B3
 10
94.9649
 20
171.059
 30
0.000000
  70
    32
  0
VERTEX
  8
0
  5
F1B4
 10
94.9491
 20
171.063
 30
0.000000
  70
    32
  0
VERTEX
  8
0
  5
F1B5
 10
94.9332
 20
171.067
 30
0.000000
  70
    32
  0
VERTEX
  8
0
  5
F1B6
 10
94.9174
 20
171.071
 30
0.000000
  70
    32
  0
VERTEX
  8
0
  5
F1B7
 10
94.9016
 20
171.075
 30
0.000000
  70
    32
  0
VERTEX
  8
0
  5
F1B8
 10
94.8857
 20
171.079
 30
0.000000
  70
    32
  0
VERTEX
  8
0
  5
F1B9
 10
94.8699
 20
171.083
 30
0.000000
  70
    32
  0
VERTEX
  8
0
  5
F1BA
 10
94.8540
 20
171.086
 30
0.000000
  70
    32
  0
VERTEX
  8
0
  5
F1BB
 10
94.8382
 20
171.090
 30
0.000000
  70
    32
  0
VERTEX
  8
0
  5
F1BC
 10
94.8223
 20
171.094
 30
0.000000
  70
    32
  0
VERTEX
  8
0
  5
F1BD
 10
94.8065
 20
171.097
 30
0.000000
  70
    32
  0
VERTEX
  8
0
  5
F1BE
 10
94.7906
 20
171.101
 30
0.000000
  70
    32
  0
VERTEX
  8
0
  5
F1BF
 10
94.7748
 20
171.104
 30
0.000000
  70
    32
  0
VERTEX
  8
0
  5
F1C0
 10
94.7589
 20
171.107
 30
0.000000
  70
    32
  0
VERTEX
  8
0
  5
F1C1
 10
94.7430
 20
171.111
 30
0.000000
  70
    32
  0
VERTEX
  8
0
  5
F1C2
 10
94.7272
 20
171.114
 30
0.000000
  70
    32
  0
VERTEX
  8
0
  5
F1C3
 10
94.7113
 20
171.117
 30
0.000000
  70
    32
  0
VERTEX
  8
0
  5
F1C4
 10
94.6954
 20
171.120
 30
0.000000
  70
    32
  0
VERTEX
  8
0
  5
F1C5
 10
94.6795
 20
171.123
 30
0.000000
  70
    32
  0
VERTEX
  8
0
  5
F1C6
 10
94.6637
 20
171.126
 30
0.000000
  70
    32
  0
VERTEX
  8
0
  5
F1C7
 10
94.6478
 20
171.129
 30
0.000000
  70
    32
  0
VERTEX
  8
0
  5
F1C8
 10
94.6319
 20
171.131
 30
0.000000
  70
    32
  0
VERTEX
  8
0
  5
F1C9
 10
94.6160
 20
171.134
 30
0.000000
  70
    32
  0
VERTEX
  8
0
  5
F1CA
 10
94.6001
 20
171.137
 30
0.000000
  70
    32
  0
VERTEX
  8
0
  5
F1CB
 10
94.5842
 20
171.139
 30
0.000000
  70
    32
  0
VERTEX
  8
0
  5
F1CC
 10
94.5684
 20
171.142
 30
0.000000
  70
    32
  0
VERTEX
  8
0
  5
F1CD
 10
94.5525
 20
171.144
 30
0.000000
  70
    32
  0
VERTEX
  8
0
  5
F1CE
 10
94.5366
 20
171.146
 30
0.000000
  70
    32
  0
VERTEX
  8
0
  5
F1CF
 10
94.5207
 20
171.149
 30
0.000000
  70
    32
  0
VERTEX
  8
0
  5
F1D0
 10
94.5048
 20
171.151
 30
0.000000
  70
    32
  0
VERTEX
  8
0
  5
F1D1
 10
94.4889
 20
171.153
 30
0.000000
  70
    32
  0
VERTEX
  8
0
  5
F1D2
 10
94.4730
 20
171.155
 30
0.000000
  70
    32
  0
VERTEX
  8
0
  5
F1D3
 10
94.4571
 20
171.157
 30
0.000000
  70
    32
  0
VERTEX
  8
0
  5
F1D4
 10
94.4412
 20
171.159
 30
0.000000
  70
    32
  0
VERTEX
  8
0
  5
F1D5
 10
94.4253
 20
171.160
 30
0.000000
  70
    32
  0
VERTEX
  8
0
  5
F1D6
 10
94.4094
 20
171.162
 30
0.000000
  70
    32
  0
VERTEX
  8
0
  5
F1D7
 10
94.3934
 20
171.164
 30
0.000000
  70
    32
  0
VERTEX
  8
0
  5
F1D8
 10
94.3775
 20
171.165
 30
0.000000
  70
    32
  0
VERTEX
  8
0
  5
F1D9
 10
94.3616
 20
171.167
 30
0.000000
  70
    32
  0
VERTEX
  8
0
  5
F1DA
 10
94.3457
 20
171.168
 30
0.000000
  70
    32
  0
VERTEX
  8
0
  5
F1DB
 10
94.3298
 20
171.170
 30
0.000000
  70
    32
  0
VERTEX
  8
0
  5
F1DC
 10
94.3139
 20
171.171
 30
0.000000
  70
    32
  0
VERTEX
  8
0
  5
F1DD
 10
94.2980
 20
171.172
 30
0.000000
  70
    32
  0
VERTEX
  8
0
  5
F1DE
 10
94.2821
 20
171.173
 30
0.000000
  70
    32
  0
VERTEX
  8
0
  5
F1DF
 10
94.2661
 20
171.174
 30
0.000000
  70
    32
  0
VERTEX
  8
0
  5
F1E0
 10
94.2502
 20
171.175
 30
0.000000
  70
    32
  0
VERTEX
  8
0
  5
F1E1
 10
94.2343
 20
171.176
 30
0.000000
  70
    32
  0
VERTEX
  8
0
  5
F1E2
 10
94.2184
 20
171.177
 30
0.000000
  70
    32
  0
VERTEX
  8
0
  5
F1E3
 10
94.2025
 20
171.178
 30
0.000000
  70
    32
  0
VERTEX
  8
0
  5
F1E4
 10
94.1865
 20
171.179
 30
0.000000
  70
    32
  0
VERTEX
  8
0
  5
F1E5
 10
94.1706
 20
171.179
 30
0.000000
  70
    32
  0
VERTEX
  8
0
  5
F1E6
 10
94.1547
 20
171.180
 30
0.000000
  70
    32
  0
VERTEX
  8
0
  5
F1E7
 10
94.1388
 20
171.180
 30
0.000000
  70
    32
  0
VERTEX
  8
0
  5
F1E8
 10
94.1229
 20
171.181
 30
0.000000
  70
    32
  0
VERTEX
  8
0
  5
F1E9
 10
94.1069
 20
171.181
 30
0.000000
  70
    32
  0
VERTEX
  8
0
  5
F1EA
 10
94.0910
 20
171.181
 30
0.000000
  70
    32
  0
VERTEX
  8
0
  5
F1EB
 10
94.0751
 20
171.181
 30
0.000000
  70
    32
  0
VERTEX
  8
0
  5
F1EC
 10
94.0592
 20
171.182
 30
0.000000
  70
    32
  0
VERTEX
  8
0
  5
F1ED
 10
94.0432
 20
171.182
 30
0.000000
  70
    32
  0
SEQEND
  8
0
  5
F1EE
  0
LINE
  5
C707
  8
0
 10
98.676181735669843
 20
170.431393651458
 30
0.0
 11
98.676181735669843
 21
149.1815783360066
 31
0.0
  0
LINE
  5
C708
  8
0
 10
96.176181735669843
 20
170.431393651458
 30
0.0
 11
96.176181735669616
 21
153.18157833600671
 31
0.0
  0
LINE
  5
C70B
  8
0
 10
89.976181735669797
 20
171.1815783360066
 30
0.0
 11
89.976181735669797
 21
163.48157833598719
 31
0.0
  0
LINE
  5
C70D
  8
0
 10
89.876181735669888
 20
163.48157833598719
 30
0.0
 11
89.876181735669888
 21
171.1815783360066
 31
0.0
  0
LINE
  5
C70F
  8
0
 10
100.89269992405271
 20
135.6815783360066
 30
0.0
 11
100.89269992405271
 21
143.6815783360066
 31
0.0
  0
LINE
  5
C710
  8
0
 10
78.859524333408672
 20
141.6815783360066
 30
0.0
 11
78.859524333408672
 21
137.6815783360066
 31
0.0
  0
LINE
  5
C711
  8
0
 10
78.959663547286482
 20
143.6815783360066
 30
0.0
 11
78.959663547286695
 21
135.68157833599571
 31
0.0
  0
LINE
  5
C736
  8
0
 10
100.89269992405271
 20
185.6815783360066
 30
0.0
 11
100.89269992405271
 21
193.6815783360083
 31
0.0
  0
LINE
  5
C737
  8
0
 10
78.859524333408672
 20
191.6815783360066
 30
0.0
 11
78.859524333408672
 21
187.6815783360066
 31
0.0
  0
LINE
  5
C738
  8
0
 10
78.959663547286482
 20
193.6815783360066
 30
0.0
 11
78.959663547286695
 21
185.68157833599571
 31
0.0
  0
LINE
  5
C73A
  8
0
 10
94.526181735669752
 20
206.06157833600659
 30
0.0
 11
85.326181735669934
 21
206.06157833600659
 31
0.0
  0
LINE
  5
C73B
  8
0
 10
85.326181735669934
 20
211.9292283187888
 30
0.0
 11
85.326181735669934
 21
206.06157833600659
 31
0.0
  0
LINE
  5
C73C
  8
0
 10
94.526181735669752
 20
211.06157833600659
 30
0.0
 11
85.326181735669934
 21
211.06157833600659
 31
0.0
  0
LINE
  5
C73D
  8
0
 10
94.526181735670207
 20
211.9292283187888
 30
0.0
 11
94.526181735669752
 21
206.06157833600659
 31
0.0
  0
ARC
  5
C73E
  8
0
 10
83.826181735669252
 20
199.3915783360066
 30
0.0
 40
0.9999999999994823
 50
165.01215289358419
 51
180.0
  0
LINE
  5
C73F
  8
0
 10
82.826181735669707
 20
133.18157833600651
 30
0.0
 11
82.826181735669934
 21
149.1815783360066
 31
0.0
  0
LINE
  5
C740
  8
0
 10
82.826181735669934
 20
171.1706364184277
 30
0.0
 11
82.826181735669934
 21
199.3915783360066
 31
0.0
  0
LINE
  5
C742
  8
0
 10
80.326181735669934
 20
199.3915783360066
 30
0.0
 11
80.326181735669934
 21
133.1815783360066
 31
0.0
  0
ARC
  5
C743
  8
0
 10
83.826181735669252
 20
199.3915783360066
 30
0.0
 40
3.4999999999992908
 50
165.01215289358419
 51
180.0
  0
LINE
  5
C744
  8
0
 10
82.792162437821844
 20
209.06296417732631
 30
0.0
 11
80.445249278137908
 21
200.2967278913878
 31
0.0
  0
ARC
  5
C745
  8
0
 10
81.826181735670389
 20
209.3215783360065
 30
0.0
 40
0.9999999999993605
 50
345.01215289357788
 51
0.0
  0
ARC
  5
C746
  8
0
 10
81.826181735670161
 20
209.3215783360065
 30
0.0
 40
3.4999999999997442
 50
345.01215289358379
 51
0.0
  0
LINE
  5
C747
  8
0
 10
82.860201033517797
 20
199.65019249468691
 30
0.0
 11
85.207114193201733
 21
208.4164287806253
 31
0.0
  0
LINE
  5
C749
  8
0
 10
82.826181735669934
 20
213.08298641795739
 30
0.0
 11
82.826181735669934
 21
209.3215783360065
 31
0.0
  0
ARC
  5
C74A
  8
0
 10
98.026181735667706
 20
209.32157833600641
 30
0.0
 40
0.9999999999978586
 50
179.99999999999349
 51
194.9878471064288
  0
LINE
  5
C74B
  8
0
 10
99.407114193201778
 20
200.2967278913878
 30
0.0
 11
97.060201033517842
 21
209.06296417732639
 31
0.0
  0
ARC
  5
C74C
  8
0
 10
96.026181735669979
 20
199.3915783360066
 30
0.0
 40
3.4999999999997859
 50
0.0
 51
14.987847106415771
  0
LINE
  5
C74D
  8
0
 10
99.526181735669752
 20
133.1815783360066
 30
0.0
 11
99.526181735669752
 21
199.3915783360066
 31
0.0
  0
LINE
  5
C74F
  8
0
 10
97.026181735669752
 20
199.3915783360066
 30
0.0
 11
97.026181735669752
 21
171.1706364184277
 31
0.0
  0
LINE
  5
C750
  8
0
 10
97.026181735669752
 20
149.1815783360066
 30
0.0
 11
97.026181735669979
 21
133.18157833600651
 31
0.0
  0
ARC
  5
C751
  8
0
 10
96.026181735670662
 20
199.3915783360066
 30
0.0
 40
0.9999999999992753
 50
0.0
 51
14.987847106415771
  0
LINE
  5
C752
  8
0
 10
94.645249278137953
 20
208.4164287806253
 30
0.0
 11
96.992162437821875
 21
199.65019249468691
 31
0.0
  0
ARC
  5
C753
  8
0
 10
98.026181735669525
 20
209.3215783360065
 30
0.0
 40
3.49999999999969
 50
180.0
 51
194.98784710641621
  0
LINE
  5
C755
  8
0
 10
97.026181735669752
 20
209.3215783360065
 30
0.0
 11
97.026181735669752
 21
213.08298641795739
 31
0.0
  0
LINE
  5
C762
  8
0
 10
84.826181735669934
 20
149.1815783360066
 30
0.0
 11
84.826181735669934
 21
127.1815783360066
 31
0.0
  0
LINE
  5
C763
  8
0
 10
95.026181735669525
 20
127.18157833600669
 30
0.0
 11
95.026181735669752
 21
149.1815783360066
 31
0.0
  0
LINE
  5
C767
  8
0
 10
70.92618173567007
 20
127.18157833600669
 30
0.0
 11
84.826181735669934
 21
127.1815783360066
 31
0.0
  0
LINE
  5
C768
  8
0
 10
70.926181735669843
 20
124.6815783360066
 30
0.0
 11
84.926181735669616
 21
124.6815783360066
 31
0.0
  0
LINE
  5
C76A
  8
0
 10
108.9261817356698
 20
127.18157833600669
 30
0.0
 11
95.026181735669752
 21
127.1815783360066
 31
0.0
  0
LINE
  5
C76C
  8
0
 10
108.9261817356701
 20
124.6815783360066
 30
0.0
 11
94.926181735670525
 21
124.6815783360066
 31
0.0
  0
LINE
  5
C76E
  8
0
 10
70.926181735669843
 20
127.1815783360066
 30
0.0
 11
70.926181735669843
 21
124.6815783360066
 31
0.0
  0
LINE
  5
C771
  8
0
 10
108.9261817356698
 20
124.6815783360066
 30
0.0
 11
108.9261817356698
 21
127.1815783360066
 31
0.0
  0
LINE
  5
C784
  8
0
 10
343.72618194432022
 20
133.6815783360066
 30
0.0
 11
345.42618194428633
 21
133.6815783360066
 31
0.0
  0
LINE
  5
C785
  8
0
 10
345.42618194428633
 20
145.6815783360066
 30
0.0
 11
343.72618194432022
 21
145.6815783360066
 31
0.0
  0
LINE
  5
C786
  8
0
 10
343.72618194432022
 20
145.68157833604889
 30
0.0
 11
343.52618194430028
 21
145.48157833597179
 31
0.0
  0
LINE
  5
C787
  8
0
 10
343.52618194430028
 20
133.8815783360414
 30
0.0
 11
343.72618194432022
 21
133.6815783359643
 31
0.0
  0
LINE
  5
C788
  8
0
 10
345.42618194428633
 20
133.68157833607299
 30
0.0
 11
345.52618194428669
 21
133.78157833607301
 31
0.0
  0
LINE
  5
C789
  8
0
 10
345.52618194428669
 20
145.58157833594021
 30
0.0
 11
345.42618194428633
 21
145.6815783359402
 31
0.0
  0
LINE
  5
C78A
  8
0
 10
333.07618194428687
 20
145.6815783360066
 30
0.0
 11
331.57618194430052
 21
145.6815783360066
 31
0.0
  0
LINE
  5
C78B
  8
0
 10
331.57618194430052
 20
133.6815783360066
 30
0.0
 11
333.07618194428687
 21
133.6815783360066
 31
0.0
  0
LINE
  5
C78C
  8
0
 10
331.57618194430052
 20
145.68157833604889
 30
0.0
 11
331.32618194430688
 21
145.4315783360548
 31
0.0
  0
LINE
  5
C78D
  8
0
 10
331.32618194430688
 20
133.93157833595839
 30
0.0
 11
331.57618194430052
 21
133.6815783359643
 31
0.0
  0
LINE
  5
C78E
  8
0
 10
333.07618194428687
 20
133.68157833598559
 30
0.0
 11
333.32618194437327
 21
133.93157833601521
 31
0.0
  0
LINE
  5
C78F
  8
0
 10
333.32618194437327
 20
145.4315783359979
 30
0.0
 11
333.07618194428687
 21
145.6815783360276
 31
0.0
  0
LINE
  5
C790
  8
0
 10
333.32618194428687
 20
165.6815783360066
 30
0.0
 11
331.95966375590342
 21
165.6815783360066
 31
0.0
  0
LINE
  5
C791
  8
0
 10
331.95966375590342
 20
157.6815783360066
 30
0.0
 11
333.32618194428687
 21
157.6815783360066
 31
0.0
  0
ARC
  5
C792
  8
0
 10
285.02618194426668
 20
161.6815783360066
 30
0.0
 40
60.00000000002192
 50
1.910213171708192
 51
3.8225537292904468
  0
ARC
  5
C793
  8
0
 10
285.02618194426668
 20
161.6815783360066
 30
0.0
 40
60.00000000002192
 50
356.17744627070948
 51
358.08978682829178
  0
LINE
  5
C794
  8
0
 10
344.89270013266969
 20
165.6815783360066
 30
0.0
 11
343.52618194428669
 21
165.6815783360066
 31
0.0
  0
LINE
  5
C795
  8
0
 10
343.52618194428669
 20
157.6815783360066
 30
0.0
 11
344.89270013266969
 21
157.6815783360066
 31
0.0
  0
ARC
  5
C796
  8
0
 10
391.82618194427329
 20
161.6815783360066
 30
0.0
 40
59.999999999986599
 50
176.17744627072261
 51
180.0
  0
ARC
  5
C797
  8
0
 10
391.82618194427329
 20
161.6815783360066
 30
0.0
 40
59.999999999986599
 50
180.0
 51
183.82255372927091
  0
LINE
  5
C798
  8
0
 10
341.02618194428669
 20
164.6815783360066
 30
0.0
 11
340.97618194428651
 21
164.6815783360066
 31
0.0
  0
LINE
  5
C799
  8
0
 10
335.8761819442866
 20
164.6815783360066
 30
0.0
 11
335.82618194428642
 21
164.6815783360066
 31
0.0
  0
LINE
  5
C79A
  8
0
 10
335.82618194428642
 20
158.6815783360066
 30
0.0
 11
335.8761819442866
 21
158.6815783360066
 31
0.0
  0
LINE
  5
C79B
  8
0
 10
340.97618194428651
 20
158.6815783360066
 30
0.0
 11
341.02618194428669
 21
158.6815783360066
 31
0.0
  0
LINE
  5
C79C
  8
0
 10
345.32618194437327
 20
183.68157833603249
 30
0.0
 11
345.52618194432313
 21
183.88157833598231
 31
0.0
  0
LINE
  5
C79D
  8
0
 10
345.52618194432313
 20
195.48157833603091
 30
0.0
 11
345.32618194437327
 21
195.6815783359807
 31
0.0
  0
LINE
  5
C79E
  8
0
 10
343.6261819442866
 20
183.6815783360066
 30
0.0
 11
345.32618194437327
 21
183.6815783360066
 31
0.0
  0
LINE
  5
C79F
  8
0
 10
345.32618194437327
 20
195.6815783360066
 30
0.0
 11
343.6261819442866
 21
195.6815783360066
 31
0.0
  0
LINE
  5
C7A0
  8
0
 10
343.6261819442866
 20
195.6815783360355
 30
0.0
 11
343.42618194433908
 21
195.48157833608769
 31
0.0
  0
LINE
  5
C7A1
  8
0
 10
343.42618194433908
 20
183.8815783359255
 30
0.0
 11
343.6261819442866
 21
183.68157833597769
 31
0.0
  0
LINE
  5
C7A2
  8
0
 10
333.17618194428633
 20
195.6815783360066
 30
0.0
 11
331.67618194427541
 21
195.6815783360066
 31
0.0
  0
LINE
  5
C7A3
  8
0
 10
331.67618194427541
 20
183.6815783360066
 30
0.0
 11
333.17618194428633
 21
183.6815783360066
 31
0.0
  0
LINE
  5
C7A4
  8
0
 10
331.67618194427541
 20
195.68157833603749
 30
0.0
 11
331.42618194428178
 21
195.4315783360434
 31
0.0
  0
LINE
  5
C7A5
  8
0
 10
331.42618194428178
 20
183.93157833596979
 30
0.0
 11
331.67618194427541
 21
183.6815783359757
 31
0.0
  0
LINE
  5
C7A6
  8
0
 10
333.17618194428633
 20
183.681578336022
 30
0.0
 11
333.42618194429087
 21
183.9315783360266
 31
0.0
  0
LINE
  5
C7A7
  8
0
 10
333.42618194429087
 20
195.43157833598659
 30
0.0
 11
333.17618194428633
 21
195.68157833599111
 31
0.0
  0
LINE
  5
C7AA
  8
0
 10
343.42618194428633
 20
196.6815783360066
 30
0.0
 11
340.92618194428633
 21
196.6815783360066
 31
0.0
  0
LINE
  5
C7AB
  8
0
 10
340.97618194428651
 20
156.1815783360066
 30
0.0
 11
341.02618194428669
 21
156.1815783360066
 31
0.0
  0
LINE
  5
C7AC
  8
0
 10
335.82618194428642
 20
156.1815783360066
 30
0.0
 11
335.8761819442866
 21
156.1815783360066
 31
0.0
  0
LINE
  5
C7AD
  8
0
 10
335.92618194428633
 20
196.6815783360066
 30
0.0
 11
333.42618194428633
 21
196.6815783360066
 31
0.0
  0
LINE
  5
C7AE
  8
0
 10
333.32618194428687
 20
167.1815783360066
 30
0.0
 11
331.95966375590342
 21
167.1815783360066
 31
0.0
  0
ARC
  5
C7AF
  8
0
 10
285.02618194426668
 20
163.1815783360066
 30
0.0
 40
60.000000000021849
 50
1.910213171708192
 51
3.8225537292904468
  0
LINE
  5
C7B0
  8
0
 10
344.89270013266969
 20
167.1815783360066
 30
0.0
 11
343.52618194428669
 21
167.1815783360066
 31
0.0
  0
ARC
  5
C7B1
  8
0
 10
381.59750757377009
 20
163.69381922669481
 30
0.0
 40
49.760225104911733
 50
175.9807685159596
 51
180.7523208041917
  0
LINE
  5
C7B3
  8
0
 10
338.47618194428651
 20
167.6815783360066
 30
0.0
 11
338.3761819442866
 21
167.6815783360066
 31
0.0
  0
LINE
  5
C7B4
  8
0
 10
338.47618194428651
 20
166.1815783360066
 30
0.0
 11
338.3761819442866
 21
166.1815783360066
 31
0.0
  0
LINE
  5
C7B5
  8
0
 10
338.3761819442866
 20
157.1815783360066
 30
0.0
 11
338.47618194428651
 21
157.1815783360066
 31
0.0
  0
LINE
  5
C7B6
  8
0
 10
328.82618194428687
 20
143.6815783360066
 30
0.0
 11
327.45966375590342
 21
143.6815783360066
 31
0.0
  0
LINE
  5
C7B7
  8
0
 10
327.45966375590342
 20
135.6815783360066
 30
0.0
 11
328.82618194428687
 21
135.6815783360066
 31
0.0
  0
ARC
  5
C7B8
  8
0
 10
387.3261819442796
 20
139.6815783360066
 30
0.0
 40
59.999999999993243
 50
176.17744627072261
 51
180.0
  0
ARC
  5
C7B9
  8
0
 10
387.3261819442796
 20
139.6815783360066
 30
0.0
 40
59.999999999993243
 50
180.0
 51
183.82255372927739
  0
ARC
  5
C7BA
  8
0
 10
289.52618194424122
 20
139.6815783360066
 30
0.0
 40
60.000000000046683
 50
1.910213171708192
 51
3.8225537292773901
  0
ARC
  5
C7BB
  8
0
 10
289.52618194424122
 20
139.6815783360066
 30
0.0
 40
60.000000000046683
 50
356.17744627072182
 51
358.08978682829178
  0
LINE
  5
C7BC
  8
0
 10
349.39270013266969
 20
143.6815783360066
 30
0.0
 11
348.02618194428669
 21
143.6815783360066
 31
0.0
  0
LINE
  5
C7BD
  8
0
 10
348.02618194428669
 20
135.6815783360066
 30
0.0
 11
349.39270013266969
 21
135.6815783360066
 31
0.0
  0
LINE
  5
C7BE
  8
0
 10
328.82618194428687
 20
193.6815783360066
 30
0.0
 11
327.45966375590342
 21
193.6815783360066
 31
0.0
  0
LINE
  5
C7BF
  8
0
 10
327.45966375590342
 20
185.6815783360066
 30
0.0
 11
328.82618194428687
 21
185.6815783360066
 31
0.0
  0
ARC
  5
C7C0
  8
0
 10
387.3261819442796
 20
189.6815783360066
 30
0.0
 40
59.999999999993243
 50
176.17744627072261
 51
180.0
  0
ARC
  5
C7C1
  8
0
 10
387.3261819442796
 20
189.6815783360066
 30
0.0
 40
59.999999999993243
 50
180.0
 51
183.82255372927739
  0
ARC
  5
C7C2
  8
0
 10
289.52618194424122
 20
189.6815783360066
 30
0.0
 40
60.000000000046683
 50
1.910213171708192
 51
3.8225537292773901
  0
ARC
  5
C7C3
  8
0
 10
289.52618194424122
 20
189.6815783360066
 30
0.0
 40
60.000000000046683
 50
356.17744627072182
 51
358.08978682829178
  0
LINE
  5
C7C4
  8
0
 10
349.39270013266969
 20
193.6815783360066
 30
0.0
 11
348.02618194428669
 21
193.6815783360066
 31
0.0
  0
LINE
  5
C7C5
  8
0
 10
348.02618194428669
 20
185.6815783360066
 30
0.0
 11
349.39270013266969
 21
185.6815783360066
 31
0.0
  0
LINE
  5
C7C6
  8
0
 10
331.42618194428178
 20
192.6815783360066
 30
0.0
 11
331.32618194428687
 21
192.6815783360066
 31
0.0
  0
LINE
  5
C7C7
  8
0
 10
331.32618194428687
 20
186.6815783360066
 30
0.0
 11
331.42618194428178
 21
186.6815783360066
 31
0.0
  0
LINE
  5
C7C8
  8
0
 10
345.52618194428669
 20
133.1815783360066
 30
0.0
 11
348.02618194428669
 21
133.1815783360066
 31
0.0
  0
LINE
  5
C7C9
  8
0
 10
328.82618194428687
 20
133.1815783360066
 30
0.0
 11
331.32618194428687
 21
133.1815783360066
 31
0.0
  0
LINE
  5
C7CF
  8
0
 10
331.95966375590342
 20
167.1815783360066
 30
0.0
 11
331.95966375590342
 21
157.6815783360066
 31
0.0
  0
LINE
  5
C7D1
  8
0
 10
344.99283934654841
 20
159.68157833600651
 30
0.0
 11
344.99283934654841
 21
163.6815783360066
 31
0.0
  0
LINE
  5
C7D2
  8
0
 10
344.89270013266969
 20
157.68157833599039
 30
0.0
 11
344.89270013266969
 21
167.18157833600671
 31
0.0
  0
ARC
  5
C7D3
  8
0
 10
340.85192316361457
 20
140.47124384478809
 30
0.0
 40
15.989837943184609
 50
270.26608962725942
 51
279.07552684835707
  0
ARC
  5
C7D4
  8
0
 10
341.01134685019503
 20
140.69020456722441
 30
0.0
 40
16.208849970451549
 50
260.82264952416278
 51
269.69895383495037
  0
LINE
  5
C7D5
  8
0
 10
338.42618194428678
 20
124.68883775767129
 30
0.0
 11
338.42618194428678
 21
127.98157833600661
 31
0.0
  0
ARC
  5
C7D7
  8
0
 10
335.8406580793781
 20
140.69453439452599
 30
0.0
 40
16.213181627522641
 50
270.30223427731892
 51
279.1761623635748
  0
ARC
  5
C7D8
  8
0
 10
336.00010415715133
 20
140.4667126159886
 30
0.0
 40
15.98530520330136
 50
260.92321816425681
 51
269.73504128629662
  0
LINE
  5
C7D9
  8
0
 10
335.82618194428642
 20
127.98157833600661
 30
0.0
 11
341.02618194428669
 21
127.98157833600661
 31
0.0
  0
LINE
  5
C7DB
  8
0
 10
335.82618194428642
 20
128.48157833600649
 30
0.0
 11
341.02618194428669
 21
128.48157833600649
 31
0.0
  0
LINE
  5
C7DC
  8
0
 10
343.42618194427178
 20
124.48157833600411
 30
0.0
 11
343.42618194428718
 21
124.6815783360066
 31
0.0
  0
LINE
  5
C7DE
  8
0
 10
333.42618194428678
 20
124.6815783360066
 30
0.0
 11
333.42618194430179
 21
124.48157833600411
 31
0.0
  0
LINE
  5
C7DF
  8
0
 10
333.42618194430179
 20
124.48157833600411
 30
0.0
 11
343.42618194427217
 21
124.48157833600411
 31
0.0
  0
LINE
  5
C7E5
  8
0
 10
331.42618194428178
 20
183.93157833596979
 30
0.0
 11
331.42618194428178
 21
195.4315783360434
 31
0.0
  0
LINE
  5
C7ED
  8
0
 10
340.92618194428633
 20
182.20149569147929
 30
0.0
 11
338.42618194428633
 21
182.20149569147929
 31
0.0
  0
LINE
  5
C804
  8
0
 10
338.42618194428633
 20
182.20149569147929
 30
0.0
 11
335.92618194428633
 21
182.20149569147929
 31
0.0
  0
LINE
  5
C80A
  8
0
 10
335.92618194428678
 20
171.6815783360066
 30
0.0
 11
340.92618194428633
 21
171.68157833600671
 31
0.0
  0
LINE
  5
C81A
  8
0
 10
340.92618194428638
 20
206.06157833600659
 30
0.0
 11
340.92618194428633
 21
171.1815783360066
 31
0.0
  0
LINE
  5
C81B
  8
0
 10
343.42618194428633
 20
168.6815783360066
 30
0.0
 11
343.42618194428633
 21
196.6815783360066
 31
0.0
  0
LINE
  5
C822
  8
0
 10
333.42618194428633
 20
168.6815783360066
 30
0.0
 11
333.42618194428633
 21
196.6815783360066
 31
0.0
  0
LINE
  5
C823
  8
0
 10
335.92618194428633
 20
206.06157833600659
 30
0.0
 11
335.92618194428633
 21
171.1815783360066
 31
0.0
  0
LINE
  5
C825
  8
0
 10
344.99283934654841
 20
163.6815783360066
 30
0.0
 11
344.99283934654841
 21
165.1815783360066
 31
0.0
  0
LINE
  5
C828
  8
0
 10
338.47618194428651
 20
171.1815783360066
 30
0.0
 11
338.47618194428651
 21
155.6815783360066
 31
0.0
  0
LINE
  5
C829
  8
0
 10
338.47618194428651
 20
171.1815783360066
 30
0.0
 11
340.97618194428651
 21
171.1815783360066
 31
0.0
  0
LINE
  5
C82D
  8
0
 10
340.97618194428651
 20
155.81269759950479
 30
0.0
 11
340.97618194428651
 21
171.1815783360066
 31
0.0
  0
LINE
  5
C832
  8
0
 10
335.8761819442866
 20
171.1815783360066
 30
0.0
 11
335.8761819442866
 21
155.777536802626
 31
0.0
  0
LINE
  5
C833
  8
0
 10
335.8761819442866
 20
171.1815783360066
 30
0.0
 11
338.3761819442866
 21
171.1815783360066
 31
0.0
  0
LINE
  5
C834
  8
0
 10
338.3761819442866
 20
155.6815783360066
 30
0.0
 11
338.3761819442866
 21
171.1815783360066
 31
0.0
  0
POLYLINE
  5
C839
  8
0
 10
345.52618194428624
 20
171.17063641842779
 30
0.0
 66
     1
 70
     8
  0
VERTEX
  8
0
  5
F1EF
 10
345.526
 20
171.171
 30
0.000000
  70
    32
  0
VERTEX
  8
0
  5
F1F0
 10
345.524
 20
171.171
 30
0.000000
  70
    32
  0
VERTEX
  8
0
  5
F1F1
 10
345.522
 20
171.171
 30
0.000000
  70
    32
  0
VERTEX
  8
0
  5
F1F2
 10
345.520
 20
171.171
 30
0.000000
  70
    32
  0
VERTEX
  8
0
  5
F1F3
 10
345.518
 20
171.171
 30
0.000000
  70
    32
  0
VERTEX
  8
0
  5
F1F4
 10
345.515
 20
171.171
 30
0.000000
  70
    32
  0
VERTEX
  8
0
  5
F1F5
 10
345.513
 20
171.172
 30
0.000000
  70
    32
  0
VERTEX
  8
0
  5
F1F6
 10
345.511
 20
171.172
 30
0.000000
  70
    32
  0
VERTEX
  8
0
  5
F1F7
 10
345.509
 20
171.172
 30
0.000000
  70
    32
  0
VERTEX
  8
0
  5
F1F8
 10
345.507
 20
171.172
 30
0.000000
  70
    32
  0
VERTEX
  8
0
  5
F1F9
 10
345.505
 20
171.172
 30
0.000000
  70
    32
  0
VERTEX
  8
0
  5
F1FA
 10
345.503
 20
171.172
 30
0.000000
  70
    32
  0
VERTEX
  8
0
  5
F1FB
 10
345.500
 20
171.173
 30
0.000000
  70
    32
  0
VERTEX
  8
0
  5
F1FC
 10
345.498
 20
171.173
 30
0.000000
  70
    32
  0
VERTEX
  8
0
  5
F1FD
 10
345.496
 20
171.173
 30
0.000000
  70
    32
  0
VERTEX
  8
0
  5
F1FE
 10
345.494
 20
171.173
 30
0.000000
  70
    32
  0
VERTEX
  8
0
  5
F1FF
 10
345.492
 20
171.173
 30
0.000000
  70
    32
  0
VERTEX
  8
0
  5
F200
 10
345.490
 20
171.173
 30
0.000000
  70
    32
  0
VERTEX
  8
0
  5
F201
 10
345.487
 20
171.173
 30
0.000000
  70
    32
  0
VERTEX
  8
0
  5
F202
 10
345.485
 20
171.174
 30
0.000000
  70
    32
  0
VERTEX
  8
0
  5
F203
 10
345.483
 20
171.174
 30
0.000000
  70
    32
  0
VERTEX
  8
0
  5
F204
 10
345.481
 20
171.174
 30
0.000000
  70
    32
  0
VERTEX
  8
0
  5
F205
 10
345.479
 20
171.174
 30
0.000000
  70
    32
  0
VERTEX
  8
0
  5
F206
 10
345.477
 20
171.174
 30
0.000000
  70
    32
  0
VERTEX
  8
0
  5
F207
 10
345.475
 20
171.174
 30
0.000000
  70
    32
  0
VERTEX
  8
0
  5
F208
 10
345.472
 20
171.174
 30
0.000000
  70
    32
  0
VERTEX
  8
0
  5
F209
 10
345.470
 20
171.175
 30
0.000000
  70
    32
  0
VERTEX
  8
0
  5
F20A
 10
345.468
 20
171.175
 30
0.000000
  70
    32
  0
VERTEX
  8
0
  5
F20B
 10
345.466
 20
171.175
 30
0.000000
  70
    32
  0
VERTEX
  8
0
  5
F20C
 10
345.464
 20
171.175
 30
0.000000
  70
    32
  0
VERTEX
  8
0
  5
F20D
 10
345.462
 20
171.175
 30
0.000000
  70
    32
  0
VERTEX
  8
0
  5
F20E
 10
345.460
 20
171.175
 30
0.000000
  70
    32
  0
VERTEX
  8
0
  5
F20F
 10
345.457
 20
171.175
 30
0.000000
  70
    32
  0
VERTEX
  8
0
  5
F210
 10
345.455
 20
171.176
 30
0.000000
  70
    32
  0
VERTEX
  8
0
  5
F211
 10
345.453
 20
171.176
 30
0.000000
  70
    32
  0
VERTEX
  8
0
  5
F212
 10
345.451
 20
171.176
 30
0.000000
  70
    32
  0
VERTEX
  8
0
  5
F213
 10
345.449
 20
171.176
 30
0.000000
  70
    32
  0
VERTEX
  8
0
  5
F214
 10
345.447
 20
171.176
 30
0.000000
  70
    32
  0
VERTEX
  8
0
  5
F215
 10
345.444
 20
171.176
 30
0.000000
  70
    32
  0
VERTEX
  8
0
  5
F216
 10
345.442
 20
171.176
 30
0.000000
  70
    32
  0
VERTEX
  8
0
  5
F217
 10
345.440
 20
171.176
 30
0.000000
  70
    32
  0
VERTEX
  8
0
  5
F218
 10
345.438
 20
171.177
 30
0.000000
  70
    32
  0
VERTEX
  8
0
  5
F219
 10
345.436
 20
171.177
 30
0.000000
  70
    32
  0
VERTEX
  8
0
  5
F21A
 10
345.434
 20
171.177
 30
0.000000
  70
    32
  0
VERTEX
  8
0
  5
F21B
 10
345.432
 20
171.177
 30
0.000000
  70
    32
  0
VERTEX
  8
0
  5
F21C
 10
345.429
 20
171.177
 30
0.000000
  70
    32
  0
VERTEX
  8
0
  5
F21D
 10
345.427
 20
171.177
 30
0.000000
  70
    32
  0
VERTEX
  8
0
  5
F21E
 10
345.425
 20
171.177
 30
0.000000
  70
    32
  0
VERTEX
  8
0
  5
F21F
 10
345.423
 20
171.177
 30
0.000000
  70
    32
  0
VERTEX
  8
0
  5
F220
 10
345.421
 20
171.177
 30
0.000000
  70
    32
  0
VERTEX
  8
0
  5
F221
 10
345.419
 20
171.178
 30
0.000000
  70
    32
  0
VERTEX
  8
0
  5
F222
 10
345.417
 20
171.178
 30
0.000000
  70
    32
  0
VERTEX
  8
0
  5
F223
 10
345.414
 20
171.178
 30
0.000000
  70
    32
  0
VERTEX
  8
0
  5
F224
 10
345.412
 20
171.178
 30
0.000000
  70
    32
  0
VERTEX
  8
0
  5
F225
 10
345.410
 20
171.178
 30
0.000000
  70
    32
  0
VERTEX
  8
0
  5
F226
 10
345.408
 20
171.178
 30
0.000000
  70
    32
  0
VERTEX
  8
0
  5
F227
 10
345.406
 20
171.178
 30
0.000000
  70
    32
  0
VERTEX
  8
0
  5
F228
 10
345.404
 20
171.178
 30
0.000000
  70
    32
  0
VERTEX
  8
0
  5
F229
 10
345.401
 20
171.178
 30
0.000000
  70
    32
  0
VERTEX
  8
0
  5
F22A
 10
345.399
 20
171.178
 30
0.000000
  70
    32
  0
VERTEX
  8
0
  5
F22B
 10
345.397
 20
171.178
 30
0.000000
  70
    32
  0
VERTEX
  8
0
  5
F22C
 10
345.395
 20
171.179
 30
0.000000
  70
    32
  0
VERTEX
  8
0
  5
F22D
 10
345.393
 20
171.179
 30
0.000000
  70
    32
  0
VERTEX
  8
0
  5
F22E
 10
345.391
 20
171.179
 30
0.000000
  70
    32
  0
VERTEX
  8
0
  5
F22F
 10
345.389
 20
171.179
 30
0.000000
  70
    32
  0
VERTEX
  8
0
  5
F230
 10
345.386
 20
171.179
 30
0.000000
  70
    32
  0
VERTEX
  8
0
  5
F231
 10
345.384
 20
171.179
 30
0.000000
  70
    32
  0
VERTEX
  8
0
  5
F232
 10
345.382
 20
171.179
 30
0.000000
  70
    32
  0
VERTEX
  8
0
  5
F233
 10
345.380
 20
171.179
 30
0.000000
  70
    32
  0
VERTEX
  8
0
  5
F234
 10
345.378
 20
171.179
 30
0.000000
  70
    32
  0
VERTEX
  8
0
  5
F235
 10
345.376
 20
171.179
 30
0.000000
  70
    32
  0
VERTEX
  8
0
  5
F236
 10
345.374
 20
171.179
 30
0.000000
  70
    32
  0
VERTEX
  8
0
  5
F237
 10
345.371
 20
171.179
 30
0.000000
  70
    32
  0
VERTEX
  8
0
  5
F238
 10
345.369
 20
171.180
 30
0.000000
  70
    32
  0
VERTEX
  8
0
  5
F239
 10
345.367
 20
171.180
 30
0.000000
  70
    32
  0
VERTEX
  8
0
  5
F23A
 10
345.365
 20
171.180
 30
0.000000
  70
    32
  0
VERTEX
  8
0
  5
F23B
 10
345.363
 20
171.180
 30
0.000000
  70
    32
  0
VERTEX
  8
0
  5
F23C
 10
345.361
 20
171.180
 30
0.000000
  70
    32
  0
VERTEX
  8
0
  5
F23D
 10
345.358
 20
171.180
 30
0.000000
  70
    32
  0
VERTEX
  8
0
  5
F23E
 10
345.356
 20
171.180
 30
0.000000
  70
    32
  0
VERTEX
  8
0
  5
F23F
 10
345.354
 20
171.180
 30
0.000000
  70
    32
  0
VERTEX
  8
0
  5
F240
 10
345.352
 20
171.180
 30
0.000000
  70
    32
  0
VERTEX
  8
0
  5
F241
 10
345.350
 20
171.180
 30
0.000000
  70
    32
  0
VERTEX
  8
0
  5
F242
 10
345.348
 20
171.180
 30
0.000000
  70
    32
  0
VERTEX
  8
0
  5
F243
 10
345.346
 20
171.180
 30
0.000000
  70
    32
  0
VERTEX
  8
0
  5
F244
 10
345.343
 20
171.180
 30
0.000000
  70
    32
  0
VERTEX
  8
0
  5
F245
 10
345.341
 20
171.180
 30
0.000000
  70
    32
  0
VERTEX
  8
0
  5
F246
 10
345.339
 20
171.180
 30
0.000000
  70
    32
  0
VERTEX
  8
0
  5
F247
 10
345.337
 20
171.181
 30
0.000000
  70
    32
  0
VERTEX
  8
0
  5
F248
 10
345.335
 20
171.181
 30
0.000000
  70
    32
  0
VERTEX
  8
0
  5
F249
 10
345.333
 20
171.181
 30
0.000000
  70
    32
  0
VERTEX
  8
0
  5
F24A
 10
345.331
 20
171.181
 30
0.000000
  70
    32
  0
VERTEX
  8
0
  5
F24B
 10
345.328
 20
171.181
 30
0.000000
  70
    32
  0
VERTEX
  8
0
  5
F24C
 10
345.326
 20
171.181
 30
0.000000
  70
    32
  0
VERTEX
  8
0
  5
F24D
 10
345.324
 20
171.181
 30
0.000000
  70
    32
  0
VERTEX
  8
0
  5
F24E
 10
345.322
 20
171.181
 30
0.000000
  70
    32
  0
VERTEX
  8
0
  5
F24F
 10
345.320
 20
171.181
 30
0.000000
  70
    32
  0
VERTEX
  8
0
  5
F250
 10
345.318
 20
171.181
 30
0.000000
  70
    32
  0
VERTEX
  8
0
  5
F251
 10
345.315
 20
171.181
 30
0.000000
  70
    32
  0
VERTEX
  8
0
  5
F252
 10
345.313
 20
171.181
 30
0.000000
  70
    32
  0
VERTEX
  8
0
  5
F253
 10
345.311
 20
171.181
 30
0.000000
  70
    32
  0
VERTEX
  8
0
  5
F254
 10
345.309
 20
171.181
 30
0.000000
  70
    32
  0
VERTEX
  8
0
  5
F255
 10
345.307
 20
171.181
 30
0.000000
  70
    32
  0
VERTEX
  8
0
  5
F256
 10
345.305
 20
171.181
 30
0.000000
  70
    32
  0
VERTEX
  8
0
  5
F257
 10
345.303
 20
171.181
 30
0.000000
  70
    32
  0
VERTEX
  8
0
  5
F258
 10
345.300
 20
171.181
 30
0.000000
  70
    32
  0
VERTEX
  8
0
  5
F259
 10
345.298
 20
171.181
 30
0.000000
  70
    32
  0
VERTEX
  8
0
  5
F25A
 10
345.296
 20
171.181
 30
0.000000
  70
    32
  0
VERTEX
  8
0
  5
F25B
 10
345.294
 20
171.181
 30
0.000000
  70
    32
  0
VERTEX
  8
0
  5
F25C
 10
345.292
 20
171.181
 30
0.000000
  70
    32
  0
VERTEX
  8
0
  5
F25D
 10
345.290
 20
171.181
 30
0.000000
  70
    32
  0
VERTEX
  8
0
  5
F25E
 10
345.288
 20
171.181
 30
0.000000
  70
    32
  0
VERTEX
  8
0
  5
F25F
 10
345.285
 20
171.181
 30
0.000000
  70
    32
  0
VERTEX
  8
0
  5
F260
 10
345.283
 20
171.181
 30
0.000000
  70
    32
  0
VERTEX
  8
0
  5
F261
 10
345.281
 20
171.181
 30
0.000000
  70
    32
  0
VERTEX
  8
0
  5
F262
 10
345.279
 20
171.181
 30
0.000000
  70
    32
  0
VERTEX
  8
0
  5
F263
 10
345.277
 20
171.181
 30
0.000000
  70
    32
  0
VERTEX
  8
0
  5
F264
 10
345.275
 20
171.181
 30
0.000000
  70
    32
  0
VERTEX
  8
0
  5
F265
 10
345.272
 20
171.182
 30
0.000000
  70
    32
  0
VERTEX
  8
0
  5
F266
 10
345.270
 20
171.182
 30
0.000000
  70
    32
  0
VERTEX
  8
0
  5
F267
 10
345.268
 20
171.182
 30
0.000000
  70
    32
  0
VERTEX
  8
0
  5
F268
 10
345.266
 20
171.182
 30
0.000000
  70
    32
  0
VERTEX
  8
0
  5
F269
 10
345.264
 20
171.182
 30
0.000000
  70
    32
  0
VERTEX
  8
0
  5
F26A
 10
345.262
 20
171.182
 30
0.000000
  70
    32
  0
VERTEX
  8
0
  5
F26B
 10
345.260
 20
171.182
 30
0.000000
  70
    32
  0
VERTEX
  8
0
  5
F26C
 10
345.257
 20
171.182
 30
0.000000
  70
    32
  0
VERTEX
  8
0
  5
F26D
 10
345.255
 20
171.182
 30
0.000000
  70
    32
  0
VERTEX
  8
0
  5
F26E
 10
345.253
 20
171.182
 30
0.000000
  70
    32
  0
VERTEX
  8
0
  5
F26F
 10
345.251
 20
171.182
 30
0.000000
  70
    32
  0
SEQEND
  8
0
  5
F270
  0
LINE
  5
C83A
  8
0
 10
343.42618194428633
 20
171.1815783360066
 30
0.0
 11
345.2509755054557
 21
171.1815783360066
 31
0.0
  0
LINE
  5
C83B
  8
0
 10
345.52618194428669
 20
153.1815783360066
 30
0.0
 11
343.52618194428669
 21
153.1815783360066
 31
0.0
  0
POLYLINE
  5
C83C
  8
0
 10
331.60138838311741
 20
171.18157833600662
 30
0.0
 66
     1
 70
     8
  0
VERTEX
  8
0
  5
F271
 10
331.601
 20
171.182
 30
0.000000
  70
    32
  0
VERTEX
  8
0
  5
F272
 10
331.599
 20
171.182
 30
0.000000
  70
    32
  0
VERTEX
  8
0
  5
F273
 10
331.597
 20
171.182
 30
0.000000
  70
    32
  0
VERTEX
  8
0
  5
F274
 10
331.595
 20
171.182
 30
0.000000
  70
    32
  0
VERTEX
  8
0
  5
F275
 10
331.593
 20
171.182
 30
0.000000
  70
    32
  0
VERTEX
  8
0
  5
F276
 10
331.591
 20
171.182
 30
0.000000
  70
    32
  0
VERTEX
  8
0
  5
F277
 10
331.588
 20
171.182
 30
0.000000
  70
    32
  0
VERTEX
  8
0
  5
F278
 10
331.586
 20
171.182
 30
0.000000
  70
    32
  0
VERTEX
  8
0
  5
F279
 10
331.584
 20
171.182
 30
0.000000
  70
    32
  0
VERTEX
  8
0
  5
F27A
 10
331.582
 20
171.182
 30
0.000000
  70
    32
  0
VERTEX
  8
0
  5
F27B
 10
331.580
 20
171.182
 30
0.000000
  70
    32
  0
VERTEX
  8
0
  5
F27C
 10
331.578
 20
171.181
 30
0.000000
  70
    32
  0
VERTEX
  8
0
  5
F27D
 10
331.576
 20
171.181
 30
0.000000
  70
    32
  0
VERTEX
  8
0
  5
F27E
 10
331.573
 20
171.181
 30
0.000000
  70
    32
  0
VERTEX
  8
0
  5
F27F
 10
331.571
 20
171.181
 30
0.000000
  70
    32
  0
VERTEX
  8
0
  5
F280
 10
331.569
 20
171.181
 30
0.000000
  70
    32
  0
VERTEX
  8
0
  5
F281
 10
331.567
 20
171.181
 30
0.000000
  70
    32
  0
VERTEX
  8
0
  5
F282
 10
331.565
 20
171.181
 30
0.000000
  70
    32
  0
VERTEX
  8
0
  5
F283
 10
331.563
 20
171.181
 30
0.000000
  70
    32
  0
VERTEX
  8
0
  5
F284
 10
331.561
 20
171.181
 30
0.000000
  70
    32
  0
VERTEX
  8
0
  5
F285
 10
331.558
 20
171.181
 30
0.000000
  70
    32
  0
VERTEX
  8
0
  5
F286
 10
331.556
 20
171.181
 30
0.000000
  70
    32
  0
VERTEX
  8
0
  5
F287
 10
331.554
 20
171.181
 30
0.000000
  70
    32
  0
VERTEX
  8
0
  5
F288
 10
331.552
 20
171.181
 30
0.000000
  70
    32
  0
VERTEX
  8
0
  5
F289
 10
331.550
 20
171.181
 30
0.000000
  70
    32
  0
VERTEX
  8
0
  5
F28A
 10
331.548
 20
171.181
 30
0.000000
  70
    32
  0
VERTEX
  8
0
  5
F28B
 10
331.545
 20
171.181
 30
0.000000
  70
    32
  0
VERTEX
  8
0
  5
F28C
 10
331.543
 20
171.181
 30
0.000000
  70
    32
  0
VERTEX
  8
0
  5
F28D
 10
331.541
 20
171.181
 30
0.000000
  70
    32
  0
VERTEX
  8
0
  5
F28E
 10
331.539
 20
171.181
 30
0.000000
  70
    32
  0
VERTEX
  8
0
  5
F28F
 10
331.537
 20
171.181
 30
0.000000
  70
    32
  0
VERTEX
  8
0
  5
F290
 10
331.535
 20
171.181
 30
0.000000
  70
    32
  0
VERTEX
  8
0
  5
F291
 10
331.533
 20
171.181
 30
0.000000
  70
    32
  0
VERTEX
  8
0
  5
F292
 10
331.530
 20
171.181
 30
0.000000
  70
    32
  0
VERTEX
  8
0
  5
F293
 10
331.528
 20
171.181
 30
0.000000
  70
    32
  0
VERTEX
  8
0
  5
F294
 10
331.526
 20
171.181
 30
0.000000
  70
    32
  0
VERTEX
  8
0
  5
F295
 10
331.524
 20
171.181
 30
0.000000
  70
    32
  0
VERTEX
  8
0
  5
F296
 10
331.522
 20
171.181
 30
0.000000
  70
    32
  0
VERTEX
  8
0
  5
F297
 10
331.520
 20
171.181
 30
0.000000
  70
    32
  0
VERTEX
  8
0
  5
F298
 10
331.518
 20
171.181
 30
0.000000
  70
    32
  0
VERTEX
  8
0
  5
F299
 10
331.515
 20
171.181
 30
0.000000
  70
    32
  0
VERTEX
  8
0
  5
F29A
 10
331.513
 20
171.180
 30
0.000000
  70
    32
  0
VERTEX
  8
0
  5
F29B
 10
331.511
 20
171.180
 30
0.000000
  70
    32
  0
VERTEX
  8
0
  5
F29C
 10
331.509
 20
171.180
 30
0.000000
  70
    32
  0
VERTEX
  8
0
  5
F29D
 10
331.507
 20
171.180
 30
0.000000
  70
    32
  0
VERTEX
  8
0
  5
F29E
 10
331.505
 20
171.180
 30
0.000000
  70
    32
  0
VERTEX
  8
0
  5
F29F
 10
331.502
 20
171.180
 30
0.000000
  70
    32
  0
VERTEX
  8
0
  5
F2A0
 10
331.500
 20
171.180
 30
0.000000
  70
    32
  0
VERTEX
  8
0
  5
F2A1
 10
331.498
 20
171.180
 30
0.000000
  70
    32
  0
VERTEX
  8
0
  5
F2A2
 10
331.496
 20
171.180
 30
0.000000
  70
    32
  0
VERTEX
  8
0
  5
F2A3
 10
331.494
 20
171.180
 30
0.000000
  70
    32
  0
VERTEX
  8
0
  5
F2A4
 10
331.492
 20
171.180
 30
0.000000
  70
    32
  0
VERTEX
  8
0
  5
F2A5
 10
331.490
 20
171.180
 30
0.000000
  70
    32
  0
VERTEX
  8
0
  5
F2A6
 10
331.487
 20
171.180
 30
0.000000
  70
    32
  0
VERTEX
  8
0
  5
F2A7
 10
331.485
 20
171.180
 30
0.000000
  70
    32
  0
VERTEX
  8
0
  5
F2A8
 10
331.483
 20
171.180
 30
0.000000
  70
    32
  0
VERTEX
  8
0
  5
F2A9
 10
331.481
 20
171.179
 30
0.000000
  70
    32
  0
VERTEX
  8
0
  5
F2AA
 10
331.479
 20
171.179
 30
0.000000
  70
    32
  0
VERTEX
  8
0
  5
F2AB
 10
331.477
 20
171.179
 30
0.000000
  70
    32
  0
VERTEX
  8
0
  5
F2AC
 10
331.475
 20
171.179
 30
0.000000
  70
    32
  0
VERTEX
  8
0
  5
F2AD
 10
331.472
 20
171.179
 30
0.000000
  70
    32
  0
VERTEX
  8
0
  5
F2AE
 10
331.470
 20
171.179
 30
0.000000
  70
    32
  0
VERTEX
  8
0
  5
F2AF
 10
331.468
 20
171.179
 30
0.000000
  70
    32
  0
VERTEX
  8
0
  5
F2B0
 10
331.466
 20
171.179
 30
0.000000
  70
    32
  0
VERTEX
  8
0
  5
F2B1
 10
331.464
 20
171.179
 30
0.000000
  70
    32
  0
VERTEX
  8
0
  5
F2B2
 10
331.462
 20
171.179
 30
0.000000
  70
    32
  0
VERTEX
  8
0
  5
F2B3
 10
331.459
 20
171.179
 30
0.000000
  70
    32
  0
VERTEX
  8
0
  5
F2B4
 10
331.457
 20
171.179
 30
0.000000
  70
    32
  0
VERTEX
  8
0
  5
F2B5
 10
331.455
 20
171.178
 30
0.000000
  70
    32
  0
VERTEX
  8
0
  5
F2B6
 10
331.453
 20
171.178
 30
0.000000
  70
    32
  0
VERTEX
  8
0
  5
F2B7
 10
331.451
 20
171.178
 30
0.000000
  70
    32
  0
VERTEX
  8
0
  5
F2B8
 10
331.449
 20
171.178
 30
0.000000
  70
    32
  0
VERTEX
  8
0
  5
F2B9
 10
331.447
 20
171.178
 30
0.000000
  70
    32
  0
VERTEX
  8
0
  5
F2BA
 10
331.444
 20
171.178
 30
0.000000
  70
    32
  0
VERTEX
  8
0
  5
F2BB
 10
331.442
 20
171.178
 30
0.000000
  70
    32
  0
VERTEX
  8
0
  5
F2BC
 10
331.440
 20
171.178
 30
0.000000
  70
    32
  0
VERTEX
  8
0
  5
F2BD
 10
331.438
 20
171.178
 30
0.000000
  70
    32
  0
VERTEX
  8
0
  5
F2BE
 10
331.436
 20
171.178
 30
0.000000
  70
    32
  0
VERTEX
  8
0
  5
F2BF
 10
331.434
 20
171.178
 30
0.000000
  70
    32
  0
VERTEX
  8
0
  5
F2C0
 10
331.432
 20
171.177
 30
0.000000
  70
    32
  0
VERTEX
  8
0
  5
F2C1
 10
331.429
 20
171.177
 30
0.000000
  70
    32
  0
VERTEX
  8
0
  5
F2C2
 10
331.427
 20
171.177
 30
0.000000
  70
    32
  0
VERTEX
  8
0
  5
F2C3
 10
331.425
 20
171.177
 30
0.000000
  70
    32
  0
VERTEX
  8
0
  5
F2C4
 10
331.423
 20
171.177
 30
0.000000
  70
    32
  0
VERTEX
  8
0
  5
F2C5
 10
331.421
 20
171.177
 30
0.000000
  70
    32
  0
VERTEX
  8
0
  5
F2C6
 10
331.419
 20
171.177
 30
0.000000
  70
    32
  0
VERTEX
  8
0
  5
F2C7
 10
331.416
 20
171.177
 30
0.000000
  70
    32
  0
VERTEX
  8
0
  5
F2C8
 10
331.414
 20
171.177
 30
0.000000
  70
    32
  0
VERTEX
  8
0
  5
F2C9
 10
331.412
 20
171.176
 30
0.000000
  70
    32
  0
VERTEX
  8
0
  5
F2CA
 10
331.410
 20
171.176
 30
0.000000
  70
    32
  0
VERTEX
  8
0
  5
F2CB
 10
331.408
 20
171.176
 30
0.000000
  70
    32
  0
VERTEX
  8
0
  5
F2CC
 10
331.406
 20
171.176
 30
0.000000
  70
    32
  0
VERTEX
  8
0
  5
F2CD
 10
331.404
 20
171.176
 30
0.000000
  70
    32
  0
VERTEX
  8
0
  5
F2CE
 10
331.401
 20
171.176
 30
0.000000
  70
    32
  0
VERTEX
  8
0
  5
F2CF
 10
331.399
 20
171.176
 30
0.000000
  70
    32
  0
VERTEX
  8
0
  5
F2D0
 10
331.397
 20
171.176
 30
0.000000
  70
    32
  0
VERTEX
  8
0
  5
F2D1
 10
331.395
 20
171.175
 30
0.000000
  70
    32
  0
VERTEX
  8
0
  5
F2D2
 10
331.393
 20
171.175
 30
0.000000
  70
    32
  0
VERTEX
  8
0
  5
F2D3
 10
331.391
 20
171.175
 30
0.000000
  70
    32
  0
VERTEX
  8
0
  5
F2D4
 10
331.389
 20
171.175
 30
0.000000
  70
    32
  0
VERTEX
  8
0
  5
F2D5
 10
331.386
 20
171.175
 30
0.000000
  70
    32
  0
VERTEX
  8
0
  5
F2D6
 10
331.384
 20
171.175
 30
0.000000
  70
    32
  0
VERTEX
  8
0
  5
F2D7
 10
331.382
 20
171.175
 30
0.000000
  70
    32
  0
VERTEX
  8
0
  5
F2D8
 10
331.380
 20
171.174
 30
0.000000
  70
    32
  0
VERTEX
  8
0
  5
F2D9
 10
331.378
 20
171.174
 30
0.000000
  70
    32
  0
VERTEX
  8
0
  5
F2DA
 10
331.376
 20
171.174
 30
0.000000
  70
    32
  0
VERTEX
  8
0
  5
F2DB
 10
331.373
 20
171.174
 30
0.000000
  70
    32
  0
VERTEX
  8
0
  5
F2DC
 10
331.371
 20
171.174
 30
0.000000
  70
    32
  0
VERTEX
  8
0
  5
F2DD
 10
331.369
 20
171.174
 30
0.000000
  70
    32
  0
VERTEX
  8
0
  5
F2DE
 10
331.367
 20
171.174
 30
0.000000
  70
    32
  0
VERTEX
  8
0
  5
F2DF
 10
331.365
 20
171.173
 30
0.000000
  70
    32
  0
VERTEX
  8
0
  5
F2E0
 10
331.363
 20
171.173
 30
0.000000
  70
    32
  0
VERTEX
  8
0
  5
F2E1
 10
331.361
 20
171.173
 30
0.000000
  70
    32
  0
VERTEX
  8
0
  5
F2E2
 10
331.358
 20
171.173
 30
0.000000
  70
    32
  0
VERTEX
  8
0
  5
F2E3
 10
331.356
 20
171.173
 30
0.000000
  70
    32
  0
VERTEX
  8
0
  5
F2E4
 10
331.354
 20
171.173
 30
0.000000
  70
    32
  0
VERTEX
  8
0
  5
F2E5
 10
331.352
 20
171.173
 30
0.000000
  70
    32
  0
VERTEX
  8
0
  5
F2E6
 10
331.350
 20
171.172
 30
0.000000
  70
    32
  0
VERTEX
  8
0
  5
F2E7
 10
331.348
 20
171.172
 30
0.000000
  70
    32
  0
VERTEX
  8
0
  5
F2E8
 10
331.346
 20
171.172
 30
0.000000
  70
    32
  0
VERTEX
  8
0
  5
F2E9
 10
331.343
 20
171.172
 30
0.000000
  70
    32
  0
VERTEX
  8
0
  5
F2EA
 10
331.341
 20
171.172
 30
0.000000
  70
    32
  0
VERTEX
  8
0
  5
F2EB
 10
331.339
 20
171.172
 30
0.000000
  70
    32
  0
VERTEX
  8
0
  5
F2EC
 10
331.337
 20
171.171
 30
0.000000
  70
    32
  0
VERTEX
  8
0
  5
F2ED
 10
331.335
 20
171.171
 30
0.000000
  70
    32
  0
VERTEX
  8
0
  5
F2EE
 10
331.333
 20
171.171
 30
0.000000
  70
    32
  0
VERTEX
  8
0
  5
F2EF
 10
331.330
 20
171.171
 30
0.000000
  70
    32
  0
VERTEX
  8
0
  5
F2F0
 10
331.328
 20
171.171
 30
0.000000
  70
    32
  0
VERTEX
  8
0
  5
F2F1
 10
331.326
 20
171.171
 30
0.000000
  70
    32
  0
SEQEND
  8
0
  5
F2F2
  0
LINE
  5
C83D
  8
0
 10
331.60138838311741
 20
171.1815783360066
 30
0.0
 11
333.42618194428633
 21
171.1815783360066
 31
0.0
  0
LINE
  5
C83E
  8
0
 10
333.32618194428687
 20
153.1815783360066
 30
0.0
 11
331.32618194428687
 21
153.1815783360066
 31
0.0
  0
LINE
  5
C845
  8
0
 10
345.52618194428669
 20
149.1815783360066
 30
0.0
 11
343.52618194428669
 21
149.1815783360066
 31
0.0
  0
LINE
  5
C846
  8
0
 10
333.32618194428642
 20
149.1815783360066
 30
0.0
 11
331.32618194428687
 21
149.1815783360066
 31
0.0
  0
LINE
  5
C848
  8
0
 10
327.45966375590342
 20
143.6815783360066
 30
0.0
 11
327.45966375590342
 21
135.6815783360066
 31
0.0
  0
LINE
  5
C849
  8
0
 10
349.49283934654801
 20
137.6815783360066
 30
0.0
 11
349.49283934654801
 21
141.6815783360066
 31
0.0
  0
LINE
  5
C84A
  8
0
 10
349.39270013266969
 20
135.68157833599571
 30
0.0
 11
349.39270013266969
 21
143.68157833601751
 31
0.0
  0
LINE
  5
C851
  8
0
 10
343.02618194428669
 20
221.25366662437361
 30
0.0
 11
345.52618194428669
 21
221.25366662437361
 31
0.0
  0
LINE
  5
C854
  8
0
 10
331.32618194428687
 20
221.25366662437369
 30
0.0
 11
333.82618194428687
 21
221.25366662437361
 31
0.0
  0
LINE
  5
C883
  8
0
 10
327.45966375590342
 20
193.6815783360083
 30
0.0
 11
327.45966375590342
 21
185.6815783360066
 31
0.0
  0
LINE
  5
C885
  8
0
 10
349.49283934654801
 20
187.6815783360066
 30
0.0
 11
349.49283934654801
 21
191.6815783359998
 31
0.0
  0
LINE
  5
C886
  8
0
 10
349.39270013266969
 20
185.68157833599571
 30
0.0
 11
349.39270013266969
 21
193.68157833601751
 31
0.0
  0
ARC
  5
C887
  8
0
 10
346.52618194428618
 20
209.3215783360065
 30
0.0
 40
3.499999999999718
 50
180.0
 51
194.98784710641621
  0
LINE
  5
C888
  8
0
 10
343.02618194428669
 20
221.25366662437361
 30
0.0
 11
343.02618194428669
 21
206.06157833600659
 31
0.0
  0
LINE
  5
C889
  8
0
 10
345.52618194428669
 20
209.3215783360065
 30
0.0
 11
345.52618194428669
 21
221.25366662437361
 31
0.0
  0
ARC
  5
C88A
  8
0
 10
346.52618194428578
 20
209.3215783360065
 30
0.0
 40
0.9999999999993999
 50
179.99999999999349
 51
194.98784710642209
  0
LINE
  5
C88B
  8
0
 10
347.90711440181849
 20
200.2967278913878
 30
0.0
 11
345.56020124213461
 21
209.06296417732631
 31
0.0
  0
ARC
  5
C88C
  8
0
 10
344.5261819442876
 20
199.3915783360066
 30
0.0
 40
3.499999999999317
 50
0.0
 51
14.98784710641576
  0
LINE
  5
C88D
  8
0
 10
348.02618194428669
 20
133.1815783360066
 30
0.0
 11
348.02618194428669
 21
199.3915783360066
 31
0.0
  0
LINE
  5
C88F
  8
0
 10
345.52618194428669
 20
199.3915783360066
 30
0.0
 11
345.52618194428669
 21
133.1815783360066
 31
0.0
  0
ARC
  5
C890
  8
0
 10
344.5261819442872
 20
199.3915783360066
 30
0.0
 40
0.9999999999995453
 50
0.0
 51
14.98784710641576
  0
LINE
  5
C891
  8
0
 10
343.14524948675438
 20
208.4164287806253
 30
0.0
 11
345.49216264643837
 21
199.65019249468691
 31
0.0
  0
ARC
  5
C892
  8
0
 10
332.32618194428642
 20
199.3915783360066
 30
0.0
 40
3.499999999999829
 50
165.01215289358419
 51
180.0
  0
LINE
  5
C893
  8
0
 10
331.2921626464385
 20
209.06296417732639
 30
0.0
 11
328.94524948675462
 21
200.2967278913878
 31
0.0
  0
ARC
  5
C894
  8
0
 10
330.32618194428869
 20
209.32157833600641
 30
0.0
 40
0.9999999999978967
 50
345.01215289357123
 51
0.0000000000065138
  0
LINE
  5
C895
  8
0
 10
331.32618194428687
 20
221.25366662437361
 30
0.0
 11
331.32618194428687
 21
209.3215783360065
 31
0.0
  0
LINE
  5
C896
  8
0
 10
333.82618194428687
 20
206.06157833600659
 30
0.0
 11
333.82618194428687
 21
221.25366662437361
 31
0.0
  0
ARC
  5
C897
  8
0
 10
330.32618194428687
 20
209.3215783360065
 30
0.0
 40
3.4999999999997722
 50
345.01215289358379
 51
0.0
  0
LINE
  5
C898
  8
0
 10
331.36020124213428
 20
199.65019249468691
 30
0.0
 11
333.70711440181873
 21
208.4164287806253
 31
0.0
  0
ARC
  5
C899
  8
0
 10
332.32618194428602
 20
199.3915783360066
 30
0.0
 40
0.9999999999993303
 50
165.01215289358419
 51
180.0
  0
LINE
  5
C89A
  8
0
 10
331.32618194428687
 20
133.1815783360066
 30
0.0
 11
331.32618194428687
 21
199.3915783360066
 31
0.0
  0
LINE
  5
C89C
  8
0
 10
328.82618194428687
 20
199.3915783360066
 30
0.0
 11
328.82618194428687
 21
133.1815783360066
 31
0.0
  0
LINE
  5
C8A2
  8
0
 10
333.82618194428687
 20
206.06157833600659
 30
0.0
 11
343.02618194428669
 21
206.06157833600659
 31
0.0
  0
LINE
  5
C8A4
  8
0
 10
343.02618194428669
 20
211.06157833600659
 30
0.0
 11
333.82618194428687
 21
211.06157833600659
 31
0.0
  0
POLYLINE
  5
C8A5
  8
0
 66
     1
 10
0.0
 20
0.0
 30
0.0
 70
   128
  0
VERTEX
  5
EF3E
  8
0
 10
343.38028391053649
 20
130.6815783360066
 30
0.0
  0
VERTEX
  5
EF3F
  8
0
 10
343.45293677133208
 20
130.66077530903641
 30
0.0
  0
VERTEX
  5
EF40
  8
0
 10
343.50121526120171
 20
130.59481290439129
 30
0.0
  0
VERTEX
  5
EF41
  8
0
 10
343.52014204814083
 20
130.51701240938081
 30
0.0
  0
VERTEX
  5
EF42
  8
0
 10
343.52618194428669
 20
130.41362914357541
 30
0.0
  0
SEQEND
  5
EF43
  8
0
  0
LINE
  5
C8A6
  8
0
 10
343.38028391053649
 20
130.6815783360066
 30
0.0
 11
333.47207997803707
 21
130.6815783360066
 31
0.0
  0
LINE
  5
C8A8
  8
0
 10
333.47207997803707
 20
155.6815783360066
 30
0.0
 11
343.38028391053649
 21
155.6815783360066
 31
0.0
  0
POLYLINE
  5
C8A9
  8
0
 66
     1
 10
0.0
 20
0.0
 30
0.0
 70
   128
  0
VERTEX
  5
EF44
  8
0
 10
343.52618194428669
 20
155.94952752843781
 30
0.0
  0
VERTEX
  5
EF45
  8
0
 10
343.51592114861069
 20
155.82042477406901
 30
0.0
  0
VERTEX
  5
EF46
  8
0
 10
343.48133810666332
 20
155.730922827212
 30
0.0
  0
VERTEX
  5
EF47
  8
0
 10
343.43867903513268
 20
155.69396772332041
 30
0.0
  0
VERTEX
  5
EF48
  8
0
 10
343.38028391053649
 20
155.6815783360066
 30
0.0
  0
SEQEND
  5
EF49
  8
0
  0
POLYLINE
  5
C8AE
  8
0
 66
     1
 10
0.0
 20
0.0
 30
0.0
 70
   128
  0
VERTEX
  5
EF4A
  8
0
 10
333.32618194428687
 20
130.41362914357541
 30
0.0
  0
VERTEX
  5
EF4B
  8
0
 10
333.37102578191019
 20
130.63223384480119
 30
0.0
  0
VERTEX
  5
EF4C
  8
0
 10
333.47207997803707
 20
130.6815783360066
 30
0.0
  0
SEQEND
  5
EF4D
  8
0
  0
POLYLINE
  5
C8B0
  8
0
 66
     1
 10
0.0
 20
0.0
 30
0.0
 70
   128
  0
VERTEX
  5
EF4E
  8
0
 10
333.47207997803707
 20
155.6815783360066
 30
0.0
  0
VERTEX
  5
EF4F
  8
0
 10
333.35114862737151
 20
155.7683437676219
 30
0.0
  0
VERTEX
  5
EF50
  8
0
 10
333.32618194428687
 20
155.94952752843781
 30
0.0
  0
SEQEND
  5
EF51
  8
0
  0
LINE
  5
C8B5
  8
0
 10
341.02618194428669
 20
124.6815783360066
 30
0.0
 11
341.02618194428669
 21
130.41362914357541
 31
0.0
  0
POLYLINE
  5
C8B6
  8
0
 66
     1
 10
0.0
 20
0.0
 30
0.0
 70
   128
  0
VERTEX
  5
EF52
  8
0
 10
340.02618194428669
 20
130.6815783360066
 30
0.0
  0
VERTEX
  5
EF53
  8
0
 10
340.35647000393419
 20
130.6807908224643
 30
0.0
  0
VERTEX
  5
EF54
  8
0
 10
340.64961283979568
 20
130.6696485036928
 30
0.0
  0
VERTEX
  5
EF55
  8
0
 10
340.8694595870702
 20
130.6273618763812
 30
0.0
  0
VERTEX
  5
EF56
  8
0
 10
340.99235112000719
 20
130.5388077654938
 30
0.0
  0
VERTEX
  5
EF57
  8
0
 10
341.02618194428669
 20
130.41362914357541
 30
0.0
  0
SEQEND
  5
EF58
  8
0
  0
POLYLINE
  5
C8B7
  8
0
 66
     1
 10
0.0
 20
0.0
 30
0.0
 70
   128
  0
VERTEX
  5
EF59
  8
0
 10
340.02618194428669
 20
155.6815783360066
 30
0.0
  0
VERTEX
  5
EF5A
  8
0
 10
340.35647000393419
 20
155.68236584954869
 30
0.0
  0
VERTEX
  5
EF5B
  8
0
 10
340.64961283979568
 20
155.69350816832051
 30
0.0
  0
VERTEX
  5
EF5C
  8
0
 10
340.8694595870702
 20
155.73579479563199
 30
0.0
  0
VERTEX
  5
EF5D
  8
0
 10
340.99235112000719
 20
155.82434890651939
 30
0.0
  0
VERTEX
  5
EF5E
  8
0
 10
341.02618194428669
 20
155.94952752843781
 30
0.0
  0
SEQEND
  5
EF5F
  8
0
  0
LINE
  5
C8B8
  8
0
 10
341.02618194428669
 20
155.94952752843781
 30
0.0
 11
341.02618194428669
 21
168.6815783360066
 31
0.0
  0
LINE
  5
C8BD
  8
0
 10
335.82618194428642
 20
155.94952752843781
 30
0.0
 11
335.82618194428642
 21
168.6815783360066
 31
0.0
  0
POLYLINE
  5
C8BE
  8
0
 66
     1
 10
0.0
 20
0.0
 30
0.0
 70
   128
  0
VERTEX
  5
EF60
  8
0
 10
335.82618194428642
 20
155.94952752843781
 30
0.0
  0
VERTEX
  5
EF61
  8
0
 10
335.87162106588772
 20
155.808821425015
 30
0.0
  0
VERTEX
  5
EF62
  8
0
 10
336.01640428233623
 20
155.72474068974589
 30
0.0
  0
VERTEX
  5
EF63
  8
0
 10
336.23685086328078
 20
155.69082612338241
 30
0.0
  0
VERTEX
  5
EF64
  8
0
 10
336.52153720137358
 20
155.6821432848464
 30
0.0
  0
VERTEX
  5
EF65
  8
0
 10
336.82618194428642
 20
155.6815783360066
 30
0.0
  0
SEQEND
  5
EF66
  8
0
  0
POLYLINE
  5
C8BF
  8
0
 66
     1
 10
0.0
 20
0.0
 30
0.0
 70
   128
  0
VERTEX
  5
EF67
  8
0
 10
335.82618194428642
 20
130.41362914357541
 30
0.0
  0
VERTEX
  5
EF68
  8
0
 10
335.87162106588772
 20
130.55433524699819
 30
0.0
  0
VERTEX
  5
EF69
  8
0
 10
336.01640428233623
 20
130.6384159822673
 30
0.0
  0
VERTEX
  5
EF6A
  8
0
 10
336.23685086328078
 20
130.67233054863081
 30
0.0
  0
VERTEX
  5
EF6B
  8
0
 10
336.52153720137358
 20
130.68101338716679
 30
0.0
  0
VERTEX
  5
EF6C
  8
0
 10
336.82618194428642
 20
130.6815783360066
 30
0.0
  0
SEQEND
  5
EF6D
  8
0
  0
LINE
  5
C8C0
  8
0
 10
335.82618194428687
 20
124.6815783360066
 30
0.0
 11
335.82618194428642
 21
130.41362914357541
 31
0.0
  0
LINE
  5
C8C4
  8
0
 10
357.42618194428633
 20
127.1815783360066
 30
0.0
 11
343.52618194428669
 21
127.1815783360066
 31
0.0
  0
LINE
  5
C8C5
  8
0
 10
341.02618194428669
 20
124.6815783360066
 30
0.0
 11
357.42618194428633
 21
124.6815783360066
 31
0.0
  0
LINE
  5
C8C8
  8
0
 10
333.32618194428642
 20
127.1815783360066
 30
0.0
 11
319.42618194428678
 21
127.18157833600669
 31
0.0
  0
LINE
  5
C8C9
  8
0
 10
319.42618194428678
 20
124.68157833600669
 30
0.0
 11
335.82618194428642
 21
124.6815783360066
 31
0.0
  0
LINE
  5
C8CD
  8
0
 10
357.42618194428633
 20
124.6815783360066
 30
0.0
 11
357.42618194428633
 21
127.1815783360066
 31
0.0
  0
LINE
  5
C8D1
  8
0
 10
341.02618194428669
 20
168.6815783360066
 30
0.0
 11
343.52618194428669
 21
168.6815783360066
 31
0.0
  0
LINE
  5
C8D3
  8
0
 10
343.52618194428669
 20
127.1815783360065
 30
0.0
 11
343.52618194428669
 21
168.6815783360066
 31
0.0
  0
LINE
  5
C8D6
  8
0
 10
333.32618194428687
 20
168.6815783360066
 30
0.0
 11
335.82618194428687
 21
168.6815783360066
 31
0.0
  0
LINE
  5
C8D8
  8
0
 10
333.32618194428687
 20
168.6815783360066
 30
0.0
 11
333.32618194428278
 21
127.1815783360066
 31
0.0
  0
LINE
  5
C8DC
  8
0
 10
319.42618194428633
 20
127.1815783360066
 30
0.0
 11
319.42618194428633
 21
124.6815783360066
 31
0.0
  0
LINE
  5
C8E1
  8
0
 10
220.62618110982109
 20
40.372437184330913
 30
0.0
 11
220.62618110982109
 21
38.672437184364753
 31
0.0
  0
LINE
  5
C8E2
  8
0
 10
220.82618110985601
 20
40.572437184351188
 30
0.0
 11
220.6261811097788
 21
40.372437184330913
 31
0.0
  0
LINE
  5
C8E3
  8
0
 10
220.62618110988751
 20
38.672437184364753
 30
0.0
 11
220.72618110988739
 21
38.57243718436473
 31
0.0
  0
LINE
  5
C8E4
  8
0
 10
220.62618110982109
 20
52.522437184350572
 30
0.0
 11
220.62618110982109
 21
51.022437184364662
 31
0.0
  0
LINE
  5
C8E5
  8
0
 10
220.87618110977289
 20
52.77243718434466
 30
0.0
 11
220.6261811097788
 21
52.522437184350572
 31
0.0
  0
LINE
  5
C8E6
  8
0
 10
220.6261811098002
 20
51.022437184364662
 30
0.0
 11
220.87618110982979
 21
50.77243718427826
 31
0.0
  0
LINE
  5
C8E7
  8
0
 10
231.12618110982109
 20
43.07243718436473
 30
0.0
 11
231.12618110982109
 21
48.272437184364662
 31
0.0
  0
LINE
  5
C8E8
  8
0
 10
222.12618110982109
 20
48.272437184364662
 30
0.0
 11
222.12618110982109
 21
43.07243718436473
 31
0.0
  0
LINE
  5
C8E9
  8
0
 10
248.9261811098213
 20
43.07243718436473
 30
0.0
 11
248.9261811098213
 21
43.122437184364571
 31
0.0
  0
LINE
  5
C8EA
  8
0
 10
248.9261811098213
 20
48.222437184364708
 30
0.0
 11
248.9261811098213
 21
48.272437184364662
 31
0.0
  0
LINE
  5
C8EB
  8
0
 10
242.9261811098213
 20
48.272437184364662
 30
0.0
 11
242.9261811098213
 21
48.222437184364708
 31
0.0
  0
LINE
  5
C8EC
  8
0
 10
242.9261811098213
 20
43.122437184364571
 30
0.0
 11
242.9261811098213
 21
43.07243718436473
 31
0.0
  0
LINE
  5
C8ED
  8
0
 10
213.02618110982121
 20
47.845015348062809
 30
0.0
 11
213.02618110982121
 21
43.499859020666229
 31
0.0
  0
LINE
  5
C8F2
  8
0
 10
250.4261811098213
 20
45.622437184364571
 30
0.0
 11
250.4261811098213
 21
45.722437184364701
 31
0.0
  0
LINE
  5
C8F3
  8
0
 10
241.4261811098213
 20
45.722437184364701
 30
0.0
 11
241.4261811098213
 21
45.622437184364571
 31
0.0
  0
LINE
  5
C8F4
  8
0
 10
230.62618110982109
 20
56.438849797797388
 30
0.0
 11
230.62618110982109
 21
56.63895537274766
 31
0.0
  0
LINE
  5
C8F5
  8
0
 10
222.62618110982109
 20
56.63895537274766
 30
0.0
 11
222.62618110982109
 21
55.272437184364662
 31
0.0
  0
POLYLINE
  5
C8F6
  8
0
 66
     1
 10
0.0
 20
0.0
 30
0.0
 70
   128
  0
VERTEX
  5
EF6E
  8
0
 10
230.6261811098243
 20
56.63895537274766
 30
0.0
  0
VERTEX
  5
EF6F
  8
0
 10
230.12678986346779
 20
56.670231286935064
 30
0.0
  0
VERTEX
  5
EF70
  8
0
 10
229.73960240240831
 20
56.691604467087473
 30
0.0
  0
SEQEND
  5
EF71
  8
0
  0
ARC
  5
C8F7
  8
0
 10
226.62618110982109
 20
-3.2275628156282892
 30
0.0
 40
59.999999999993321
 50
92.579181051652526
 51
93.822553729270808
  0
ARC
  5
C8F8
  8
0
 10
226.62618110982109
 20
94.572437184409964
 30
0.0
 40
60.00000000004669
 50
272.97443418295501
 51
273.82255372928392
  0
ARC
  5
C8F9
  8
0
 10
226.62618110982109
 20
94.572437184409964
 30
0.0
 40
60.000000000046697
 50
266.17744627071608
 51
267.42081894834752
  0
LINE
  5
C8FA
  8
0
 10
230.62618110982109
 20
34.705918995981619
 30
0.0
 11
230.62618110982109
 21
34.906024570932011
 31
0.0
  0
LINE
  5
C8FB
  8
0
 10
222.62618110982109
 20
36.07243718436473
 30
0.0
 11
222.62618110982109
 21
34.705918995981619
 31
0.0
  0
ARC
  5
C912
  8
0
 10
176.9261811098211
 20
45.67243718436464
 30
0.0
 40
6.4613248654268256
 50
331.83323908463018
 51
28.166760915369281
  0
ARC
  5
C913
  8
0
 10
176.9261811098211
 20
45.67243718436464
 30
0.0
 40
6.7500000000000062
 50
333.13744094263882
 51
26.862559057360748
  0
ARC
  5
C914
  8
0
 10
176.9261811098211
 20
45.67243718436464
 30
0.0
 40
6.4613248654268354
 50
158.2179498555783
 51
201.78205014442119
  0
ARC
  5
C915
  8
0
 10
176.9261811098211
 20
45.67243718436464
 30
0.0
 40
6.75
 50
152.7339555492685
 51
207.26604445073099
  0
LINE
  5
C91C
  8
0
 10
182.6996838017362
 20
45.672437184364753
 30
0.0
 11
179.8129324557155
 21
50.672437184365322
 31
0.0
  0
LINE
  5
C91E
  8
0
 10
171.15267841791041
 20
45.672437184364753
 30
0.0
 11
174.03942976392219
 21
40.672437184364178
 31
0.0
  0
LINE
  5
C920
  8
0
 10
179.81293245576941
 20
40.672437184364178
 30
0.0
 11
182.69968380170889
 21
45.672437184411592
 31
0.0
  0
LINE
  5
C922
  8
0
 10
174.03942976387339
 20
40.672437184364178
 30
0.0
 11
179.8129324557874
 21
40.672437184395342
 31
0.0
  0
LINE
  5
C925
  8
0
 10
174.0394297638727
 20
50.672437184365208
 30
0.0
 11
171.15267841793499
 21
45.672437184322227
 31
0.0
  0
LINE
  5
C927
  8
0
 10
179.81293245576941
 20
50.672437184365208
 30
0.0
 11
174.03942976385471
 21
50.672437184334278
 31
0.0
  0
LINE
  5
C928
  8
0
 10
216.9261811098213
 20
46.22243619922051
 30
0.0
 11
216.9261811098213
 21
45.122438169508648
 31
0.0
  0
LINE
  5
C92A
  8
0
 10
219.62618110982109
 20
45.722437184364821
 30
0.0
 11
219.62618110982109
 21
45.622437184364571
 31
0.0
  0
LINE
  5
C93E
  8
0
 10
219.9261811098213
 20
43.07243718436473
 30
0.0
 11
219.9261811098213
 21
43.122437184364571
 31
0.0
  0
LINE
  5
C941
  8
0
 10
219.9261811098213
 20
48.272437184364662
 30
0.0
 11
219.9261811098213
 21
48.222437184364708
 31
0.0
  0
ARC
  5
C944
  8
0
 10
216.9261811098213
 20
43.672437184364519
 30
0.0
 40
3.0
 50
225.36254025669871
 51
270.0
  0
LINE
  5
C945
  8
0
 10
213.9261811098213
 20
47.470574006022389
 30
0.0
 11
213.9261811098213
 21
43.874300362706883
 31
0.0
  0
ARC
  5
C946
  8
0
 10
216.9261811098213
 20
47.672437184364533
 30
0.0
 40
3.0000000000000111
 50
90.0
 51
134.63745974330129
  0
LINE
  5
C947
  8
0
 10
216.4261811098213
 20
44.914415201708373
 30
0.0
 11
216.4261811098213
 21
46.430459167020899
 31
0.0
  0
LINE
  5
C948
  8
0
 10
218.62618110982109
 20
50.672437184364519
 30
0.0
 11
216.9261811098213
 21
50.672437184364519
 31
0.0
  0
LINE
  5
C949
  8
0
 10
216.9261811098213
 20
40.672437184364519
 30
0.0
 11
218.62618110982109
 21
40.672437184364519
 31
0.0
  0
ARC
  5
C94A
  8
0
 10
195.92618110982099
 20
45.67243718436464
 30
0.0
 40
3.0500000000000109
 50
270.0
 51
90.0
  0
LINE
  5
C94B
  8
0
 10
180.93876548068479
 20
48.722437184364708
 30
0.0
 11
195.92618110982099
 21
48.722437184364708
 31
0.0
  0
LINE
  5
C94C
  8
0
 10
195.92618110982099
 20
42.622437184364678
 30
0.0
 11
180.93876548068391
 21
42.622437184364678
 31
0.0
  0
LINE
  5
C94D
  8
0
 10
170.92618110982099
 20
36.92243718436464
 30
0.0
 11
202.9261811098211
 21
36.92243718436464
 31
0.0
  0
LINE
  5
C94E
  8
0
 10
170.92618110982099
 20
54.42243718436464
 30
0.0
 11
202.9261811098213
 21
54.42243718436464
 31
0.0
  0
LINE
  5
C94F
  8
0
 10
170.92618110982099
 20
54.42243718436464
 30
0.0
 11
170.92618110982099
 21
36.92243718436464
 31
0.0
  0
LINE
  5
C950
  8
0
 10
201.9261811098211
 20
36.92243718436464
 30
0.0
 11
201.9261811098211
 21
54.42243718436464
 31
0.0
  0
LINE
  5
C951
  8
0
 10
203.502371611999
 20
39.537516787663087
 30
0.0
 11
204.9261811098211
 21
40.129886942301482
 31
0.0
  0
LINE
  5
C953
  8
0
 10
204.46268911562919
 20
37.229316126494041
 30
0.0
 11
204.9261811098211
 21
37.422150086860938
 31
0.0
  0
ARC
  5
C954
  8
0
 10
202.9261811098211
 20
40.922437184365201
 30
0.0
 40
4.0000000000005747
 50
270.0
 51
292.58955413539798
  0
POLYLINE
  5
C955
  8
0
 66
     1
 10
0.0
 20
0.0
 30
0.0
 70
   128
  0
VERTEX
  5
EF72
  8
0
 10
202.9261811098211
 20
39.42243718436464
 30
0.0
  0
VERTEX
  5
EF73
  8
0
 10
203.38487748624991
 20
39.494292361788439
 30
0.0
  0
VERTEX
  5
EF74
  8
0
 10
203.502371611999
 20
39.53751678766298
 30
0.0
  0
SEQEND
  5
EF75
  8
0
  0
LINE
  5
C956
  8
0
 10
202.9261811098211
 20
39.42243718436464
 30
0.0
 11
201.9261811098211
 21
39.42243718436464
 31
0.0
  0
LINE
  5
C958
  8
0
 10
204.9261811098211
 20
51.214987426427797
 30
0.0
 11
203.502371611999
 21
51.807357581066178
 31
0.0
  0
POLYLINE
  5
C959
  8
0
 66
     1
 10
0.0
 20
0.0
 30
0.0
 70
   128
  0
VERTEX
  5
EF76
  8
0
 10
202.9261811098211
 20
51.92243718436464
 30
0.0
  0
VERTEX
  5
EF77
  8
0
 10
203.38487748624991
 20
51.85058200694084
 30
0.0
  0
VERTEX
  5
EF78
  8
0
 10
203.502371611999
 20
51.807357581066299
 30
0.0
  0
SEQEND
  5
EF79
  8
0
  0
ARC
  5
C95A
  8
0
 10
202.9261811098213
 20
50.422437184364981
 30
0.0
 40
3.9999999999997682
 50
67.410445864602039
 51
90.0
  0
LINE
  5
C95B
  8
0
 10
204.9261811098211
 20
53.922724281868341
 30
0.0
 11
204.46268911562919
 21
54.115558242235352
 31
0.0
  0
LINE
  5
C95D
  8
0
 10
202.9261811098211
 20
51.92243718436464
 30
0.0
 11
201.9261811098211
 21
51.92243718436464
 31
0.0
  0
LINE
  5
C960
  8
0
 10
219.4261811098213
 20
43.122437184364571
 30
0.0
 11
222.12618110982109
 21
43.122437184364571
 31
0.0
  0
LINE
  5
C961
  8
0
 10
231.12618110982109
 20
43.122437184364571
 30
0.0
 11
252.9261811098213
 21
43.122437184364571
 31
0.0
  0
ARC
  5
C962
  8
0
 10
219.4261811098213
 20
39.122437184365033
 30
0.0
 40
3.9999999999996132
 50
101.5369590328181
 51
112.5895541353979
  0
ARC
  5
C963
  8
0
 10
219.4261811098213
 20
39.122437184365033
 30
0.0
 40
3.999999999999623
 50
90.0
 51
99.068721546032506
  0
ARC
  5
C964
  8
0
 10
219.4261811098213
 20
39.122437184365033
 30
0.0
 40
6.4999999999995994
 50
90.0
 51
112.5895541353979
  0
LINE
  5
C965
  8
0
 10
247.9261811098213
 20
45.622437184364571
 30
0.0
 11
231.12618110982109
 21
45.622437184364571
 31
0.0
  0
LINE
  5
C966
  8
0
 10
222.12618110982109
 20
45.622437184364571
 30
0.0
 11
219.4261811098213
 21
45.622437184364571
 31
0.0
  0
LINE
  5
C967
  8
0
 10
204.9261811098211
 20
37.422150086860938
 30
0.0
 11
217.8896731040131
 21
42.815558242235277
 31
0.0
  0
LINE
  5
C968
  8
0
 10
216.92935560038319
 20
45.12375890340445
 30
0.0
 11
204.9261811098211
 21
40.129886942301482
 31
0.0
  0
LINE
  5
C969
  8
0
 10
252.9261811098213
 20
45.622437184364571
 30
0.0
 11
247.9261811098213
 21
45.622437184364571
 31
0.0
  0
LINE
  5
C96A
  8
0
 10
252.9261811098213
 20
43.122437184364571
 30
0.0
 11
252.9261811098213
 21
45.622437184364571
 31
0.0
  0
LINE
  5
C96C
  8
0
 10
252.9261811098213
 20
45.722437184364587
 30
0.0
 11
252.9261811098213
 21
48.222437184364587
 31
0.0
  0
LINE
  5
C96F
  8
0
 10
247.9261811098213
 20
45.722437184364701
 30
0.0
 11
252.9261811098213
 21
45.722437184364587
 31
0.0
  0
ARC
  5
C970
  8
0
 10
219.4261811098213
 20
52.222437184364253
 30
0.0
 40
3.9999999999996678
 50
260.93127845396748
 51
270.0
  0
ARC
  5
C971
  8
0
 10
219.4261811098213
 20
52.222437184364253
 30
0.0
 40
3.9999999999996678
 50
247.410445864602
 51
258.46304096718188
  0
LINE
  5
C972
  8
0
 10
252.9261811098213
 20
48.222437184364708
 30
0.0
 11
231.12618110982109
 21
48.222437184364708
 31
0.0
  0
LINE
  5
C973
  8
0
 10
222.12618110982109
 20
48.222437184364708
 30
0.0
 11
219.4261811098213
 21
48.222437184364708
 31
0.0
  0
LINE
  5
C974
  8
0
 10
219.4261811098213
 20
45.722437184364701
 30
0.0
 11
222.12618110982109
 21
45.722437184364701
 31
0.0
  0
LINE
  5
C975
  8
0
 10
231.12618110982109
 20
45.722437184364701
 30
0.0
 11
247.9261811098213
 21
45.722437184364701
 31
0.0
  0
ARC
  5
C976
  8
0
 10
219.4261811098213
 20
52.22243718436448
 30
0.0
 40
6.4999999999999103
 50
247.410445864602
 51
270.0
  0
LINE
  5
C977
  8
0
 10
217.8896731040131
 20
48.529316126493988
 30
0.0
 11
204.9261811098211
 21
53.922724281868341
 31
0.0
  0
LINE
  5
C978
  8
0
 10
204.9261811098211
 20
51.214987426427797
 30
0.0
 11
216.92935560038319
 21
46.221115465324822
 31
0.0
  0
LINE
  5
C979
  8
0
 10
230.62618110982299
 20
56.63895537274766
 30
0.0
 11
229.8566158195253
 21
56.63895537274766
 31
0.0
  0
LINE
  5
C97A
  8
0
 10
223.9261811098213
 20
56.63895537274766
 30
0.0
 11
222.62618110982109
 21
56.63895537274766
 31
0.0
  0
LINE
  5
C97B
  8
0
 10
222.62618110982109
 20
34.705918995981619
 30
0.0
 11
223.9261811098213
 21
34.705918995981619
 31
0.0
  0
LINE
  5
C97C
  8
0
 10
229.8566158195249
 20
34.705918995981619
 30
0.0
 11
230.626181109832
 21
34.705918995981619
 31
0.0
  0
LINE
  5
C97F
  8
0
 10
219.9261811098213
 20
38.422437184374189
 30
0.0
 11
219.9261811098213
 21
40.572437184364382
 31
0.0
  0
LINE
  5
C980
  8
0
 10
220.12618110982109
 20
38.422437184374189
 30
0.0
 11
219.9261811098213
 21
38.422437184374189
 31
0.0
  0
LINE
  5
C981
  8
0
 10
219.9261811098213
 20
52.922437184364412
 30
0.0
 11
220.12618110982109
 21
52.922437184364298
 31
0.0
  0
LINE
  5
C982
  8
0
 10
219.9261811098213
 20
50.772437184364428
 30
0.0
 11
219.9261811098213
 21
52.922437184364412
 31
0.0
  0
LINE
  5
C983
  8
0
 10
237.5271036046006
 20
48.272437184364662
 30
0.0
 11
237.5271036046006
 21
48.222437184364708
 31
0.0
  0
LINE
  5
C984
  8
0
 10
237.5271036046006
 20
45.722437184364701
 30
0.0
 11
237.5271036046006
 21
45.622437184364571
 31
0.0
  0
LINE
  5
C985
  8
0
 10
237.5271036046006
 20
43.122437184364692
 30
0.0
 11
237.5271036046006
 21
43.07243718436473
 31
0.0
  0
LINE
  5
C9AA
  8
0
 10
220.12618110982109
 20
36.07243718436473
 30
0.0
 11
220.12618110982109
 21
40.572437184364617
 31
0.0
  0
LINE
  5
C9AB
  8
0
 10
223.9261811098213
 20
38.57243718436473
 30
0.0
 11
219.9261811098217
 21
38.57243718436473
 31
0.0
  0
LINE
  5
C9AC
  8
0
 10
220.12618110982109
 20
36.07243718436473
 30
0.0
 11
223.9261811098213
 21
36.07243718436473
 31
0.0
  0
LINE
  5
C9AD
  8
0
 10
219.9261811098213
 20
52.772437184364549
 30
0.0
 11
223.9261811098213
 21
52.772437184364662
 31
0.0
  0
LINE
  5
C9AE
  8
0
 10
220.12618110982109
 20
50.772437184364662
 30
0.0
 11
220.12618110982109
 21
55.272437184364662
 31
0.0
  0
LINE
  5
C9AF
  8
0
 10
220.12618110982109
 20
55.272437184364662
 30
0.0
 11
223.9261811098213
 21
55.272437184364662
 31
0.0
  0
ARC
  5
C9B6
  8
0
 10
230.9261811098213
 20
32.172437184364753
 30
0.0
 40
2.7500000000000071
 50
90.0
 51
270.0
  0
LINE
  5
C9B7
  8
0
 10
231.9261811098213
 20
29.42243718436476
 30
0.0
 11
230.9261811098213
 21
29.42243718436476
 31
0.0
  0
ARC
  5
C9B8
  8
0
 10
231.9261811098213
 20
32.172437184364753
 30
0.0
 40
2.7500000000000071
 50
270.0
 51
90.0
  0
LINE
  5
C9B9
  8
0
 10
230.9261811098213
 20
34.922437184364753
 30
0.0
 11
231.9261811098213
 21
34.922437184364753
 31
0.0
  0
ARC
  5
C9BA
  8
0
 10
243.9261811098213
 20
32.172437184364753
 30
0.0
 40
2.7500000000000071
 50
90.0
 51
270.0
  0
LINE
  5
C9BB
  8
0
 10
244.9261811098213
 20
29.42243718436476
 30
0.0
 11
243.9261811098213
 21
29.42243718436476
 31
0.0
  0
ARC
  5
C9BC
  8
0
 10
244.9261811098213
 20
32.172437184364753
 30
0.0
 40
2.7500000000000071
 50
270.0
 51
90.0
  0
LINE
  5
C9BD
  8
0
 10
243.9261811098213
 20
34.922437184364753
 30
0.0
 11
244.9261811098213
 21
34.922437184364753
 31
0.0
  0
LINE
  5
C9BE
  8
0
 10
227.9261811098213
 20
26.67243718436476
 30
0.0
 11
248.9261811098213
 21
26.67243718436476
 31
0.0
  0
ARC
  5
C9BF
  8
0
 10
227.9261811098213
 20
30.67243718436476
 30
0.0
 40
4.0
 50
180.0
 51
270.0
  0
LINE
  5
C9C0
  8
0
 10
223.9261811098213
 20
30.67243718436476
 30
0.0
 11
223.9261811098213
 21
43.07243718436473
 31
0.0
  0
LINE
  5
C9C2
  8
0
 10
252.9261811098213
 20
43.07243718436473
 30
0.0
 11
252.9261811098213
 21
30.67243718436476
 31
0.0
  0
ARC
  5
C9C3
  8
0
 10
248.9261811098213
 20
30.67243718436476
 30
0.0
 40
4.0
 50
270.0
 51
0.0
  0
ARC
  5
C9C4
  8
0
 10
230.9261811098213
 20
59.172437184364753
 30
0.0
 40
2.7500000000000142
 50
90.0
 51
270.0
  0
LINE
  5
C9C5
  8
0
 10
231.9261811098213
 20
56.422437184364753
 30
0.0
 11
230.9261811098213
 21
56.422437184364753
 31
0.0
  0
ARC
  5
C9C6
  8
0
 10
231.9261811098213
 20
59.172437184364753
 30
0.0
 40
2.7500000000000142
 50
270.0
 51
90.0
  0
LINE
  5
C9C7
  8
0
 10
230.9261811098213
 20
61.92243718436476
 30
0.0
 11
231.9261811098213
 21
61.92243718436476
 31
0.0
  0
ARC
  5
C9C8
  8
0
 10
243.9261811098213
 20
59.172437184364753
 30
0.0
 40
2.7500000000000142
 50
90.0
 51
270.0
  0
LINE
  5
C9C9
  8
0
 10
244.9261811098213
 20
56.422437184364753
 30
0.0
 11
243.9261811098213
 21
56.422437184364753
 31
0.0
  0
ARC
  5
C9CA
  8
0
 10
244.9261811098213
 20
59.172437184364753
 30
0.0
 40
2.7500000000000142
 50
270.0
 51
90.0
  0
LINE
  5
C9CB
  8
0
 10
243.9261811098213
 20
61.92243718436476
 30
0.0
 11
244.9261811098213
 21
61.92243718436476
 31
0.0
  0
LINE
  5
C9CC
  8
0
 10
248.9261811098213
 20
64.672437184364753
 30
0.0
 11
227.9261811098213
 21
64.672437184364753
 31
0.0
  0
ARC
  5
C9CD
  8
0
 10
248.9261811098213
 20
60.67243718436476
 30
0.0
 40
4.0
 50
0.0
 51
90.0
  0
LINE
  5
C9CE
  8
0
 10
252.9261811098213
 20
60.67243718436476
 30
0.0
 11
252.9261811098213
 21
48.272437184364662
 31
0.0
  0
ARC
  5
C9CF
  8
0
 10
227.9261811098213
 20
60.67243718436476
 30
0.0
 40
4.0
 50
90.0
 51
180.0
  0
LINE
  5
C9D0
  8
0
 10
223.9261811098213
 20
60.67243718436476
 30
0.0
 11
223.9261811098213
 21
48.272437184364662
 31
0.0
  0
ARC
  5
C9D2
  8
0
 10
253.92618110982079
 20
44.072437184367338
 30
0.0
 40
3.5000000000026068
 50
270.0
 51
286.60154959901718
  0
ARC
  5
C9D3
  8
0
 10
253.9261811098213
 20
44.07243718436473
 30
0.0
 40
1.000000000000056
 50
270.0
 51
0.0
  0
LINE
  5
C9D5
  8
0
 10
253.9261811098213
 20
40.57243718436473
 30
0.0
 11
252.9261811098213
 21
40.57243718436473
 31
0.0
  0
POLYLINE
  5
C9D7
  8
0
 66
     1
 10
0.0
 20
0.0
 30
0.0
 70
   128
  0
VERTEX
  5
EF7A
  8
0
 10
253.9261811098213
 20
50.772437184364662
 30
0.0
  0
VERTEX
  5
EF7B
  8
0
 10
254.48465751361209
 20
50.72759334674128
 30
0.0
  0
VERTEX
  5
EF7C
  8
0
 10
254.9261811098213
 20
50.626539150614462
 30
0.0
  0
SEQEND
  5
EF7D
  8
0
  0
ARC
  5
C9D9
  8
0
 10
253.9261811098213
 20
47.272437184364662
 30
0.0
 40
1.0
 50
0.0
 51
90.0
  0
LINE
  5
C9DA
  8
0
 10
252.9261811098213
 20
50.772437184364662
 30
0.0
 11
253.9261811098213
 21
50.772437184364662
 31
0.0
  0
LINE
  5
C9E2
  8
0
 10
254.9261811098213
 20
47.272437184364662
 30
0.0
 11
254.9261811098213
 21
44.07243718436473
 31
0.0
  0
LINE
  5
C9E3
  8
0
 10
257.4261811098213
 20
44.07243718436473
 30
0.0
 11
257.4261811098213
 21
47.272437184364662
 31
0.0
  0
ARC
  5
C9E4
  8
0
 10
253.9261811098213
 20
47.272437184364662
 30
0.0
 40
3.4999999999999738
 50
0.0
 51
73.398450400970063
  0
ARC
  5
C9E5
  8
0
 10
253.9261811098213
 20
44.07243718436473
 30
0.0
 40
3.5000000000000009
 50
286.60154959902979
 51
0.0
  0
LINE
  5
C9EC
  8
0
 10
218.62618110982109
 20
43.07243718436473
 30
0.0
 11
218.62618110982109
 21
40.57243718436473
 31
0.0
  0
LINE
  5
C9ED
  8
0
 10
218.62618110982109
 20
40.57243718436473
 30
0.0
 11
223.9261811098217
 21
40.572437184364837
 31
0.0
  0
LINE
  5
C9EE
  8
0
 10
253.9261811098213
 20
43.07243718436473
 30
0.0
 11
218.62618110982109
 21
43.07243718436473
 31
0.0
  0
LINE
  5
C9EF
  8
0
 10
218.62618110982109
 20
50.772437184364662
 30
0.0
 11
218.62618110982109
 21
48.272437184364662
 31
0.0
  0
LINE
  5
C9F0
  8
0
 10
223.92618110982079
 20
50.772437184364662
 30
0.0
 11
218.62618110982109
 21
50.772437184364662
 31
0.0
  0
LINE
  5
C9F1
  8
0
 10
218.62618110982109
 20
48.272437184364662
 30
0.0
 11
253.9261811098213
 21
48.272437184364662
 31
0.0
  0
CIRCLE
  5
CA07
  8
0
 10
176.9261811098213
 20
360.06157606626198
 30
0.0
 40
3.0
  0
CIRCLE
  5
CA08
  8
3
 10
176.9261811098213
 20
360.06157606626198
 30
0.0
 40
2.458499999999999
  0
LINE
  5
CA1B
  8
1
 10
262.4261811098213
 20
360.06157606626198
 30
0.0
 11
165.1761811098211
 21
360.06157606626198
 31
0.0
  0
LINE
  5
CA1E
  8
1
 10
176.9261811098213
 20
350.96157606626213
 30
0.0
 11
176.9261811098213
 21
369.16157606626189
 31
0.0
  0
LINE
  5
CA1F
  8
1
 10
195.92618110982099
 20
366.11157606626188
 30
0.0
 11
195.92618110982099
 21
354.01157606626202
 31
0.0
  0
LINE
  5
CA20
  8
1
 10
244.9261811098213
 20
377.31157606626221
 30
0.0
 11
244.9261811098213
 21
369.81157606626221
 31
0.0
  0
LINE
  5
CA21
  8
1
 10
243.9261811098213
 20
377.31157606626221
 30
0.0
 11
243.9261811098213
 21
369.81157606626221
 31
0.0
  0
LINE
  5
CA22
  8
1
 10
248.6761811098213
 20
373.56157606626221
 30
0.0
 11
240.1761811098213
 21
373.56157606626221
 31
0.0
  0
LINE
  5
CA28
  8
1
 10
244.9261811098213
 20
342.81157606626169
 30
0.0
 11
244.9261811098213
 21
350.31157606626169
 31
0.0
  0
LINE
  5
CA29
  8
1
 10
243.9261811098213
 20
342.81157606626169
 30
0.0
 11
243.9261811098213
 21
350.31157606626169
 31
0.0
  0
LINE
  5
CA2A
  8
1
 10
248.6761811098213
 20
346.56157606626169
 30
0.0
 11
240.1761811098213
 21
346.56157606626198
 31
0.0
  0
ARC
  5
CA4B
  8
0
 10
219.9261811098213
 20
197.6815783360066
 30
0.0
 40
2.0
 50
84.260831367594037
 51
275.73916863240589
  0
LINE
  5
CA4D
  8
3
 10
179.3846811098212
 20
128.48157840008159
 30
0.0
 11
179.3846811098212
 21
145.98157754326471
 31
0.0
  0
LINE
  5
CA4E
  8
3
 10
174.46768110982131
 20
128.48157840008159
 30
0.0
 11
174.46768110982131
 21
145.98157754326479
 31
0.0
  0
LINE
  5
CA52
  8
3
 10
174.46768110982131
 20
162.58157914662971
 30
0.0
 11
174.46768110982131
 21
163.4095807926719
 31
0.0
  0
LINE
  5
CA53
  8
3
 10
179.3846811098212
 20
162.58157914662979
 30
0.0
 11
179.3846811098212
 21
163.409580286032
 31
0.0
  0
LINE
  5
CA5C
  8
1
 10
176.9261811098213
 20
166.4815794804158
 30
0.0
 11
176.9261811098213
 21
121.48157834105901
 31
0.0
  0
LINE
  5
CA5F
  8
1
 10
231.62618110982291
 20
189.6815783360066
 30
0.0
 11
221.6261811098193
 21
189.6815783360066
 31
0.0
  0
LINE
  5
CA60
  8
1
 10
226.62618110982109
 20
194.68157833600841
 30
0.0
 11
226.62618110982109
 21
184.6815783360048
 31
0.0
  0
LINE
  5
CA62
  8
1
 10
250.92618110982309
 20
161.6815783360066
 30
0.0
 11
240.92618110981951
 21
161.6815783360066
 31
0.0
  0
LINE
  5
CA63
  8
1
 10
245.9261811098213
 20
166.68157833600841
 30
0.0
 11
245.9261811098213
 21
156.6815783360048
 31
0.0
  0
LINE
  5
CA64
  8
1
 10
231.62618110982291
 20
139.6815783360066
 30
0.0
 11
221.6261811098193
 21
139.6815783360066
 31
0.0
  0
LINE
  5
CA65
  8
1
 10
226.62618110982109
 20
144.68157833600841
 30
0.0
 11
226.62618110982109
 21
134.6815783360048
 31
0.0
  0
LINE
  5
CA66
  8
1
 10
250.62618110982109
 20
146.88157833600661
 30
0.0
 11
243.62618110982109
 21
146.88157833600661
 31
0.0
  0
LINE
  5
CA67
  8
1
 10
247.12618110982109
 20
150.38157833600661
 30
0.0
 11
247.12618110982109
 21
143.38157833600661
 31
0.0
  0
ARC
  5
CFDB
  8
0
  6
CONTINUOUS
 10
308.12618110982112
 20
174.88157833600641
 30
0.0
 40
74.999999999999972
 50
171.6239591114834
 51
188.3760408885166
  0
LINE
  5
CFDC
  8
0
 10
233.92618088630391
 20
185.8067770449556
 30
0.0
 11
233.92618088630391
 21
189.6815759518208
 31
0.0
  0
LINE
  5
CFDE
  8
1
 10
243.62618110982109
 20
137.88157833600459
 30
0.0
 11
236.62618110982109
 21
137.88157833600459
 31
0.0
  0
LINE
  5
CFDF
  8
1
 10
240.12618110982109
 20
141.38157833600459
 30
0.0
 11
240.12618110982109
 21
134.38157833600459
 31
0.0
  0
CIRCLE
  5
CFEF
  8
0
 10
176.9261811098211
 20
45.672437184364753
 30
0.0
 40
4.9999999999850413
  0
LINE
  5
D015
  8
1
 10
262.4261811098213
 20
45.672437184364753
 30
0.0
 11
165.1761811098211
 21
45.672437184364753
 31
0.0
  0
LINE
  5
D016
  8
1
 10
176.9261811098215
 20
37.672437184379874
 30
0.0
 11
176.9261811098217
 21
53.672437184349633
 31
0.0
  0
LINE
  5
D017
  8
1
 10
195.92618110982099
 20
51.722437184364708
 30
0.0
 11
195.92618110982099
 21
39.622437184364799
 31
0.0
  0
LINE
  5
D018
  8
1
 10
244.9261811098213
 20
62.922437184364981
 30
0.0
 11
244.9261811098213
 21
55.422437184364981
 31
0.0
  0
LINE
  5
D019
  8
1
 10
243.9261811098213
 20
62.922437184364981
 30
0.0
 11
243.9261811098213
 21
55.422437184364981
 31
0.0
  0
LINE
  5
D01A
  8
1
 10
248.6761811098213
 20
59.172437184364981
 30
0.0
 11
240.1761811098213
 21
59.172437184364981
 31
0.0
  0
LINE
  5
D01B
  8
1
 10
244.9261811098213
 20
28.422437184364529
 30
0.0
 11
244.9261811098213
 21
35.922437184364533
 31
0.0
  0
LINE
  5
D01C
  8
1
 10
243.9261811098213
 20
28.422437184364529
 30
0.0
 11
243.9261811098213
 21
35.922437184364533
 31
0.0
  0
LINE
  5
D01D
  8
1
 10
248.6761811098213
 20
32.172437184364533
 30
0.0
 11
240.1761811098213
 21
32.172437184364753
 31
0.0
  0
LINE
  5
D020
  8
1
 10
231.9261811098213
 20
62.922437184364981
 30
0.0
 11
231.9261811098213
 21
55.422437184364981
 31
0.0
  0
LINE
  5
D021
  8
1
 10
230.9261811098213
 20
62.922437184364981
 30
0.0
 11
230.9261811098213
 21
55.422437184364981
 31
0.0
  0
LINE
  5
D022
  8
1
 10
235.6761811098213
 20
59.172437184364981
 30
0.0
 11
227.1761811098213
 21
59.172437184364981
 31
0.0
  0
LINE
  5
D023
  8
1
 10
231.9261811098213
 20
28.422437184364529
 30
0.0
 11
231.9261811098213
 21
35.922437184364533
 31
0.0
  0
LINE
  5
D024
  8
1
 10
230.9261811098213
 20
28.422437184364529
 30
0.0
 11
230.9261811098213
 21
35.922437184364533
 31
0.0
  0
LINE
  5
D025
  8
1
 10
235.6761811098213
 20
32.172437184364533
 30
0.0
 11
227.1761811098213
 21
32.172437184364753
 31
0.0
  0
LINE
  5
D062
  8
3
 10
92.384681988989996
 20
128.48157725565301
 30
0.0
 11
92.384681988989996
 21
145.98157639883621
 31
0.0
  0
LINE
  5
D063
  8
3
 10
92.384681988989996
 20
162.58157800220121
 30
0.0
 11
92.384681988989996
 21
163.40957914160339
 31
0.0
  0
LINE
  5
D064
  8
3
 10
87.46768198899008
 20
128.48157725565301
 30
0.0
 11
87.46768198899008
 21
145.9815763988363
 31
0.0
  0
LINE
  5
D065
  8
3
 10
87.46768198899008
 20
162.5815780022011
 30
0.0
 11
87.46768198899008
 21
163.40957964824341
 31
0.0
  0
LINE
  5
D0DF
  8
1
 10
89.926181735669616
 20
119.48157833600381
 30
0.0
 11
89.926181735670085
 21
292.56014947291379
 31
0.0
  0
LINE
  5
D0E4
  8
1
 10
103.42618173567
 20
123.6815783360066
 30
0.0
 11
103.42618173567
 21
128.18157833600679
 31
0.0
  0
LINE
  5
D0E7
  8
1
 10
76.426181735669616
 20
123.6815783360066
 30
0.0
 11
76.426181735669843
 21
128.1815783360066
 31
0.0
  0
LINE
  5
D120
  8
0
 10
335.92618194428633
 20
201.18157690549521
 30
0.0
 11
340.92618194428633
 21
201.18157690549521
 31
0.0
  0
LINE
  5
D12A
  8
1
 10
338.42618194428729
 20
119.48157833600411
 30
0.0
 11
338.42618194428769
 21
292.56014947291379
 31
0.0
  0
LINE
  5
D12B
  8
1
 10
351.92618194428769
 20
123.68157833600679
 30
0.0
 11
351.92618194428769
 21
128.18157833600699
 31
0.0
  0
LINE
  5
D12C
  8
1
 10
324.92618194428718
 20
123.68157833600679
 30
0.0
 11
324.92618194428718
 21
128.18157833600679
 31
0.0
  0
LINE
  5
D186
  8
1
 10
244.92618110982119
 20
128.18157828012721
 30
0.0
 11
244.9261811098213
 21
123.6815783360066
 31
0.0
  0
LINE
  5
D187
  8
1
 10
243.92618110982119
 20
128.18157828012721
 30
0.0
 11
243.9261811098213
 21
123.6815783360066
 31
0.0
  0
LINE
  5
D188
  8
1
 10
231.9261811098213
 20
128.18157828012721
 30
0.0
 11
231.9261811098213
 21
123.6815783360066
 31
0.0
  0
LINE
  5
D189
  8
1
 10
230.92618110982119
 20
128.18157828012721
 30
0.0
 11
230.9261811098213
 21
123.6815783360066
 31
0.0
  0
LINE
  5
D7A1
  8
0
 10
213.87618141827531
 20
262.97874873662619
 30
0.0
 11
230.17618120295359
 21
262.97874873662619
 31
0.0
  0
POLYLINE
  5
D7A7
  8
0
 66
     1
 10
0.0
 20
0.0
 30
0.0
 70
   128
  0
VERTEX
  5
EF7E
  8
0
 10
230.17618120295359
 20
237.19666278148321
 30
0.0
  0
VERTEX
  5
EF7F
  8
0
 10
229.8683097085113
 20
232.81134789968161
 30
0.0
  0
VERTEX
  5
EF80
  8
0
 10
229.22319094297839
 20
228.4304288604321
 30
0.0
  0
SEQEND
  5
EF81
  8
0
  0
LINE
  5
D7A8
  8
0
 10
229.22319094297839
 20
228.4304288604321
 30
0.0
 11
214.82917121258919
 21
228.4304288604321
 31
0.0
  0
POLYLINE
  5
D7A9
  8
0
 66
     1
 10
0.0
 20
0.0
 30
0.0
 70
   128
  0
VERTEX
  5
EF82
  8
0
 10
214.82917121258919
 20
228.4304288604321
 30
0.0
  0
VERTEX
  5
EF83
  8
0
 10
214.1870727261657
 20
232.7835497834744
 30
0.0
  0
VERTEX
  5
EF84
  8
0
 10
213.87618141827531
 20
237.19666278148321
 30
0.0
  0
SEQEND
  5
EF85
  8
0
  0
LINE
  5
D7AA
  8
0
 10
213.87618141827531
 20
237.19666278148321
 30
0.0
 11
213.87618141827531
 21
274.60228031659688
 31
0.0
  0
LINE
  5
D7AB
  8
0
 10
230.17618120295359
 20
274.6022803165983
 30
0.0
 11
230.17618120295359
 21
237.19666278148321
 31
0.0
  0
POLYLINE
  5
D7AC
  8
0
 66
     1
 10
0.0
 20
0.0
 30
0.0
 70
   128
  0
VERTEX
  5
EF86
  8
0
 10
228.6459725780542
 20
225.70165371680881
 30
0.0
  0
VERTEX
  5
EF87
  8
0
 10
227.7422760578001
 20
223.4488812663617
 30
0.0
  0
VERTEX
  5
EF88
  8
0
 10
226.56257557330079
 20
221.366786716229
 30
0.0
  0
SEQEND
  5
EF89
  8
0
  0
POLYLINE
  5
D7AE
  8
0
 66
     1
 10
0.0
 20
0.0
 30
0.0
 70
   128
  0
VERTEX
  5
EF8A
  8
0
 10
217.48978658226679
 20
221.366786716229
 30
0.0
  0
VERTEX
  5
EF8B
  8
0
 10
216.32500704956601
 20
223.41798370862631
 30
0.0
  0
VERTEX
  5
EF8C
  8
0
 10
215.4063900431747
 20
225.70165371680881
 30
0.0
  0
SEQEND
  5
EF8D
  8
0
  0
LINE
  5
D7AF
  8
0
 10
229.22319094297839
 20
228.4304288604321
 30
0.0
 11
228.6459725780542
 21
225.70165371680881
 31
0.0
  0
LINE
  5
D7B0
  8
0
 10
215.4063900431747
 20
225.70165371680881
 30
0.0
 11
214.82917121258919
 21
228.4304288604321
 31
0.0
  0
ARC
  5
D7B1
  8
0
 10
212.2256214896228
 20
273.26130700325041
 30
0.0
 40
18.000577864306621
 50
4.272271448776463
 51
48.30616896265996
  0
ARC
  5
D7B2
  8
0
 10
231.82673894901251
 20
273.26130857101037
 30
0.0
 40
18.000575570985671
 50
131.693830344963
 51
175.72773300999449
  0
LINE
  5
D7B4
  8
0
 10
213.87618141827531
 20
274.04911941075949
 30
0.0
 11
213.87618141827531
 21
274.6022803165975
 31
0.0
  0
ARC
  5
D7B6
  8
0
 10
298.21459312575558
 20
246.4502515211822
 30
0.0
 40
88.629264481599733
 50
168.8682142622184
 51
180.25126384350449
  0
ARC
  5
D7B9
  8
0
 10
298.21419627636891
 20
245.6728699692159
 30
0.0
 40
88.628867801781524
 50
179.74871059858691
 51
191.13181129569151
  0
ARC
  5
D7BA
  8
0
 10
165.7555380034716
 20
245.7049082962865
 30
0.0
 40
71.7715295380371
 50
346.180750586459
 51
0.2847347278331623
  0
ARC
  5
D7BD
  8
0
 10
165.75499591891929
 20
246.418186663292
 30
0.0
 40
71.772071296258886
 50
359.71531877325629
 51
13.819195912452731
  0
ARC
  5
D7BE
  8
0
 10
208.9746212570698
 20
259.49866368703431
 30
0.0
 40
26.784892168692881
 50
8.724690857580768
 51
38.272729252714441
  0
ARC
  5
D7BF
  8
0
 10
251.42739632775289
 20
256.49826370104222
 30
0.0
 40
40.790765503556322
 50
157.01120881506279
 51
170.02842187941491
  0
ARC
  5
D7C1
  8
0
 10
251.4180643771339
 20
235.6228053088868
 30
0.0
 40
40.781212574637657
 50
189.9709560319711
 51
209.16235906463831
  0
ARC
  5
D7C2
  8
0
 10
208.97174931759369
 20
232.6257745763528
 30
0.0
 40
26.787924892760721
 50
320.95347479860777
 51
351.2735369989968
  0
ARC
  5
D7C3
  8
0
 10
221.7261799193279
 20
224.46157286774411
 30
0.0
 40
5.7999970971752202
 50
286.73931267717478
 51
316.39722955019238
  0
ARC
  5
D7C5
  8
0
 10
222.32617300799441
 20
224.46155728219929
 30
0.0
 40
5.7999794974057348
 50
223.60272341554909
 51
253.2607308285406
  0
LINE
  5
D7C6
  8
0
 10
218.12618118358199
 20
220.46157842660571
 30
0.0
 11
217.48978658226679
 21
221.366786716229
 31
0.0
  0
LINE
  5
D7C7
  8
0
 10
226.56257557330079
 20
221.366786716229
 30
0.0
 11
225.9261812048162
 21
220.46157842660571
 31
0.0
  0
ARC
  5
D7C8
  8
0
 10
222.32618110982139
 20
224.4615783360066
 30
0.0
 40
5.8000000000000194
 50
253.2607080366669
 51
267.03510215282449
  0
ARC
  5
D7C9
  8
0
 10
221.7261811098214
 20
224.4615783360066
 30
0.0
 40
5.8000000000000194
 50
272.96489784717551
 51
286.73929196333307
  0
POLYLINE
  5
D7CA
  8
0
 66
     1
 10
0.0
 20
0.0
 30
0.0
 70
   128
  0
VERTEX
  5
EF8E
  8
0
 10
229.77618095112391
 20
215.7506880738797
 30
0.0
  0
VERTEX
  5
EF8F
  8
0
 10
228.69653501195259
 20
214.33503305698059
 30
0.0
  0
VERTEX
  5
EF90
  8
0
 10
227.43702390809901
 20
213.169590888268
 30
0.0
  0
SEQEND
  5
EF91
  8
0
  0
ARC
  5
D7CE
  8
0
 10
222.9070728925762
 20
218.78970512399039
 30
0.0
 40
7.7238781637161793
 50
203.1698009664014
 51
248.89745275123289
  0
ARC
  5
D7CF
  8
0
 10
222.12336152243819
 20
284.06995787041831
 30
0.0
 40
3.4915460834713441
 50
91.594923381817765
 51
125.7638011441358
  0
ARC
  5
D7D0
  8
0
 10
221.92900061358799
 20
284.06995777872049
 30
0.0
 40
3.4915461756776489
 50
54.236199329779311
 51
88.405076339512647
  0
LINE
  5
D7D1
  8
0
 10
219.85365696830101
 20
286.70251494432119
 30
0.0
 11
220.08274439369691
 21
286.90311437631277
 31
0.0
  0
LINE
  5
D7D2
  8
0
 10
224.19870515816271
 20
286.70251494432119
 30
0.0
 11
223.96961777278469
 21
286.90311437631277
 31
0.0
  0
LINE
  5
D8EC
  8
0
 10
92.426181735669786
 20
211.06157833600659
 30
0.0
 11
92.426181735669786
 21
211.34981653155251
 31
0.0
  0
LINE
  5
D8ED
  8
0
 10
87.426181735669786
 20
211.3657723687115
 30
0.0
 11
87.426181735669786
 21
211.06157833600659
 31
0.0
  0
ARC
  5
D994
  8
0
 10
124.75865593964799
 20
246.06157833600631
 30
0.0
 40
55.832474203978258
 50
161.73347757908761
 51
179.9999999999996
  0
ARC
  5
D996
  8
0
 10
55.093707531692587
 20
246.06157833600639
 30
0.0
 40
55.83247420397732
 50
0.0000000000002544
 51
18.266522420912452
  0
ARC
  5
D997
  8
0
 10
55.093707531693489
 20
246.0615783360067
 30
0.0
 40
55.832474203976361
 50
341.73347757908709
 51
0.0000000000007633
  0
ARC
  5
D999
  8
0
 10
124.7586559396461
 20
246.06157833600651
 30
0.0
 40
55.832474203976332
 50
179.99999999999989
 51
198.26652242091299
  0
ARC
  5
D99A
  8
0
 10
102.6757521709918
 20
253.71132059719861
 30
0.0
 40
32.466445800979749
 50
144.79329603321969
 51
162.3381847315604
  0
LINE
  5
D99B
  8
0
 10
76.148151537921819
 20
272.42913317239811
 30
0.0
 11
103.70421193341831
 21
272.42913317239811
 31
0.0
  0
ARC
  5
D99C
  8
0
 10
77.176611300347588
 20
253.71132059719949
 30
0.0
 40
32.466445800979777
 50
17.661815268438421
 51
35.206703966775848
  0
ARC
  5
D99D
  8
0
 10
77.170678481428752
 20
238.4153957661654
 30
0.0
 40
32.473179012493262
 50
315.73711094958162
 51
342.33537598627299
  0
ARC
  5
D99F
  8
0
 10
102.6785245917671
 20
238.41349952727879
 30
0.0
 40
32.469592237457583
 50
197.6631279469629
 51
224.2643851171841
  0
ARC
  5
D9A0
  8
0
 10
87.9260070758084
 20
261.8613874360737
 30
0.0
 40
27.000244072911919
 50
28.156459715096631
 51
66.930949497436515
  0
ARC
  5
D9A2
  8
0
 10
91.926288305991804
 20
261.86146185665569
 30
0.0
 40
27.000148923300991
 50
113.0689794484032
 51
151.84361133906191
  0
LINE
  5
D9A3
  8
0
 10
81.905742951147715
 20
286.90312133297141
 30
0.0
 11
81.346575389565999
 21
286.70251087811278
 31
0.0
  0
LINE
  5
D9A5
  8
0
 10
98.505788081774014
 20
286.70251087811278
 30
0.0
 11
97.946620520191857
 21
286.90312133297141
 31
0.0
  0
ARC
  5
D9A7
  8
0
 10
98.926181735643979
 20
245.06157833599079
 30
0.0
 40
35.99999999996971
 50
207.51470878540991
 51
212.53234489526741
  0
ARC
  5
D9A8
  8
0
 10
-122.9738182641584
 20
225.16157833601849
 30
0.0
 40
189.99999999982799
 50
0.9857932387319897
 51
3.6316929009501671
  0
ARC
  5
D9AB
  8
0
 10
302.8261817355048
 20
225.16157833601409
 30
0.0
 40
189.9999999998349
 50
176.36830709904859
 51
179.01420676126699
  0
ARC
  5
D9AC
  8
0
 10
80.926181735690932
 20
245.06157833599579
 30
0.0
 40
35.999999999976573
 50
327.46765510472892
 51
332.48529121458682
  0
ARC
  5
D9AE
  8
0
 10
64.02618173567015
 20
251.56157833600659
 30
0.0
 40
52.999999999999751
 50
12.440070861942029
 51
25.105938639667581
  0
ARC
  5
D9AF
  8
0
 10
158.12618173566969
 20
249.9615783360066
 30
0.0
 40
44.299999999999947
 50
162.91192788929479
 51
184.92614955244551
  0
ARC
  5
D9B0
  8
0
 10
21.72618173567145
 20
249.9615783360066
 30
0.0
 40
44.299999999998398
 50
355.07385044755802
 51
17.088072110705252
  0
ARC
  5
D9B1
  8
0
 10
115.8261817356702
 20
251.56157833600659
 30
0.0
 40
53.00000000000032
 50
154.8940613603346
 51
167.55992913805849
  0
ARC
  5
D9B2
  8
0
 10
302.82618173565788
 20
225.16157833600761
 30
0.0
 40
189.99999999998801
 50
173.65559192465281
 51
176.3683070990495
  0
ARC
  5
D9B3
  8
0
 10
-122.97381826432721
 20
225.1615783360096
 30
0.0
 40
189.99999999999699
 50
3.6316929009496199
 51
6.3444080753467667
  0
ARC
  5
D9B4
  8
0
 10
87.926181735669914
 20
261.86157833600657
 30
0.0
 40
27.000000000000028
 50
26.832933050762328
 51
28.156277449539179
  0
ARC
  5
D9B5
  8
0
 10
91.926181735669786
 20
261.86157833600657
 30
0.0
 40
26.99999999999989
 50
151.8437225504608
 51
153.1670669492394
  0
ARC
  5
D9B6
  8
0
 10
89.443533939120854
 20
226.24285347295049
 30
0.0
 40
15.18894544328529
 50
277.91411673486863
 51
316.30840497074172
  0
ARC
  5
D9B7
  8
0
 10
89.9261817356699
 20
202.03653618779319
 30
0.0
 40
9.3021956235446037
 50
80.041355709797216
 51
99.958644290202784
  0
ARC
  5
D9B8
  8
0
 10
90.405878170651192
 20
226.2370888008426
 30
0.0
 40
15.18282945693614
 50
223.68355880504811
 51
262.09391948935058
  0
LINE
  5
D9BA
  8
0
 10
71.823469704541424
 20
221.3667898677015
 30
0.0
 11
72.86082882543684
 21
220.4615783360066
 31
0.0
  0
ARC
  5
D9BB
  8
0
 10
98.926181735662411
 20
245.06157833600099
 30
0.0
 40
35.999999999990749
 50
212.53234489526619
 51
221.1618686232386
  0
ARC
  5
D9BC
  8
0
 10
100.2261817356214
 20
229.2615783360649
 30
0.0
 40
11.100000000075759
 50
307.55272634173599
 51
314.66392542936683
  0
POLYLINE
  5
D9BE
  8
0
 66
     1
 10
0.0
 20
0.0
 30
0.0
 70
   128
  0
VERTEX
  5
EF92
  8
0
 10
108.02889376679821
 20
221.3667898677011
 30
0.0
  0
VERTEX
  5
EF93
  8
0
 10
109.693434693214
 20
223.4179844274922
 30
0.0
  0
VERTEX
  5
EF94
  8
0
 10
111.2773494628546
 20
225.70165536104849
 30
0.0
  0
SEQEND
  5
EF95
  8
0
  0
LINE
  5
D9BF
  8
0
 10
76.901655936707073
 20
218.6693421529767
 30
0.0
 11
75.626181735669832
 21
218.66934215297681
 31
0.0
  0
LINE
  5
D9C0
  8
0
 10
75.626181735669832
 20
218.90735214570151
 30
0.0
 11
75.626181735669832
 21
218.66934215297681
 31
0.0
  0
ARC
  5
D9C1
  8
0
 10
79.626181735669263
 20
229.2615783360057
 30
0.0
 40
11.09999999999895
 50
232.44727365828049
 51
248.87767136836499
  0
LINE
  5
D9C2
  8
0
 10
104.2261817356698
 20
218.66934215297681
 30
0.0
 11
104.2261817356698
 21
218.90735214570151
 31
0.0
  0
LINE
  5
D9C3
  8
0
 10
102.9507075346326
 20
218.66934215297681
 30
0.0
 11
104.2261817356698
 21
218.66934215297681
 31
0.0
  0
ARC
  5
D9C4
  8
0
 10
100.22618173567569
 20
229.26157833599609
 30
0.0
 40
11.099999999988141
 50
291.12232863162802
 51
307.55272634172792
  0
LINE
  5
D9C5
  8
0
 10
84.1893604863306
 20
287.56014947291391
 30
0.0
 11
95.663002985008518
 21
287.56014947291391
 31
0.0
  0
ARC
  5
D9C6
  8
0
 10
89.444440624314495
 20
264.99811633834571
 30
0.0
 40
23.165949288168399
 50
103.11139549950489
 51
108.9911126209125
  0
ARC
  5
D9C7
  8
0
 10
90.407922847027805
 20
264.9981163383527
 30
0.0
 40
23.165949288160821
 50
71.008887379087497
 51
76.888604500501742
  0
LINE
  5
DA4F
  8
0
 10
340.92618194428638
 20
211.06157833600659
 30
0.0
 11
340.92618194428638
 21
211.5858448012012
 31
0.0
  0
LINE
  5
DA50
  8
0
 10
335.92618194428638
 20
211.5858448012012
 30
0.0
 11
335.92618194428638
 21
211.06157833600659
 31
0.0
  0
ARC
  5
DAD0
  8
0
 10
373.25865614826199
 20
246.06157833600659
 30
0.0
 40
55.832474203975679
 50
161.73347757908701
 51
180.0
  0
ARC
  5
DAD2
  8
0
 10
303.593707740311
 20
246.0615783360067
 30
0.0
 40
55.83247420397538
 50
0.0000000000007124
 51
18.266522420912921
  0
ARC
  5
DAD4
  8
0
 10
373.25865614826432
 20
246.0615783360069
 30
0.0
 40
55.832474203977938
 50
180.00000000000111
 51
198.26652242091399
  0
ARC
  5
DAD5
  8
0
 10
303.59370774030918
 20
246.0615783360067
 30
0.0
 40
55.832474203977213
 50
341.73347757908829
 51
0.0000000000007124
  0
ARC
  5
DADF
  8
0
 10
351.18193373111399
 20
238.41554488571731
 30
0.0
 40
32.473461076145959
 50
197.6647416498713
 51
224.26277141427869
  0
ARC
  5
DAE0
  8
0
 10
325.67043015745941
 20
238.41554488571651
 30
0.0
 40
32.473461076144957
 50
315.73722858572307
 51
342.33525835013472
  0
ARC
  5
DAE1
  8
0
 10
351.17845810782921
 20
253.70971935222289
 30
0.0
 40
32.469509814026281
 50
136.42912214910379
 51
162.3369409413344
  0
LINE
  5
DAE2
  8
0
 10
349.19878925321422
 20
276.08937362054871
 30
0.0
 11
327.65357463535798
 21
276.08937362054888
 31
0.0
  0
ARC
  5
DAE3
  8
0
 10
325.6697502851784
 20
253.70726013760199
 30
0.0
 40
32.474215598269041
 50
17.664968832200241
 51
43.568968077363039
  0
ARC
  5
DAE5
  8
0
 10
340.42635660414749
 20
261.8613874360741
 30
0.0
 40
27.000244072911538
 50
113.0690505025635
 51
151.84354028490489
  0
LINE
  5
DAE6
  8
0
 10
329.84657559818203
 20
286.70251087811278
 30
0.0
 11
330.40574315976482
 21
286.90312133297141
 31
0.0
  0
LINE
  5
DAE8
  8
0
 10
346.44662072880811
 20
286.90312133297158
 30
0.0
 11
347.0057882903904
 21
286.70251087811312
 31
0.0
  0
ARC
  5
DAEA
  8
0
 10
336.42607537396498
 20
261.86146185665638
 30
0.0
 40
27.000148923300049
 50
28.156388660937601
 51
66.931020551596731
  0
ARC
  5
DAEC
  8
0
 10
329.42618194437932
 20
245.061578335951
 30
0.0
 40
35.999999999891763
 50
327.46765510472801
 51
332.4852912145995
  0
ARC
  5
DAEE
  8
0
 10
551.32618194423446
 20
225.16157833601139
 30
0.0
 40
189.9999999999481
 50
176.36830709905001
 51
179.01420676126639
  0
ARC
  5
DAF0
  8
0
 10
347.42618194434363
 20
245.06157833604249
 30
0.0
 40
36.00000000006775
 50
207.51470878542401
 51
212.53234489526631
  0
ARC
  5
DAF1
  8
0
 10
125.5261819444703
 20
225.1615783360171
 30
0.0
 40
189.9999999998158
 50
0.9857932387321534
 51
3.6316929009508518
  0
ARC
  5
DAF3
  8
0
 10
312.5261819442859
 20
251.56157833600659
 30
0.0
 40
53.000000000000277
 50
12.44007086194148
 51
25.105938639665361
  0
ARC
  5
DAF4
  8
0
 10
406.62618194428478
 20
249.9615783360066
 30
0.0
 40
44.299999999998427
 50
162.9119278892947
 51
184.92614955244341
  0
ARC
  5
DAF5
  8
0
 10
551.32618194428323
 20
225.1615783360096
 30
0.0
 40
189.9999999999969
 50
173.65559192465329
 51
176.36830709905041
  0
ARC
  5
DAF6
  8
0
 10
336.42618194428638
 20
261.86157833600657
 30
0.0
 40
26.999999999999869
 50
26.83293305076058
 51
28.156277449537981
  0
ARC
  5
DAF7
  8
0
 10
270.22618194428662
 20
249.9615783360066
 30
0.0
 40
44.299999999999933
 50
355.07385044755642
 51
17.088072110705191
  0
ARC
  5
DAF8
  8
0
 10
364.32618194428602
 20
251.56157833600659
 30
0.0
 40
52.999999999999702
 50
154.8940613603327
 51
167.5599291380579
  0
ARC
  5
DAF9
  8
0
 10
125.5261819442983
 20
225.16157833600761
 30
0.0
 40
189.99999999998809
 50
3.6316929009504459
 51
6.344408075347121
  0
ARC
  5
DAFA
  8
0
 10
340.42618194428638
 20
261.86157833600657
 30
0.0
 40
26.999999999999961
 50
151.8437225504633
 51
153.16706694923801
  0
ARC
  5
DAFB
  8
0
 10
338.9088297409811
 20
226.24285347311621
 30
0.0
 40
15.188945443505251
 50
223.6915950293334
 51
239.39629450556981
  0
ARC
  5
DAFD
  8
0
 10
337.94353414746081
 20
226.24285347326381
 30
0.0
 40
15.18894544370194
 50
300.60370549455888
 51
316.30840497060268
  0
ARC
  5
DAFF
  8
0
 10
337.94353414771581
 20
226.2428534730285
 30
0.0
 40
15.18894544336618
 50
282.18378262033031
 51
288.9505801101983
  0
ARC
  5
DB00
  8
0
 10
338.42618194428638
 20
208.42359445997701
 30
0.0
 40
4.0311074434418881
 50
47.508210503519273
 51
132.49178949648069
  0
ARC
  5
DB01
  8
0
 10
338.90882983250191
 20
226.24285383572871
 30
0.0
 40
15.18894581723827
 50
251.04942000248781
 51
257.8162173305036
  0
ARC
  5
DB04
  8
0
 10
348.72618194428247
 20
229.26157833601189
 30
0.0
 40
11.100000000006441
 50
307.55272634171962
 51
314.66392542939627
  0
ARC
  5
DB06
  8
0
 10
329.42618194429338
 20
245.06157833600119
 30
0.0
 40
35.999999999991118
 50
318.8381313767635
 51
327.46765510473608
  0
LINE
  5
DB08
  8
0
 10
320.32346991315808
 20
221.3667898677013
 30
0.0
 11
321.3608290340531
 21
220.46157833600671
 31
0.0
  0
ARC
  5
DB09
  8
0
 10
347.42618194427962
 20
245.06157833600261
 30
0.0
 40
35.99999999999234
 50
212.5323448952667
 51
221.16186862324341
  0
LINE
  5
DB0A
  8
0
 10
352.72618194428628
 20
218.66934215297681
 30
0.0
 11
352.72618194428628
 21
218.90735214570151
 31
0.0
  0
LINE
  5
DB0B
  8
0
 10
351.4507077432491
 20
218.6693421529767
 30
0.0
 11
352.72618194428628
 21
218.66934215297681
 31
0.0
  0
ARC
  5
DB0C
  8
0
 10
348.7261819442927
 20
229.26157833599561
 30
0.0
 40
11.09999999998737
 50
291.12232863162802
 51
307.55272634172951
  0
LINE
  5
DB0D
  8
0
 10
325.40165614532373
 20
218.66934215297681
 30
0.0
 11
324.12618194428637
 21
218.66934215297681
 31
0.0
  0
LINE
  5
DB0E
  8
0
 10
324.12618194428637
 20
218.90735214570151
 30
0.0
 11
324.12618194428637
 21
218.66934215297681
 31
0.0
  0
ARC
  5
DB0F
  8
0
 10
328.12618194428779
 20
229.26157833600899
 30
0.0
 40
11.10000000000278
 50
232.44727365828049
 51
248.8776713683649
  0
LINE
  5
DB10
  8
0
 10
344.16300319362568
 20
287.56014947291391
 30
0.0
 11
332.68936069494782
 21
287.56014947291391
 31
0.0
  0
ARC
  5
DB11
  8
0
 10
338.9261819441125
 20
265.0615783354063
 30
0.0
 40
23.100000000624451
 50
71.000486832135877
 51
76.897005047449369
  0
ARC
  5
DB12
  8
0
 10
337.9444408329415
 20
264.99811633830831
 30
0.0
 40
23.165949288206939
 50
103.11139549950489
 51
108.9911126209056
  0
LINE
  5
DB13
  8
0
 10
345.67618194427888
 20
213.16958985081931
 30
0.0
 11
345.52618194428629
 21
213.08202082176209
 31
0.0
  0
LINE
  5
DB14
  8
0
 10
343.02618194428629
 20
211.92954655053279
 30
0.0
 11
342.87618194428637
 21
211.87716346535609
 31
0.0
  0
LINE
  5
DB15
  8
0
 10
333.97618194428628
 20
211.8771634642261
 30
0.0
 11
333.8261819442863
 21
211.92954655053279
 31
0.0
  0
LINE
  5
DB16
  8
0
 10
331.32618194428642
 20
213.0820208217622
 30
0.0
 11
331.17618194428638
 21
213.16958985082371
 31
0.0
  0
LINE
  5
DD74
  8
0
 10
237.52710443906579
 20
381.06157606626181
 30
0.0
 11
230.1761819442865
 21
381.06157606626181
 31
0.0
  0
LINE
  5
DD75
  8
0
 10
213.8761819442864
 20
381.06157606626181
 30
0.0
 11
209.58529960538209
 21
381.06157606626181
 31
0.0
  0
LINE
  5
DD76
  8
0
 10
209.58529960538209
 20
381.06157606626181
 30
0.0
 11
209.58529960538209
 21
339.06157606626158
 31
0.0
  0
LINE
  5
DD77
  8
0
 10
237.52710443906579
 20
339.06157606626158
 30
0.0
 11
237.52710443906579
 21
381.06157606626181
 31
0.0
  0
LINE
  5
DD78
  8
0
 10
209.58529960538209
 20
339.06157606626158
 30
0.0
 11
213.8761819442864
 21
339.06157606626158
 31
0.0
  0
LINE
  5
DD79
  8
0
 10
230.1761819442865
 20
339.06157606626158
 30
0.0
 11
237.52710443906579
 21
339.06157606626158
 31
0.0
  0
LINE
  5
DD7A
  8
0
 10
220.0827452811132
 20
368.08201485078359
 30
0.0
 11
219.8536578829804
 21
368.64118241236542
 31
0.0
  0
LINE
  5
DD7C
  8
0
 10
223.96961860745961
 20
368.0820148507832
 30
0.0
 11
224.1987060055921
 21
368.64118241236559
 31
0.0
  0
POLYLINE
  5
DD7D
  8
0
 66
     1
 10
0.0
 20
0.0
 30
0.0
 70
   128
  0
VERTEX
  5
EF96
  8
0
 10
223.96961860745941
 20
368.08201485078331
 30
0.0
  0
VERTEX
  5
EF97
  8
0
 10
223.4452029481146
 20
367.107292035314
 30
0.0
  0
VERTEX
  5
EF98
  8
0
 10
222.76944946917251
 20
366.21746383037407
 30
0.0
  0
VERTEX
  5
EF99
  8
0
 10
222.4242011235761
 20
365.94314825613088
 30
0.0
  0
VERTEX
  5
EF9A
  8
0
 10
222.1149328599831
 20
365.81411554240219
 30
0.0
  0
VERTEX
  5
EF9B
  8
0
 10
222.02618194428621
 20
365.79839731560111
 30
0.0
  0
SEQEND
  5
EF9C
  8
0
  0
ARC
  5
DD7E
  8
0
 10
223.7312517117993
 20
369.21824434975372
 30
0.0
 40
3.8213370237505582
 50
197.29779959916451
 51
243.500041141563
  0
LINE
  5
DD7F
  8
0
 10
222.0261819442872
 20
365.79839731560071
 30
0.0
 11
222.02618194428641
 21
354.3247548169229
 31
0.0
  0
ARC
  5
DD81
  8
0
 10
220.32111217677121
 20
350.90490778276887
 30
0.0
 40
3.8213370237532729
 50
17.29779959916802
 51
63.50004114154121
  0
LINE
  5
DD82
  8
0
 10
224.19870600559241
 20
351.48196972015722
 30
0.0
 11
223.96961860745961
 21
352.04113728173991
 31
0.0
  0
LINE
  5
DD84
  8
0
 10
219.85365788298029
 20
351.48196972015722
 30
0.0
 11
220.0827452811132
 21
352.0411372817394
 31
0.0
  0
ARC
  5
DD85
  8
0
 10
223.73125171180089
 20
350.9049077827691
 30
0.0
 40
3.8213370237523829
 50
116.4999588584505
 51
162.70220040083541
  0
LINE
  5
DD87
  8
0
 10
230.00267130042059
 20
370.83418337518941
 30
0.0
 11
230.00267130042059
 21
349.28896875733312
 31
0.0
  0
ARC
  5
DD88
  8
0
 10
212.78480627552341
 20
346.3665888129832
 30
0.0
 40
17.464111215710791
 50
5.2310465769368317
 51
9.6329825042798127
  0
LINE
  5
DD89
  8
0
 10
230.1761819442865
 20
334.20591746638769
 30
0.0
 11
230.1761819442863
 21
347.95883028420371
 31
0.0
  0
POLYLINE
  5
DD8A
  8
0
 66
     1
 10
0.0
 20
0.0
 30
0.0
 70
   128
  0
VERTEX
  5
EF9D
  8
0
 10
224.19870600559241
 20
351.48196972015722
 30
0.0
  0
VERTEX
  5
EF9E
  8
0
 10
225.1180915366356
 20
349.61782341519063
 30
0.0
  0
VERTEX
  5
EF9F
  8
0
 10
226.038087523998
 20
347.82648555317468
 30
0.0
  0
VERTEX
  5
EFA0
  8
0
 10
226.94810749448081
 20
346.07268885335338
 30
0.0
  0
VERTEX
  5
EFA1
  8
0
 10
227.8018587908268
 20
344.39981436921897
 30
0.0
  0
VERTEX
  5
EFA2
  8
0
 10
228.42295761130279
 20
343.13182844239321
 30
0.0
  0
VERTEX
  5
EFA3
  8
0
 10
228.97728992338281
 20
341.9261451970454
 30
0.0
  0
VERTEX
  5
EFA4
  8
0
 10
229.4603087415617
 20
340.76324313876017
 30
0.0
  0
VERTEX
  5
EFA5
  8
0
 10
229.84048113531151
 20
339.68300377317001
 30
0.0
  0
VERTEX
  5
EFA6
  8
0
 10
230.04482023772249
 20
338.94378296040321
 30
0.0
  0
VERTEX
  5
EFA7
  8
0
 10
230.1761819442865
 20
338.25665346410551
 30
0.0
  0
SEQEND
  5
EFA8
  8
0
  0
POLYLINE
  5
DD8B
  8
0
 66
     1
 10
0.0
 20
0.0
 30
0.0
 70
   128
  0
VERTEX
  5
EFA9
  8
0
 10
230.1761819442865
 20
381.86649866841748
 30
0.0
  0
VERTEX
  5
EFAA
  8
0
 10
229.99355405236381
 20
380.97372148841652
 30
0.0
  0
VERTEX
  5
EFAB
  8
0
 10
229.69220510253169
 20
379.990581078113
 30
0.0
  0
VERTEX
  5
EFAC
  8
0
 10
229.27279249986049
 20
378.89029304467613
 30
0.0
  0
VERTEX
  5
EFAD
  8
0
 10
228.76038904401051
 20
377.71362885541839
 30
0.0
  0
VERTEX
  5
EFAE
  8
0
 10
228.0095997849009
 20
376.14079947426831
 30
0.0
  0
VERTEX
  5
EFAF
  8
0
 10
227.1667828642332
 20
374.47424951872642
 30
0.0
  0
VERTEX
  5
EFB0
  8
0
 10
226.23372105026459
 20
372.67398400878301
 30
0.0
  0
VERTEX
  5
EFB1
  8
0
 10
225.26322410987959
 20
370.79072649047652
 30
0.0
  0
VERTEX
  5
EFB2
  8
0
 10
224.19870600559241
 20
368.64118241236542
 30
0.0
  0
SEQEND
  5
EFB3
  8
0
  0
LINE
  5
DD8C
  8
0
 10
230.1761819442865
 20
372.16432184831888
 30
0.0
 11
230.1761819442865
 21
385.91723466613558
 31
0.0
  0
LINE
  5
DD8D
  8
0
 10
230.1761819442865
 20
372.16432184831899
 30
0.0
 11
230.00267130041971
 21
370.8341833751897
 31
0.0
  0
POLYLINE
  5
DD8E
  8
0
 66
     1
 10
0.0
 20
0.0
 30
0.0
 70
   128
  0
VERTEX
  5
EFB4
  8
0
 10
219.85365788298029
 20
351.48196972015722
 30
0.0
  0
VERTEX
  5
EFB5
  8
0
 10
218.93427235193721
 20
349.61782341519063
 30
0.0
  0
VERTEX
  5
EFB6
  8
0
 10
218.0142763645747
 20
347.82648555317479
 30
0.0
  0
VERTEX
  5
EFB7
  8
0
 10
217.10425639409209
 20
346.07268885335338
 30
0.0
  0
VERTEX
  5
EFB8
  8
0
 10
216.2505050977459
 20
344.39981436921897
 30
0.0
  0
VERTEX
  5
EFB9
  8
0
 10
215.62940627727011
 20
343.13182844239321
 30
0.0
  0
VERTEX
  5
EFBA
  8
0
 10
215.07507396519009
 20
341.9261451970454
 30
0.0
  0
VERTEX
  5
EFBB
  8
0
 10
214.592055147011
 20
340.76324313876017
 30
0.0
  0
VERTEX
  5
EFBC
  8
0
 10
214.21188275326131
 20
339.68300377317001
 30
0.0
  0
VERTEX
  5
EFBD
  8
0
 10
214.00754365085049
 20
338.94378296040321
 30
0.0
  0
VERTEX
  5
EFBE
  8
0
 10
213.8761819442864
 20
338.25665346410551
 30
0.0
  0
SEQEND
  5
EFBF
  8
0
  0
LINE
  5
DD8F
  8
0
 10
213.8761819442864
 20
385.9172346661357
 30
0.0
 11
213.8761819442864
 21
334.20591746638758
 31
0.0
  0
POLYLINE
  5
DD90
  8
0
 66
     1
 10
0.0
 20
0.0
 30
0.0
 70
   128
  0
VERTEX
  5
EFC0
  8
0
 10
213.8761819442864
 20
381.86649866841748
 30
0.0
  0
VERTEX
  5
EFC1
  8
0
 10
214.05880983620901
 20
380.97372148841652
 30
0.0
  0
VERTEX
  5
EFC2
  8
0
 10
214.36015878604101
 20
379.99058107811288
 30
0.0
  0
VERTEX
  5
EFC3
  8
0
 10
214.77957138871241
 20
378.89029304467601
 30
0.0
  0
VERTEX
  5
EFC4
  8
0
 10
215.2919748445623
 20
377.71362885541828
 30
0.0
  0
VERTEX
  5
EFC5
  8
0
 10
216.042764103672
 20
376.14079947426819
 30
0.0
  0
VERTEX
  5
EFC6
  8
0
 10
216.88558102433959
 20
374.47424951872631
 30
0.0
  0
VERTEX
  5
EFC7
  8
0
 10
217.81864283830831
 20
372.6739840087829
 30
0.0
  0
VERTEX
  5
EFC8
  8
0
 10
218.7891397786932
 20
370.79072649047629
 30
0.0
  0
VERTEX
  5
EFC9
  8
0
 10
219.8536578829804
 20
368.64118241236542
 30
0.0
  0
SEQEND
  5
EFCA
  8
0
  0
ARC
  5
DD97
  8
0
 10
191.63518514825321
 20
315.39308715944418
 30
0.0
 40
51.195651992478162
 50
31.149280534145181
 51
41.459093725773648
  0
ARC
  5
DD98
  8
0
 10
194.45256109297819
 20
402.66017958659131
 30
0.0
 40
47.714823384452949
 50
318.163719660087
 51
329.22790607999798
  0
LINE
  5
DD9C
  8
0
 10
213.8761819442864
 20
334.20591746638769
 30
0.0
 11
230.1761819442865
 21
334.20591746638769
 31
0.0
  0
LINE
  5
DD9F
  8
0
 10
230.1761819442865
 20
385.91723466613558
 30
0.0
 11
213.8761819442864
 21
385.91723466613558
 31
0.0
  0
ARC
  5
DDA2
  8
0
 10
374.25906595271249
 20
472.26299988292811
 30
0.0
 40
188.1750086869215
 50
209.97447330338591
 51
211.53651091216091
  0
ARC
  5
DDA4
  8
0
 10
377.16310003512172
 20
246.13205660930259
 30
0.0
 40
191.5540091473917
 50
148.4772670404966
 51
150.011748743954
  0
ARC
  5
DDA7
  8
0
 10
160.4932917437649
 20
435.77019763494241
 30
0.0
 40
94.484046923868817
 50
322.4970612369118
 51
324.61800723732898
  0
ARC
  5
DDA8
  8
0
 10
295.36963784721729
 20
429.97768403913921
 30
0.0
 40
98.750123675184867
 50
209.6929888119567
 51
211.59039635940681
  0
ARC
  5
DDA9
  8
0
 10
299.99431762367362
 20
287.40589588294807
 30
0.0
 40
104.1246382573465
 50
148.4585762268452
 51
150.2580386017909
  0
ARC
  5
DDAA
  8
0
 10
156.90324893363101
 20
281.70287819721551
 30
0.0
 40
98.945514381793231
 50
35.440078282824047
 51
37.454725002928079
  0
LINE
  5
DDAB
  8
0
 10
209.58618194428649
 20
339.06157606626158
 30
0.0
 11
209.59417921711611
 21
339.07707619566162
 31
0.0
  0
LINE
  5
DF15
  8
0
 10
237.5271036046006
 20
24.672437184364242
 30
0.0
 11
237.5271036046006
 21
26.672437184364771
 31
0.0
  0
LINE
  5
DF19
  8
0
 10
237.5271036046006
 20
64.672437184364782
 30
0.0
 11
237.5271036046006
 21
66.672437184364355
 31
0.0
  0
LINE
  5
DF1A
  8
0
 10
209.58529877091709
 20
66.672437184364355
 30
0.0
 11
209.58529877091709
 21
51.984317315484539
 31
0.0
  0
LINE
  5
DF1B
  8
0
 10
209.58529877091709
 20
49.276580460043967
 30
0.0
 11
209.58529877091709
 21
42.068293908685362
 31
0.0
  0
LINE
  5
DF1C
  8
0
 10
209.58529877091709
 20
39.360557053244811
 30
0.0
 11
209.58529877091709
 21
24.672437184364242
 31
0.0
  0
LINE
  5
DF1D
  8
0
 10
237.5271036046008
 20
66.672437184364355
 30
0.0
 11
230.1761811098215
 21
66.672437184364355
 31
0.0
  0
LINE
  5
DF1E
  8
0
 10
213.8761811098214
 20
66.672437184364355
 30
0.0
 11
209.58529877091701
 21
66.672437184364355
 31
0.0
  0
LINE
  5
DF1F
  8
0
 10
209.58529877091701
 20
24.672437184364242
 30
0.0
 11
213.8761811098214
 21
24.672437184364242
 31
0.0
  0
LINE
  5
DF20
  8
0
 10
230.1761811098215
 20
24.672437184364242
 30
0.0
 11
237.5271036046008
 21
24.672437184364242
 31
0.0
  0
ARC
  5
DF90
  8
0
 10
262.51216458676731
 20
80.379578658529823
 30
0.0
 40
52.606412070193613
 50
207.3971563483353
 51
214.24999147848831
  0
ARC
  5
DF91
  8
0
 10
260.12546925359561
 20
12.37643275198506
 30
0.0
 40
49.838309759179893
 50
145.54563805815869
 51
152.7805886158167
  0
ARC
  5
DF9B
  8
0
 10
159.4991427834031
 20
-24.705307112294012
 30
0.0
 40
92.317638291462359
 50
36.44125859206531
 51
40.082033221084018
  0
ARC
  5
DF9C
  8
0
 10
160.36241291052559
 20
115.3832042795203
 30
0.0
 40
91.226827598836437
 50
319.93071456539889
 51
323.55566524782512
  0
ARC
  5
DF9D
  8
0
 10
222.2948153413335
 20
25.24219206591879
 30
0.0
 40
7.4105899218147062
 50
92.077429838486339
 51
124.2305252648565
  0
ARC
  5
DF9E
  8
0
 10
231.8748080304251
 20
15.397819852992161
 30
0.0
 40
21.073855699588709
 50
130.72295286028719
 51
141.3946341088909
  0
ARC
  5
DF9F
  8
0
 10
150.28405199077969
 20
64.766142104473403
 30
0.0
 40
74.516787298912519
 50
329.98060331950347
 51
330.91840638040429
  0
POLYLINE
  5
DFA1
  8
0
 66
     1
 10
0.0
 20
0.0
 30
0.0
 70
   128
  0
VERTEX
  5
EFCB
  8
0
 10
215.8061811098213
 20
35.172437184363901
 30
0.0
  0
VERTEX
  5
EFCC
  8
0
 10
214.8419908080395
 20
33.51451007521527
 30
0.0
  0
VERTEX
  5
EFCD
  8
0
 10
213.93311464757821
 20
31.989120834170119
 30
0.0
  0
VERTEX
  5
EFCE
  8
0
 10
213.0786682750695
 20
30.573325933554781
 30
0.0
  0
VERTEX
  5
EFCF
  8
0
 10
212.32256000794061
 20
29.320451673811281
 30
0.0
  0
VERTEX
  5
EFD0
  8
0
 10
211.73197375913981
 20
28.32554966449911
 30
0.0
  0
VERTEX
  5
EFD1
  8
0
 10
211.25282508674309
 20
27.485903704891129
 30
0.0
  0
SEQEND
  5
EFD2
  8
0
  0
ARC
  5
DFA2
  8
0
 10
221.87288902500751
 20
26.12358839917556
 30
0.0
 40
6.5261235731377942
 50
71.661726417264461
 51
88.654055927880066
  0
POLYLINE
  5
DFA6
  8
0
 66
     1
 10
0.0
 20
0.0
 30
0.0
 70
   128
  0
VERTEX
  5
EFD3
  8
0
 10
211.2528250867432
 20
63.858970663837368
 30
0.0
  0
VERTEX
  5
EFD4
  8
0
 10
211.75875126844471
 20
62.973677483668581
 30
0.0
  0
VERTEX
  5
EFD5
  8
0
 10
212.39160194643861
 20
61.909465478277319
 30
0.0
  0
VERTEX
  5
EFD6
  8
0
 10
213.1606353441189
 20
60.63605897269337
 30
0.0
  0
VERTEX
  5
EFD7
  8
0
 10
214.02654863270371
 20
59.200143701224341
 30
0.0
  0
VERTEX
  5
EFD8
  8
0
 10
214.88972376304719
 20
57.749302898241979
 30
0.0
  0
VERTEX
  5
EFD9
  8
0
 10
215.8061811098209
 20
56.172437184365378
 30
0.0
  0
SEQEND
  5
EFDA
  8
0
  0
ARC
  5
DFA8
  8
0
 10
150.27877332578879
 20
26.575739594968109
 30
0.0
 40
74.522855075089268
 50
29.081631799203269
 51
30.019358500894189
  0
ARC
  5
DFA9
  8
0
 10
231.92658118350531
 20
75.996948700236771
 30
0.0
 40
21.145447126014801
 50
218.62348340707311
 51
229.2589296237451
  0
ARC
  5
DFAA
  8
0
 10
222.28134087231589
 20
66.061588253187679
 30
0.0
 40
7.3690441625670822
 50
235.676359294957
 51
268.01568560169608
  0
ARC
  5
DFAB
  8
0
 10
221.86631350117841
 20
65.163261572186968
 30
0.0
 40
6.4682745065885738
 50
271.41624664528109
 51
288.56963935929122
  0
ARC
  5
DFAC
  8
0
 10
229.3062788231407
 20
20.920079640553009
 30
0.0
 40
13.56777893083547
 50
129.61189565417021
 51
145.4890847550773
  0
LINE
  5
DFAD
  8
0
 10
223.3966814620899
 20
31.37243718436449
 30
0.0
 11
223.9261811098213
 21
30.882161378201339
 31
0.0
  0
LINE
  5
DFAF
  8
0
 10
217.4897865563554
 20
27.569725153235989
 30
0.0
 11
218.12618110982109
 21
28.607084274131392
 31
0.0
  0
LINE
  5
DFB0
  8
0
 10
222.02618110982129
 20
31.37243718436444
 30
0.0
 11
223.3966814620899
 21
31.37243718436444
 31
0.0
  0
LINE
  5
DFB2
  8
0
 10
220.655680757553
 20
31.37243718436444
 30
0.0
 11
222.02618110982129
 21
31.37243718436444
 31
0.0
  0
LINE
  5
DFB5
  8
0
 10
223.3966814620897
 20
59.972437184364452
 30
0.0
 11
222.02618110982129
 21
59.972437184364452
 31
0.0
  0
POLYLINE
  5
DFB6
  8
0
 66
     1
 10
0.0
 20
0.0
 30
0.0
 70
   128
  0
VERTEX
  5
EFDB
  8
0
 10
223.9261811098213
 20
60.4287774577015
 30
0.0
  0
VERTEX
  5
EFDC
  8
0
 10
223.6821102978154
 20
60.207676181557808
 30
0.0
  0
VERTEX
  5
EFDD
  8
0
 10
223.3966814620897
 20
59.972437184364473
 30
0.0
  0
SEQEND
  5
EFDE
  8
0
  0
ARC
  5
DFB8
  8
0
 10
230.98668197418749
 20
71.961878535053501
 30
0.0
 40
15.826442747494269
 50
215.64967126263161
 51
229.24934832812289
  0
LINE
  5
DFB9
  8
0
 10
222.02618110982129
 20
59.972437184364452
 30
0.0
 11
220.655680757553
 21
59.972437184364452
 31
0.0
  0
ARC
  5
DFBA
  8
0
 10
198.43069920651419
 20
51.368977513786497
 30
0.0
 40
22.741194051788579
 50
29.994808766481182
 51
33.061394795673593
  0
ARC
  5
DFBC
  8
0
 10
235.49122019880249
 20
13.73218600281831
 30
0.0
 40
22.705265973398529
 50
142.45084445504139
 51
152.20099633764579
  0
POLYLINE
  5
DFBF
  8
0
 66
     1
 10
0.0
 20
0.0
 30
0.0
 70
   128
  0
VERTEX
  5
EFDF
  8
0
 10
217.48978655635551
 20
63.77514921549286
 30
0.0
  0
VERTEX
  5
EFE0
  8
0
 10
216.32500724499539
 20
65.439690141908528
 30
0.0
  0
VERTEX
  5
EFE1
  8
0
 10
215.40638974098351
 20
67.023604911549214
 30
0.0
  0
SEQEND
  5
EFE2
  8
0
  0
ARC
  5
DFC1
  8
0
 10
211.1811295161481
 20
15.29072467215542
 30
0.0
 40
19.661421078332729
 50
27.342124430790239
 51
35.63701286791845
  0
ARC
  5
DFC2
  8
0
 10
211.20568627034459
 20
76.041675255795894
 30
0.0
 40
19.633878265938979
 50
324.07469890194523
 51
332.65729720586739
  0
ARC
  5
DFC4
  8
0
 10
353.62842802864071
 20
118.5116515487202
 30
0.0
 40
147.50034174504839
 50
199.77817555383459
 51
200.43048513742349
  0
LINE
  5
DFC5
  8
0
 10
229.223190778564
 20
68.600558737139579
 30
0.0
 11
214.82917144107881
 21
68.600558737139522
 31
0.0
  0
ARC
  5
DFC6
  8
0
 10
90.471399053355299
 20
118.4942778078395
 30
0.0
 40
147.44979793021631
 50
339.56940305987717
 51
340.22193624886472
  0
ARC
  5
DFC7
  8
0
 10
353.62842802871262
 20
-27.166777180022859
 30
0.0
 40
147.50034174512689
 50
159.5695148625756
 51
160.2218244461628
  0
ARC
  5
DFC8
  8
0
 10
90.423934194260482
 20
-27.16677717881257
 30
0.0
 40
147.5003417415835
 50
19.778175553832771
 51
20.430485137433859
  0
LINE
  5
DFC9
  8
0
 10
214.82917144107861
 20
22.74431563158922
 30
0.0
 11
229.2231907785642
 21
22.74431563158927
 31
0.0
  0
ARC
  5
DFCA
  8
0
 10
222.0385724215684
 20
23.037400483845222
 30
0.0
 40
8.4920958801374695
 50
148.40978516931
 51
163.98201446405881
  0
ARC
  5
DFCB
  8
0
 10
214.7332488475098
 20
21.541418591386531
 30
0.0
 40
1.2067155560799829
 50
85.440711601612847
 51
135.25512570138139
  0
LINE
  5
DFCC
  8
0
 10
213.8761811098214
 20
25.380701683299709
 30
0.0
 11
213.8761811098214
 21
19.816778584490219
 31
0.0
  0
ARC
  5
DFCD
  8
0
 10
224.72200348441979
 20
24.004041637373842
 30
0.0
 40
5.62523301308316
 50
14.16584421053922
 51
28.31780374343429
  0
LINE
  5
DFCE
  8
0
 10
230.1761811098215
 20
19.816778584490219
 30
0.0
 11
230.1761811098215
 21
25.380701683299719
 31
0.0
  0
ARC
  5
DFCF
  8
0
 10
229.31800955355311
 20
21.538442234486581
 30
0.0
 40
1.209595490207565
 50
44.808201076862829
 51
94.495961620139525
  0
POLYLINE
  5
DFD0
  8
0
 66
     1
 10
0.0
 20
0.0
 30
0.0
 70
   128
  0
VERTEX
  5
EFE3
  8
0
 10
214.804865797037
 20
63.858970663837283
 30
0.0
  0
VERTEX
  5
EFE4
  8
0
 10
214.1856070964925
 20
65.073871218987264
 30
0.0
  0
VERTEX
  5
EFE5
  8
0
 10
213.8761811098214
 20
65.964172685428949
 30
0.0
  0
SEQEND
  5
EFE6
  8
0
  0
LINE
  5
DFD1
  8
0
 10
213.8761811098214
 20
71.528095784238232
 30
0.0
 11
213.8761811098214
 21
65.964172685428949
 31
0.0
  0
ARC
  5
DFD2
  8
0
 10
214.73435266608979
 20
69.806432134242399
 30
0.0
 40
1.2095954902077379
 50
224.80820107686279
 51
274.4959616201395
  0
ARC
  5
DFD3
  8
0
 10
229.31911337213279
 20
69.803455777342535
 30
0.0
 40
1.2067155560802669
 50
265.44071160161292
 51
315.25512570138062
  0
LINE
  5
DFD4
  8
0
 10
230.1761811098215
 20
65.964172685428949
 30
0.0
 11
230.1761811098215
 21
71.528095784238232
 31
0.0
  0
ARC
  5
DFD5
  8
0
 10
224.73299770099379
 20
67.336310796041516
 30
0.0
 40
5.6134667200165023
 50
331.66991083003239
 51
345.85144436001889
  0
ARC
  5
DFDC
  8
0
 10
182.68559674701501
 20
105.43373390421699
 30
0.0
 40
67.156676325367101
 50
322.63011405451857
 51
324.73286441897858
  0
ARC
  5
DFDD
  8
0
 10
184.51399527332421
 20
-12.72314555267533
 30
0.0
 40
64.874659578344435
 50
35.199710836406673
 51
37.391420027079931
  0
ARC
  5
DFDE
  8
0
 10
295.36963701267359
 20
115.5885451571977
 30
0.0
 40
98.750123675094557
 50
209.6929888119576
 51
211.59039635940891
  0
ARC
  5
DFDF
  8
0
 10
299.45206765385979
 20
-26.662024939721359
 30
0.0
 40
103.49446635407681
 50
148.4530973604771
 51
150.26351746816081
  0
LINE
  5
DFE0
  8
0
 10
209.58618110982141
 20
24.672437184364242
 30
0.0
 11
209.59417838265111
 21
24.687937313764198
 31
0.0
  0
LINE
  5
DFE1
  8
0
 10
213.8761811098214
 20
71.528095784238232
 30
0.0
 11
230.1761811098215
 21
71.528095784238232
 31
0.0
  0
LINE
  5
DFE4
  8
0
 10
230.1761811098215
 20
19.816778584490219
 30
0.0
 11
213.8761811098214
 21
19.816778584490219
 31
0.0
  0
TEXT
  5
EDE4
  8
0
 62
     3
 10
0.0
 20
0.0
 30
0.0
 40
10.0
  1
TCDVFL06160-SUS
  7
STANDARD1
  0
ENDSEC
  0
EOF
