  0
SECTION
  2
HEADER
  9
$ACADVER
  1
AC1009
  9
$INSBASE
 10
0.0
 20
0.0
 30
0.0
  9
$EXTMIN
 10
0.0
 20
-2.960436562073669
 30
0.0
  9
$EXTMAX
 10
419.81952979272472
 20
409.75851083709648
 30
0.0
  9
$LIMMIN
 10
0.0
 20
0.0
  9
$LIMMAX
 10
420.0
 20
297.0
  9
$ORTHOMODE
 70
     1
  9
$REGENMODE
 70
     1
  9
$FILLMODE
 70
     1
  9
$QTEXTMODE
 70
     0
  9
$MIRRTEXT
 70
     0
  9
$DRAGMODE
 70
     2
  9
$LTSCALE
 40
10.0
  9
$OSMODE
 70
    55
  9
$ATTMODE
 70
     1
  9
$TEXTSIZE
 40
2.5
  9
$TRACEWID
 40
1.0
  9
$TEXTSTYLE
  7
STANDARD
  9
$CLAYER
  8
0
  9
$CELTYPE
  6
BYLAYER
  9
$CECOLOR
 62
   256
  9
$DIMSCALE
 40
1.0
  9
$DIMASZ
 40
2.5
  9
$DIMEXO
 40
0.625
  9
$DIMDLI
 40
3.75
  9
$DIMRND
 40
0.0
  9
$DIMDLE
 40
0.0
  9
$DIMEXE
 40
1.25
  9
$DIMTP
 40
0.0
  9
$DIMTM
 40
0.0
  9
$DIMTXT
 40
2.5
  9
$DIMCEN
 40
2.5
  9
$DIMTSZ
 40
0.0
  9
$DIMTOL
 70
     0
  9
$DIMLIM
 70
     0
  9
$DIMTIH
 70
     0
  9
$DIMTOH
 70
     0
  9
$DIMSE1
 70
     0
  9
$DIMSE2
 70
     0
  9
$DIMTAD
 70
     1
  9
$DIMZIN
 70
     8
  9
$DIMBLK
  1

  9
$DIMASO
 70
     1
  9
$DIMSHO
 70
     1
  9
$DIMPOST
  1

  9
$DIMAPOST
  1

  9
$DIMALT
 70
     0
  9
$DIMALTD
 70
     3
  9
$DIMALTF
 40
0.03937007874016
  9
$DIMLFAC
 40
1.0
  9
$DIMTOFL
 70
     1
  9
$DIMTVP
 40
0.0
  9
$DIMTIX
 70
     0
  9
$DIMSOXD
 70
     0
  9
$DIMSAH
 70
     0
  9
$DIMBLK1
  1

  9
$DIMBLK2
  1

  9
$DIMSTYLE
  2
ISO-25
  9
$DIMCLRD
 70
     0
  9
$DIMCLRE
 70
     0
  9
$DIMCLRT
 70
     0
  9
$DIMTFAC
 40
1.0
  9
$DIMGAP
 40
0.625
  9
$LUNITS
 70
     2
  9
$LUPREC
 70
     4
  9
$SKETCHINC
 40
1.0
  9
$FILLETRAD
 40
0.0
  9
$AUNITS
 70
     0
  9
$AUPREC
 70
     4
  9
$MENU
  1
.
  9
$ELEVATION
 40
0.0
  9
$PELEVATION
 40
0.0
  9
$THICKNESS
 40
0.0
  9
$LIMCHECK
 70
     0
  9
$BLIPMODE
 70
     0
  9
$CHAMFERA
 40
0.0
  9
$CHAMFERB
 40
0.0
  9
$SKPOLY
 70
     0
  9
$TDCREATE
 40
2454083.4444627082
  9
$TDUPDATE
 40
2456598.4300504858
  9
$TDINDWG
 40
0.7911418287000001
  9
$TDUSRTIMER
 40
0.7911418287000001
  9
$USRTIMER
 70
     1
  9
$ANGBASE
 50
0.0
  9
$ANGDIR
 70
     0
  9
$PDMODE
 70
     0
  9
$PDSIZE
 40
0.0
  9
$PLINEWID
 40
0.0
  9
$COORDS
 70
     1
  9
$SPLFRAME
 70
     0
  9
$SPLINETYPE
 70
     6
  9
$SPLINESEGS
 70
     8
  9
$ATTDIA
 70
     0
  9
$ATTREQ
 70
     1
  9
$HANDLING
 70
     1
  9
$HANDSEED
  5
7B3F
  9
$SURFTAB1
 70
     6
  9
$SURFTAB2
 70
     6
  9
$SURFTYPE
 70
     6
  9
$SURFU
 70
     6
  9
$SURFV
 70
     6
  9
$UCSNAME
  2

  9
$UCSORG
 10
0.0
 20
0.0
 30
0.0
  9
$UCSXDIR
 10
1.0
 20
0.0
 30
0.0
  9
$UCSYDIR
 10
0.0
 20
1.0
 30
0.0
  9
$PUCSNAME
  2

  9
$PUCSORG
 10
0.0
 20
0.0
 30
0.0
  9
$PUCSXDIR
 10
1.0
 20
0.0
 30
0.0
  9
$PUCSYDIR
 10
0.0
 20
1.0
 30
0.0
  9
$USERI1
 70
     0
  9
$USERI2
 70
     0
  9
$USERI3
 70
     0
  9
$USERI4
 70
     0
  9
$USERI5
 70
     0
  9
$USERR1
 40
0.0
  9
$USERR2
 40
0.0
  9
$USERR3
 40
0.0
  9
$USERR4
 40
0.0
  9
$USERR5
 40
0.0
  9
$WORLDVIEW
 70
     1
  9
$SHADEDGE
 70
     3
  9
$SHADEDIF
 70
    70
  9
$TILEMODE
 70
     1
  9
$MAXACTVP
 70
    64
  9
$PLIMCHECK
 70
     0
  9
$PEXTMIN
 10
0.0
 20
0.0
 30
0.0
  9
$PEXTMAX
 10
0.0
 20
0.0
 30
0.0
  9
$PLIMMIN
 10
0.0
 20
0.0
  9
$PLIMMAX
 10
12.0
 20
9.0
  9
$UNITMODE
 70
     0
  9
$VISRETAIN
 70
     1
  9
$PLINEGEN
 70
     0
  9
$PSLTSCALE
 70
     1
  0
ENDSEC
  0
SECTION
  2
TABLES
  0
TABLE
  2
VPORT
 70
     1
  0
VPORT
  2
*ACTIVE
 70
     0
 10
0.0
 20
0.0
 11
1.0
 21
1.0
 12
209.9935917975306
 22
299.46773592761861
 13
0.0
 23
0.0
 14
10.0
 24
10.0
 15
10.0
 25
10.0
 16
0.0
 26
0.0
 36
1.0
 17
0.0
 27
0.0
 37
0.0
 40
610.2261279508574
 41
1.7807262569832401
 42
50.0
 43
0.0
 44
0.0
 50
0.0
 51
0.0
 71
     0
 72
  1000
 73
     1
 74
     3
 75
     0
 76
     0
 77
     0
 78
     0
  0
ENDTAB
  0
TABLE
  2
LTYPE
 70
     2
  0
LTYPE
  2
CONTINUOUS
 70
     0
  3
Solid line
 72
    65
 73
     0
 40
0.0
  0
LTYPE
  2
CENTER
 70
     0
  3
____ _ ____ _ ____ _ ____ _ ____ _ ____ _ ____
 72
    65
 73
     4
 40
2.0
 49
1.25
 49
-0.25
 49
0.25
 49
-0.25
  0
ENDTAB
  0
TABLE
  2
LAYER
 70
     4
  0
LAYER
  2
0
 70
     0
 62
     7
  6
CONTINUOUS
  0
LAYER
  2
DEFPOINTS
 70
     0
 62
     7
  6
CONTINUOUS
  0
LAYER
  2
1
 70
     0
 62
     1
  6
CENTER
  0
LAYER
  2
3
 70
     0
 62
     3
  6
CONTINUOUS
  0
ENDTAB
  0
TABLE
  2
STYLE
 70
     2
  0
STYLE
  2
STANDARD
 70
     0
 40
0.0
 41
1.0
 50
0.0
 71
     0
 42
2.5
  3
txt
  4

  0
STYLE
  2
STANDARD1
 70
     0
 40
0.0
 41
1.0
 50
0.0
 71
     0
 42
3.0
  3
txt
  4

  0
ENDTAB
  0
TABLE
  2
VIEW
 70
     2
  0
VIEW
  2
OLE1
 70
     0
 40
127.1334777020724
 10
1222.9606881221639
 20
434.81520709334808
 41
227.88505305451989
 11
0.0
 21
0.0
 31
1.0
 12
0.0
 22
0.0
 32
0.0
 42
50.0
 43
0.0
 44
0.0
 50
0.0
 71
     0
  0
VIEW
  2
OLE2
 70
     0
 40
1753.071563956453
 10
1096.5571390838979
 20
896.81951387107415
 41
3142.3572577537848
 11
0.0
 21
0.0
 31
1.0
 12
0.0
 22
0.0
 32
0.0
 42
50.0
 43
0.0
 44
0.0
 50
0.0
 71
     0
  0
ENDTAB
  0
TABLE
  2
UCS
 70
     0
  0
ENDTAB
  0
TABLE
  2
APPID
 70
    40
  0
APPID
  2
ACAD
 70
     0
  0
APPID
  2
_FTCNV
 70
     0
  0
APPID
  2
DCO15
 70
     0
  0
APPID
  2
GENIUS_GENOREF_13
 70
     0
  0
APPID
  2
GENIUS_GENOENT_13
 70
     0
  0
APPID
  2
GENIUS_GENBH_13
 70
     0
  0
APPID
  2
GENIUS_GENOBJ_13
 70
     0
  0
APPID
  2
GENIUS_GENODEF_13
 70
     0
  0
APPID
  2
GENIUS_GENOLIS_13
 70
     0
  0
APPID
  2
GENIUS_GENOBJ-NBEHI-BHF_13
 70
     0
  0
APPID
  2
GENIUS_GENOBJ-NBEHI-BHB_13
 70
     0
  0
APPID
  2
GENIUS_GENOBJ-F-PART_13
 70
     0
  0
APPID
  2
GENIUS_GEFSTDP_13
 70
     0
  0
APPID
  2
GENIUS_GENOBJ-N-RSSYM_13
 70
     0
  0
APPID
  2
GENIUS_GENSYMENT_13
 70
     0
  0
APPID
  2
GENIUS_GENOBJ-N-TIT_13
 70
     0
  0
APPID
  2
GENIUS_GENTITLE_13
 70
     0
  0
APPID
  2
GENIUS_GENZVEED_13
 70
     0
  0
APPID
  2
GENIUS_GENOBJ-N-LEADER_13
 70
     0
  0
APPID
  2
GENIUS_GENOBJ-N-FIL_13
 70
     0
  0
APPID
  2
GENIUS_GENOBJ-N-SEC_13
 70
     0
  0
APPID
  2
GENIUS_GENOBJ-N-CRS_13
 70
     0
  0
APPID
  2
GENIUS_GENOBJ-N-ZOO_13
 70
     0
  0
APPID
  2
GENIUS_GENZOO_13
 70
     0
  0
APPID
  2
GENIUS_GENOBJ-F-TOL_13
 70
     0
  0
APPID
  2
GENIUS_GENFIL_13
 70
     0
  0
APPID
  2
GENIUS_GENOBJ-N-CHA_13
 70
     0
  0
APPID
  2
_CALL_MAC$
 70
     0
  0
APPID
  2
ASM_BASE
 70
     0
  0
APPID
  2
ASM_EXPLO_VER_2_00
 70
     0
  0
APPID
  2
ASM_CADM_VER_12_00
 70
     0
  0
APPID
  2
ASM_BASEFORO
 70
     0
  0
APPID
  2
ASM_BASETRAVI
 70
     0
  0
APPID
  2
ASM_BASETRAVI1
 70
     0
  0
APPID
  2
ASM_GRUPPI
 70
     0
  0
APPID
  2
ASM_CADM_ALBERO
 70
     0
  0
APPID
  2
ASM_GOLE
 70
     0
  0
APPID
  2
ACAD_MLEADERVER
 70
     0
  0
APPID
  2
ACAD_EXEMPT_FROM_CAD_STANDARDS
 70
     0
  0
APPID
  2
ACAD_NAV_VCDISPLAY
 70
     0
  0
ENDTAB
  0
TABLE
  2
DIMSTYLE
 70
     2
  0
DIMSTYLE
  2
ISO-25
 70
     0
  3

  4

  5

  6

  7

 40
1.0
 41
2.5
 42
0.625
 43
3.75
 44
1.25
 45
0.0
 46
0.0
 47
0.0
 48
0.0
140
2.5
141
2.5
142
0.0
143
0.03937007874016
144
1.0
145
0.0
146
1.0
147
0.625
 71
     0
 72
     0
 73
     0
 74
     0
 75
     0
 76
     0
 77
     1
 78
     8
170
     0
171
     3
172
     1
173
     0
174
     0
175
     0
176
     0
177
     0
178
     0
  0
DIMSTYLE
  2
STANDARD
 70
     0
  3

  4

  5

  6

  7

 40
1.0
 41
0.18
 42
0.0625
 43
0.38
 44
0.18
 45
0.0
 46
0.0
 47
0.0
 48
0.0
140
0.18
141
0.09
142
0.0
143
25.399999999999999
144
1.0
145
0.0
146
1.0
147
0.09
 71
     0
 72
     0
 73
     1
 74
     1
 75
     0
 76
     0
 77
     0
 78
     0
170
     0
171
     2
172
     0
173
     0
174
     0
175
     0
176
     0
177
     0
178
     0
  0
ENDTAB
  0
ENDSEC
  0
SECTION
  2
BLOCKS
  0
BLOCK
  8
0
  2
$MODEL_SPACE
 70
     0
 10
0.0
 20
0.0
 30
0.0
  3
$MODEL_SPACE
  1

  0
ENDBLK
  5
21
  8
0
  0
BLOCK
 67
     1
  8
0
  2
$PAPER_SPACE
 70
     0
 10
0.0
 20
0.0
 30
0.0
  3
$PAPER_SPACE
  1

  0
ENDBLK
  5
53
 67
     1
  8
0
  0
ENDSEC
  0
SECTION
  2
ENTITIES
  0
ARC
  5
6F34
  8
0
 10
171.28954130775389
 20
183.94033784766111
 30
0.0
 40
12.000000000000091
 50
109.6666228247372
 51
138.590377890729
  0
ARC
  5
6F35
  8
0
 10
171.28954130775389
 20
183.94033784766111
 30
0.0
 40
12.000000000000099
 50
44.53567396282628
 51
70.333377175262825
  0
LINE
  5
6F36
  8
0
 10
162.2895402944749
 20
183.44033662576589
 30
0.0
 11
162.8668932355111
 21
182.44033832449821
 31
0.0
  0
LINE
  5
6F37
  8
0
 10
162.2895402944749
 20
191.87759016055969
 30
0.0
 11
162.2895402944749
 21
183.44033662576589
 31
0.0
  0
LINE
  5
6F38
  8
0
 10
165.4895423091119
 20
151.44033789981509
 30
0.0
 11
165.4895423091119
 21
150.94033781785879
 31
0.0
  0
LINE
  5
6F39
  8
0
 10
177.0895412302678
 20
150.94033781785879
 30
0.0
 11
177.0895412302678
 21
151.44033789981509
 31
0.0
  0
LINE
  5
6F3A
  8
0
 10
167.28954297668389
 20
195.6733368744365
 30
0.0
 11
167.289542976684
 21
195.24033893246559
 31
0.0
  0
LINE
  5
6F3B
  8
0
 10
167.28954297668389
 20
173.94033786256219
 30
0.0
 11
167.28954297668389
 21
151.44033789981509
 31
0.0
  0
LINE
  5
6F3C
  8
0
 10
175.28954056269581
 20
151.44033789981509
 30
0.0
 11
175.28954056269581
 21
173.94033786256219
 31
0.0
  0
LINE
  5
6F3D
  8
0
 10
175.28954056269569
 20
195.24033893246559
 30
0.0
 11
175.28954056269581
 21
195.6733368744365
 31
0.0
  0
LINE
  5
6F3E
  8
0
 10
175.28954056269581
 20
195.6733368744365
 30
0.0
 11
174.52254054314551
 21
196.4403368939868
 31
0.0
  0
LINE
  5
6F3F
  8
0
 10
168.05654299623421
 20
196.4403368939868
 30
0.0
 11
167.28954297668389
 21
195.6733368744365
 31
0.0
  0
LINE
  5
6F40
  8
0
 10
163.78398892647681
 20
146.40977508968101
 30
0.0
 11
164.78954163557941
 21
146.14033782270161
 31
0.0
  0
LINE
  5
6F41
  8
0
 10
177.78954190380031
 20
146.14033782270161
 30
0.0
 11
178.79509461290289
 21
146.40977508968101
 31
0.0
  0
LINE
  5
6F42
  8
0
 10
164.78954163557941
 20
177.94033665556819
 30
0.0
 11
163.78398892647681
 21
177.35977996487529
 31
0.0
  0
LINE
  5
6F43
  8
0
 10
163.78398892647681
 20
174.52089455325509
 30
0.0
 11
164.78954163557941
 21
173.94033786256219
 31
0.0
  0
LINE
  5
6F44
  8
0
 10
178.79509461290289
 20
177.35977996487529
 30
0.0
 11
177.78954190380031
 21
177.94033665556819
 31
0.0
  0
LINE
  5
6F45
  8
0
 10
177.78954190380031
 20
173.94033786256219
 30
0.0
 11
178.79509461290289
 21
174.52089455325509
 31
0.0
  0
CIRCLE
  5
6F46
  8
0
 10
256.28954130775401
 20
190.44033784766111
 30
0.0
 40
4.0
  0
LINE
  5
6F47
  8
0
 10
175.32810237370529
 20
195.24033893246559
 30
0.0
 11
167.25098024180249
 21
195.24033893246559
 31
0.0
  0
LINE
  5
6F49
  8
0
 10
176.03058648473669
 20
191.87759016055969
 30
0.0
 11
178.59551218516279
 21
191.87759016055969
 31
0.0
  0
ARC
  5
6F4A
  8
0
 10
171.28954130775389
 20
183.94033784766111
 30
0.0
 40
9.2454042637410812
 50
59.149476654995318
 51
120.8505233450046
  0
LINE
  5
6F4B
  8
0
 10
162.2895402944749
 20
191.87759016055969
 30
0.0
 11
166.54849705464301
 21
191.87759016055969
 31
0.0
  0
LINE
  5
6F4C
  8
0
 10
162.2895402944749
 20
183.44033662576589
 30
0.0
 11
163.2895423210328
 21
183.44033662576589
 31
0.0
  0
LINE
  5
6F4D
  8
0
 10
162.8668932355111
 20
182.44033832449821
 30
0.0
 11
163.2895423210328
 21
182.44033832449821
 31
0.0
  0
LINE
  5
6F4E
  8
0
 10
166.54849705464301
 20
187.25317497153191
 30
0.0
 11
166.54849705464301
 21
191.87759016055969
 31
0.0
  0
LINE
  5
6F4F
  8
0
 10
176.03058648473669
 20
191.87759016055969
 30
0.0
 11
176.03058648473669
 21
190.8930108358374
 31
0.0
  0
LINE
  5
6F51
  8
0
 10
178.79509461290289
 20
146.40977508968101
 30
0.0
 11
178.79509461290289
 21
150.94033781785879
 31
0.0
  0
POLYLINE
  5
6F52
  8
0
 66
     1
 10
0.0
 20
0.0
 30
0.0
 70
   128
  0
VERTEX
  5
777D
  8
0
 10
178.79509461290289
 20
146.40977508968101
 30
0.0
  0
VERTEX
  5
777E
  8
0
 10
177.86111963159499
 20
146.21208371242869
 30
0.0
  0
VERTEX
  5
777F
  8
0
 10
176.91870686776099
 20
146.14033782270161
 30
0.0
  0
SEQEND
  5
7780
  8
0
  0
POLYLINE
  5
6F53
  8
0
 66
     1
 10
0.0
 20
0.0
 30
0.0
 70
   128
  0
VERTEX
  5
7781
  8
0
 10
176.91870686776099
 20
146.14033782270161
 30
0.0
  0
VERTEX
  5
7782
  8
0
 10
175.98051113254479
 20
146.2114554771444
 30
0.0
  0
VERTEX
  5
7783
  8
0
 10
175.04231912261901
 20
146.40977508968101
 30
0.0
  0
SEQEND
  5
7784
  8
0
  0
LINE
  5
6F54
  8
0
 10
175.04231912261901
 20
146.40977508968101
 30
0.0
 11
175.04231912261901
 21
150.94033781785879
 31
0.0
  0
POLYLINE
  5
6F56
  8
0
 66
     1
 10
0.0
 20
0.0
 30
0.0
 70
   128
  0
VERTEX
  5
7785
  8
0
 10
175.04231912261901
 20
146.40977508968101
 30
0.0
  0
VERTEX
  5
7786
  8
0
 10
173.17436543471271
 20
146.21208371242869
 30
0.0
  0
VERTEX
  5
7787
  8
0
 10
171.28953990704471
 20
146.14033782270161
 30
0.0
  0
SEQEND
  5
7788
  8
0
  0
POLYLINE
  5
6F57
  8
0
 66
     1
 10
0.0
 20
0.0
 30
0.0
 70
   128
  0
VERTEX
  5
7789
  8
0
 10
171.28953990704471
 20
146.14033782270161
 30
0.0
  0
VERTEX
  5
778A
  8
0
 10
169.4131521619027
 20
146.2114554771444
 30
0.0
  0
VERTEX
  5
778B
  8
0
 10
167.53676441676069
 20
146.40977508968101
 30
0.0
  0
SEQEND
  5
778C
  8
0
  0
LINE
  5
6F58
  8
0
 10
167.53676441676069
 20
146.40977508968101
 30
0.0
 11
167.53676441676069
 21
150.94033781785879
 31
0.0
  0
POLYLINE
  5
6F59
  8
0
 66
     1
 10
0.0
 20
0.0
 30
0.0
 70
   128
  0
VERTEX
  5
778D
  8
0
 10
167.53676441676069
 20
146.40977508968101
 30
0.0
  0
VERTEX
  5
778E
  8
0
 10
166.60278943545279
 20
146.21208371242869
 30
0.0
  0
VERTEX
  5
778F
  8
0
 10
165.66037667161879
 20
146.14033782270161
 30
0.0
  0
SEQEND
  5
7790
  8
0
  0
POLYLINE
  5
6F5A
  8
0
 66
     1
 10
0.0
 20
0.0
 30
0.0
 70
   128
  0
VERTEX
  5
7791
  8
0
 10
165.66037667161879
 20
146.14033782270161
 30
0.0
  0
VERTEX
  5
7792
  8
0
 10
164.72218093640259
 20
146.2114554771444
 30
0.0
  0
VERTEX
  5
7793
  8
0
 10
163.78398892647681
 20
146.40977508968101
 30
0.0
  0
SEQEND
  5
7794
  8
0
  0
LINE
  5
6F5B
  8
0
 10
163.78398892647681
 20
146.40977508968101
 30
0.0
 11
163.78398892647681
 21
150.94033781785879
 31
0.0
  0
LINE
  5
6F5C
  8
0
 10
163.78398892647681
 20
150.94033781785879
 30
0.0
 11
178.79509461290289
 21
150.94033781785879
 31
0.0
  0
LINE
  5
6F5F
  8
0
 10
165.4895423091119
 20
151.44033789981509
 30
0.0
 11
177.0895412302678
 21
151.44033789981509
 31
0.0
  0
LINE
  5
6F60
  8
0
 10
175.28954056269581
 20
195.6733368744365
 30
0.0
 11
167.28954297668389
 21
195.6733368744365
 31
0.0
  0
LINE
  5
6F61
  8
0
 10
174.52254054314551
 20
196.4403368939868
 30
0.0
 11
168.05654299623421
 21
196.4403368939868
 31
0.0
  0
LINE
  5
6F62
  8
0
 10
164.78954163557941
 20
146.14033782270161
 30
0.0
 11
177.78954190380011
 21
146.14033782270161
 31
0.0
  0
POLYLINE
  5
6F64
  8
0
 66
     1
 10
0.0
 20
0.0
 30
0.0
 70
   128
  0
VERTEX
  5
7795
  8
0
 10
178.79509461290289
 20
174.52089455325509
 30
0.0
  0
VERTEX
  5
7796
  8
0
 10
177.8757972753709
 20
174.0996834297886
 30
0.0
  0
VERTEX
  5
7797
  8
0
 10
176.91870686776099
 20
173.94033786256219
 30
0.0
  0
SEQEND
  5
7798
  8
0
  0
POLYLINE
  5
6F65
  8
0
 66
     1
 10
0.0
 20
0.0
 30
0.0
 70
   128
  0
VERTEX
  5
7799
  8
0
 10
176.91870686776099
 20
173.94033786256219
 30
0.0
  0
VERTEX
  5
779A
  8
0
 10
175.98051113254479
 20
174.0935758163443
 30
0.0
  0
VERTEX
  5
779B
  8
0
 10
175.04231912261901
 20
174.52089455325509
 30
0.0
  0
SEQEND
  5
779C
  8
0
  0
LINE
  5
6F66
  8
0
 10
175.04231912261901
 20
177.35977996487529
 30
0.0
 11
175.04231912261901
 21
174.52089455325509
 31
0.0
  0
POLYLINE
  5
6F67
  8
0
 66
     1
 10
0.0
 20
0.0
 30
0.0
 70
   128
  0
VERTEX
  5
779D
  8
0
 10
175.04231912261901
 20
177.35977996487529
 30
0.0
  0
VERTEX
  5
779E
  8
0
 10
175.96161273486069
 20
177.78099108834181
 30
0.0
  0
VERTEX
  5
779F
  8
0
 10
176.91870686776099
 20
177.94033665556819
 30
0.0
  0
SEQEND
  5
77A0
  8
0
  0
POLYLINE
  5
6F68
  8
0
 66
     1
 10
0.0
 20
0.0
 30
0.0
 70
   128
  0
VERTEX
  5
77A1
  8
0
 10
176.91870686776099
 20
177.94033665556819
 30
0.0
  0
VERTEX
  5
77A2
  8
0
 10
177.8568988776868
 20
177.7871005644312
 30
0.0
  0
VERTEX
  5
77A3
  8
0
 10
178.79509461290289
 20
177.35977996487529
 30
0.0
  0
SEQEND
  5
77A4
  8
0
  0
LINE
  5
6F69
  8
0
 10
178.79509461290289
 20
174.52089455325509
 30
0.0
 11
178.79509461290289
 21
177.35977996487529
 31
0.0
  0
POLYLINE
  5
6F6A
  8
0
 66
     1
 10
0.0
 20
0.0
 30
0.0
 70
   128
  0
VERTEX
  5
77A5
  8
0
 10
171.28953990704471
 20
173.94033786256219
 30
0.0
  0
VERTEX
  5
77A6
  8
0
 10
169.4131521619027
 20
174.0935758163443
 30
0.0
  0
VERTEX
  5
77A7
  8
0
 10
167.53676441676069
 20
174.52089455325509
 30
0.0
  0
SEQEND
  5
77A8
  8
0
  0
LINE
  5
6F6B
  8
0
 10
167.53676441676069
 20
174.52089455325509
 30
0.0
 11
167.53676441676069
 21
177.35977996487529
 31
0.0
  0
POLYLINE
  5
6F6C
  8
0
 66
     1
 10
0.0
 20
0.0
 30
0.0
 70
   128
  0
VERTEX
  5
77A9
  8
0
 10
167.53676441676069
 20
177.35977996487529
 30
0.0
  0
VERTEX
  5
77AA
  8
0
 10
169.37535536653451
 20
177.78099108834181
 30
0.0
  0
VERTEX
  5
77AB
  8
0
 10
171.28953990704471
 20
177.94033665556819
 30
0.0
  0
SEQEND
  5
77AC
  8
0
  0
POLYLINE
  5
6F6D
  8
0
 66
     1
 10
0.0
 20
0.0
 30
0.0
 70
   128
  0
VERTEX
  5
77AD
  8
0
 10
171.28953990704471
 20
177.94033665556819
 30
0.0
  0
VERTEX
  5
77AE
  8
0
 10
173.16593137747699
 20
177.7871005644312
 30
0.0
  0
VERTEX
  5
77AF
  8
0
 10
175.04231912261901
 20
177.35977996487529
 30
0.0
  0
SEQEND
  5
77B0
  8
0
  0
POLYLINE
  5
6F6E
  8
0
 66
     1
 10
0.0
 20
0.0
 30
0.0
 70
   128
  0
VERTEX
  5
77B1
  8
0
 10
175.04231912261901
 20
174.52089455325509
 30
0.0
  0
VERTEX
  5
77B2
  8
0
 10
173.20372817284519
 20
174.0996834297886
 30
0.0
  0
VERTEX
  5
77B3
  8
0
 10
171.28953990704471
 20
173.94033786256219
 30
0.0
  0
SEQEND
  5
77B4
  8
0
  0
POLYLINE
  5
6F70
  8
0
 66
     1
 10
0.0
 20
0.0
 30
0.0
 70
   128
  0
VERTEX
  5
77B5
  8
0
 10
165.66037667161879
 20
177.94033665556819
 30
0.0
  0
VERTEX
  5
77B6
  8
0
 10
166.59856868154461
 20
177.7871005644312
 30
0.0
  0
VERTEX
  5
77B7
  8
0
 10
167.53676441676069
 20
177.35977996487529
 30
0.0
  0
SEQEND
  5
77B8
  8
0
  0
POLYLINE
  5
6F71
  8
0
 66
     1
 10
0.0
 20
0.0
 30
0.0
 70
   128
  0
VERTEX
  5
77B9
  8
0
 10
165.66037667161879
 20
173.94033786256219
 30
0.0
  0
VERTEX
  5
77BA
  8
0
 10
164.72218093640259
 20
174.0935758163443
 30
0.0
  0
VERTEX
  5
77BB
  8
0
 10
163.78398892647681
 20
174.52089455325509
 30
0.0
  0
SEQEND
  5
77BC
  8
0
  0
LINE
  5
6F72
  8
0
 10
163.78398892647681
 20
174.52089455325509
 30
0.0
 11
163.78398892647681
 21
177.35977996487529
 31
0.0
  0
POLYLINE
  5
6F73
  8
0
 66
     1
 10
0.0
 20
0.0
 30
0.0
 70
   128
  0
VERTEX
  5
77BD
  8
0
 10
163.78398892647681
 20
177.35977996487529
 30
0.0
  0
VERTEX
  5
77BE
  8
0
 10
164.7032825387185
 20
177.78099108834181
 30
0.0
  0
VERTEX
  5
77BF
  8
0
 10
165.66037667161879
 20
177.94033665556819
 30
0.0
  0
SEQEND
  5
77C0
  8
0
  0
POLYLINE
  5
6F74
  8
0
 66
     1
 10
0.0
 20
0.0
 30
0.0
 70
   128
  0
VERTEX
  5
77C1
  8
0
 10
167.53676441676069
 20
174.52089455325509
 30
0.0
  0
VERTEX
  5
77C2
  8
0
 10
166.6174670792287
 20
174.0996834297886
 30
0.0
  0
VERTEX
  5
77C3
  8
0
 10
165.66037667161879
 20
173.94033786256219
 30
0.0
  0
SEQEND
  5
77C4
  8
0
  0
LINE
  5
6F77
  8
0
 10
164.7895416355795
 20
173.94033786256219
 30
0.0
 11
177.78954190380031
 21
173.94033786256219
 31
0.0
  0
ARC
  5
6F78
  8
0
 10
233.4895413077538
 20
224.44033784766111
 30
0.0
 40
6.0000000000209264
 50
345.16488841727102
 51
14.83511158273061
  0
ARC
  5
6F79
  8
0
 10
205.9895413077536
 20
224.44033784766111
 30
0.0
 40
35.000000000000341
 50
0.0
 51
17.930887824561999
  0
ARC
  5
6F7A
  8
0
 10
234.4895413077538
 20
229.1403378476611
 30
0.0
 40
16.000000000000028
 50
120.90004346702911
 51
193.37067563904429
  0
LINE
  5
6F7B
  8
0
 10
226.27287091399629
 20
242.8693674911967
 30
0.0
 11
226.28954135525129
 21
242.87891913552201
 31
0.0
  0
ARC
  5
6F7C
  8
0
 10
225.4895413077538
 20
235.44033784766111
 30
0.0
 40
2.0
 50
66.421821521799473
 51
180.0
  0
ARC
  5
6F7D
  8
0
 10
225.4895413077538
 20
235.44033784766111
 30
0.0
 40
2.0
 50
180.0
 51
293.57817847820053
  0
LINE
  5
6F7E
  8
0
 10
218.92323159790681
 20
225.4403360595218
 30
0.0
 11
220.53930909550829
 21
218.44033677477751
 31
0.0
  0
LINE
  5
6F7F
  8
0
 10
220.4895410797661
 20
218.44033677477751
 30
0.0
 11
224.48954132796351
 21
218.44033677477751
 31
0.0
  0
ARC
  5
6F80
  8
0
 10
233.4895413077538
 20
224.44033784766111
 30
0.0
 40
7.500000000000056
 50
0.0
 51
39.345829766212951
  0
POLYLINE
  5
6F81
  8
0
 66
     1
 10
0.0
 20
0.0
 30
0.0
 70
   128
  0
VERTEX
  5
77C5
  8
0
 10
226.28954135525129
 20
226.5403397788516
 30
0.0
  0
VERTEX
  5
77C6
  8
0
 10
226.065880513667
 20
225.5076967586985
 30
0.0
  0
VERTEX
  5
77C7
  8
0
 10
225.98954128279439
 20
224.44034148354439
 30
0.0
  0
SEQEND
  5
77C8
  8
0
  0
LINE
  5
6F82
  8
0
 10
240.98954071468759
 20
190.94033692378909
 30
0.0
 11
240.98954071468759
 21
224.44034148354439
 31
0.0
  0
POLYLINE
  5
6F83
  8
0
 66
     1
 10
0.0
 20
0.0
 30
0.0
 70
   128
  0
VERTEX
  5
77C9
  8
0
 10
225.98954128279439
 20
190.94033692378909
 30
0.0
  0
VERTEX
  5
77CA
  8
0
 10
226.065880513667
 20
189.87297792334471
 30
0.0
  0
VERTEX
  5
77CB
  8
0
 10
226.28954135525129
 20
188.8403386284819
 30
0.0
  0
SEQEND
  5
77CC
  8
0
  0
ARC
  5
6F84
  8
0
 10
233.4895413077538
 20
190.94033784766111
 30
0.0
 40
7.500000000000056
 50
320.65417023378831
 51
0.0
  0
LINE
  5
6F85
  8
0
 10
225.98954128279439
 20
202.9403388907424
 30
0.0
 11
225.98954128279439
 21
190.94033692378909
 31
0.0
  0
ARC
  5
6F86
  8
0
 10
224.4895413077538
 20
202.94033784766111
 30
0.0
 40
1.5
 50
0.0
 51
90.0
  0
LINE
  5
6F87
  8
0
 10
224.48954132796351
 20
204.44033820528901
 30
0.0
 11
223.48954133867369
 21
204.44033820528901
 31
0.0
  0
LINE
  5
6F89
  8
0
 10
225.98954128279439
 20
224.44034148354439
 30
0.0
 11
225.98954128279439
 21
219.94033981461439
 31
0.0
  0
ARC
  5
6F8A
  8
0
 10
224.4895413077538
 20
219.94033784766111
 30
0.0
 40
1.5
 50
270.0
 51
0.0
  0
LINE
  5
6F8B
  8
0
 10
220.48954107976601
 20
218.44033677477751
 30
0.0
 11
220.48954107976601
 21
204.44033820528901
 31
0.0
  0
LINE
  5
6F8C
  8
0
 10
220.48954107976601
 20
204.44033820528901
 30
0.0
 11
223.48954133867369
 21
204.44033820528901
 31
0.0
  0
LINE
  5
6F8E
  8
0
 10
163.2895423210328
 20
177.94033665556819
 30
0.0
 11
163.2895423210328
 21
183.9403376390448
 31
0.0
  0
ARC
  5
6F8F
  8
0
 10
166.28954130775389
 20
183.94033784766111
 30
0.0
 40
3.0
 50
110.9999999999975
 51
180.0
  0
LINE
  5
6F90
  8
0
 10
205.25691566235469
 20
202.11194608707339
 30
0.0
 11
165.21443707115111
 21
186.74107794065389
 31
0.0
  0
ARC
  5
6F91
  8
0
 10
212.42427463903769
 20
183.44033784766111
 30
0.0
 40
19.999999999999989
 50
107.8626764772321
 51
110.9999999999975
  0
LINE
  5
6F93
  8
0
 10
206.28954191870139
 20
177.94033665556819
 30
0.0
 11
206.28954191870139
 21
178.44033766884709
 31
0.0
  0
LINE
  5
6F94
  8
0
 10
206.28954191870139
 20
177.94033665556819
 30
0.0
 11
163.2895423210328
 21
177.94033665556819
 31
0.0
  0
ARC
  5
6F96
  8
0
 10
210.2895341963787
 20
178.4403444514746
 30
0.0
 40
3.9999922776830168
 50
101.97810895436071
 51
180.000097154169
  0
ARC
  5
6F97
  8
0
 10
212.42428867605921
 20
183.4402389978253
 30
0.0
 40
20.00009923322229
 50
98.525206395827013
 51
107.8626252721931
  0
LINE
  5
6F98
  8
0
 10
212.4242745450799
 20
203.440336178731
 30
0.0
 11
225.90375546018171
 21
203.440336178731
 31
0.0
  0
LINE
  5
6F9A
  8
0
 10
226.289541355251
 20
182.44033832449821
 30
0.0
 11
210.28954164302991
 21
182.44033832449821
 31
0.0
  0
ARC
  5
6F9B
  8
0
 10
210.28954130775389
 20
178.44033784766111
 30
0.0
 40
4.0
 50
90.0
 51
101.9781970556941
  0
ARC
  5
6F9C
  8
0
 10
212.42427463903769
 20
183.44033784766111
 30
0.0
 40
20.0
 50
90.0
 51
98.525209819181057
  0
ARC
  5
6FA0
  8
0
 10
256.28954130775401
 20
195.44033784766111
 30
0.0
 40
8.0
 50
0.0
 51
90.0
  0
LINE
  5
6FA3
  8
0
 10
240.98954071468759
 20
203.440336178731
 30
0.0
 11
256.2895408011143
 21
203.440336178731
 31
0.0
  0
CIRCLE
  5
6FA5
  8
0
 10
232.78954130775401
 20
164.44033784766111
 30
0.0
 40
4.0000000000016476
  0
LINE
  5
6FA6
  8
0
 10
233.43954143292359
 20
290.52403349776182
 30
0.0
 11
225.93954130952329
 21
290.52403349776182
 31
0.0
  0
LINE
  5
6FA7
  8
0
 10
225.93954130952329
 20
289.1166486253253
 30
0.0
 11
233.43954143292359
 21
289.1166486253253
 31
0.0
  0
LINE
  5
6FA8
  8
0
 10
233.43954143292359
 20
289.1166486253253
 30
0.0
 11
233.43954143292359
 21
290.52403349776182
 31
0.0
  0
LINE
  5
6FA9
  8
0
 10
225.93954130952329
 20
290.52403349776182
 30
0.0
 11
225.93954130952329
 21
289.1166486253253
 31
0.0
  0
LINE
  5
6FAA
  8
0
 10
233.43954143292359
 20
295.51508803267387
 30
0.0
 11
225.93954130952329
 21
295.51508803267387
 31
0.0
  0
LINE
  5
6FAB
  8
0
 10
233.43954143292359
 20
294.1107280959597
 30
0.0
 11
233.43954143292359
 21
295.51508803267387
 31
0.0
  0
LINE
  5
6FAC
  8
0
 10
225.93954130952329
 20
294.1107280959597
 30
0.0
 11
233.43954143292359
 21
294.1107280959597
 31
0.0
  0
LINE
  5
6FAD
  8
0
 10
225.93954130952329
 20
294.1107280959597
 30
0.0
 11
225.93954130952329
 21
295.51508803267387
 31
0.0
  0
LINE
  5
6FAE
  8
0
 10
233.43954143292359
 20
285.5299540271273
 30
0.0
 11
225.93954130952329
 21
285.5299540271273
 31
0.0
  0
LINE
  5
6FAF
  8
0
 10
225.93954130952329
 20
284.12559409041319
 30
0.0
 11
233.43954143292359
 21
284.12559409041319
 31
0.0
  0
LINE
  5
6FB0
  8
0
 10
233.43954143292359
 20
284.12559409041319
 30
0.0
 11
233.43954143292359
 21
285.5299540271273
 31
0.0
  0
LINE
  5
6FB1
  8
0
 10
225.93954130952329
 20
284.12559409041319
 30
0.0
 11
225.93954130952329
 21
285.5299540271273
 31
0.0
  0
LINE
  5
6FB8
  8
0
 10
233.43954143292359
 20
280.51510233778868
 30
0.0
 11
225.93954130952329
 21
280.51510233778868
 31
0.0
  0
LINE
  5
6FB9
  8
0
 10
225.93954130952329
 20
279.11990661520872
 30
0.0
 11
233.43954143292359
 21
279.11990661520872
 31
0.0
  0
LINE
  5
6FBA
  8
0
 10
225.93954130952329
 20
279.11990661520872
 30
0.0
 11
225.93954130952329
 21
280.51510233778868
 31
0.0
  0
LINE
  5
6FBB
  8
0
 10
233.43954143292359
 20
279.11990661520872
 30
0.0
 11
233.43954143292359
 21
280.51510233778868
 31
0.0
  0
LINE
  5
6FBC
  8
0
 10
233.43954143292359
 20
300.5207606067172
 30
0.0
 11
225.93954130952329
 21
300.5207606067172
 31
0.0
  0
LINE
  5
6FBD
  8
0
 10
225.93954130952329
 20
299.12557978529838
 30
0.0
 11
233.43954143292359
 21
299.12557978529838
 31
0.0
  0
LINE
  5
6FBE
  8
0
 10
225.93954130952329
 20
299.12557978529838
 30
0.0
 11
225.93954130952329
 21
300.5207606067172
 31
0.0
  0
LINE
  5
6FBF
  8
0
 10
233.43954143292359
 20
299.12557978529838
 30
0.0
 11
233.43954143292359
 21
300.5207606067172
 31
0.0
  0
ARC
  5
6FCE
  8
0
 10
330.5446286103824
 20
289.359095154405
 30
0.0
 40
114.84601345114569
 50
179.76988739923499
 51
189.79538019807421
  0
ARC
  5
6FCF
  8
0
 10
156.9377597134704
 20
290.24337967999128
 30
0.0
 40
87.752801864484397
 50
359.72378749421591
 51
12.89071234344217
  0
ARC
  5
6FD0
  8
0
 10
156.93801138548741
 20
289.39726733303792
 30
0.0
 40
87.752550364657836
 50
347.10926860183798
 51
0.2762362218973299
  0
ARC
  5
6FD1
  8
0
 10
330.54421685114357
 20
290.28161414064982
 30
0.0
 40
114.8456018043598
 50
170.20460187426559
 51
180.2301269816146
  0
ARC
  5
6FDF
  8
0
 10
211.27271552864681
 20
305.51389989212652
 30
0.0
 40
31.50198575323498
 50
7.8571463009797551
 51
36.975147411850138
  0
ARC
  5
6FE0
  8
0
 10
267.68772687475013
 20
302.14378656794588
 30
0.0
 40
50.897080790027971
 50
153.99279131480449
 51
171.32526262009401
  0
ARC
  5
6FE2
  8
0
 10
211.26859417180941
 20
274.12847484002299
 30
0.0
 40
31.50630084303824
 50
323.02689062765609
 51
352.14081565951392
  0
ARC
  5
6FE3
  8
0
 10
267.6828992146709
 20
277.49538066780269
 30
0.0
 40
50.89208100265585
 50
188.67387942982089
 51
206.00806663528101
  0
ARC
  5
6FE4
  8
0
 10
227.1491812647098
 20
319.188914889903
 30
0.0
 40
10.682199864937539
 50
29.57565488951527
 51
84.410994427111788
  0
ARC
  5
6FE5
  8
0
 10
229.684166301083
 20
321.7603507847283
 30
0.0
 40
8.1973906048055731
 50
100.5054682679451
 51
160.76184636147809
  0
LINE
  5
6FE6
  8
0
 10
226.08954128754411
 20
252.4476923455706
 30
0.0
 11
234.22339280313901
 21
252.4476923455706
 31
0.0
  0
LINE
  5
6FE7
  8
0
 10
226.08954128754411
 20
250.85216541190059
 30
0.0
 11
226.08954128754411
 21
252.4476923455706
 31
0.0
  0
LINE
  5
6FE8
  8
0
 10
226.28954135525129
 20
250.85216541190059
 30
0.0
 11
226.08954128754411
 21
250.85216541190059
 31
0.0
  0
ARC
  5
6FE9
  8
0
 10
229.53307001168349
 20
257.76432730213418
 30
0.0
 40
8.0167341573449633
 50
198.8112332387521
 51
246.13426459949099
  0
POLYLINE
  5
6FEA
  8
0
 66
     1
 10
0.0
 20
0.0
 30
0.0
 70
   128
  0
VERTEX
  5
77CD
  8
0
 10
236.43954099333931
 20
255.1793210615626
 30
0.0
  0
VERTEX
  5
77CE
  8
0
 10
235.4255160427754
 20
253.69810838599119
 30
0.0
  0
VERTEX
  5
77CF
  8
0
 10
234.22339280313901
 20
252.4476923455706
 30
0.0
  0
SEQEND
  5
77D0
  8
0
  0
CIRCLE
  5
6FEB
  8
0
 10
232.78954130775401
 20
224.44033784766111
 30
0.0
 40
4.000000000001676
  0
LINE
  5
6FED
  8
0
 10
239.28954173988751
 20
259.72453474715093
 30
0.0
 11
239.28954173988751
 21
164.4403372367135
 31
0.0
  0
ARC
  5
6FEE
  8
0
 10
232.78954130775401
 20
164.44033784766111
 30
0.0
 40
6.500000000000056
 50
180.0
 51
0.0
  0
LINE
  5
6FEF
  8
0
 10
226.28954135525129
 20
164.4403372367135
 30
0.0
 11
226.28954135525129
 21
252.4476923455706
 31
0.0
  0
LINE
  5
6FFB
  8
0
 10
224.2895412602563
 20
244.44033731121931
 30
0.0
 11
224.2895412602563
 21
249.4403399934283
 31
0.0
  0
LINE
  5
6FFC
  8
0
 10
224.2895412602563
 20
249.4403399934283
 30
0.0
 11
226.28954135525129
 21
249.4403399934283
 31
0.0
  0
LINE
  5
6FFD
  8
0
 10
226.28954135525129
 20
244.44033731121931
 30
0.0
 11
224.2895412602563
 21
244.44033731121931
 31
0.0
  0
LINE
  5
7006
  8
0
 10
225.28954130775369
 20
147.9403377917817
 30
0.0
 11
264.28954211241648
 21
147.9403377917817
 31
0.0
  0
LINE
  5
7007
  8
0
 10
264.28954211241648
 20
145.44033784766111
 30
0.0
 11
225.28954130775369
 21
145.44033784766111
 31
0.0
  0
CIRCLE
  5
7008
  8
0
 10
249.64251905637141
 20
178.58166526076499
 30
0.0
 40
2.4999999999999432
  0
CIRCLE
  5
7009
  8
0
 10
253.1148910230022
 20
172.85937335969311
 30
0.0
 40
2.5
  0
CIRCLE
  5
700A
  8
0
 10
254.7058246657723
 20
166.3577641881096
 30
0.0
 40
2.5
  0
ARC
  5
700B
  8
0
 10
222.28954130775389
 20
153.43820189266151
 30
0.0
 40
2.9999999999999871
 50
0.0
 51
48.189685104222789
  0
ARC
  5
700C
  8
0
 10
226.28954130775381
 20
157.91033784766111
 30
0.0
 40
3.0
 50
180.0
 51
228.18968510422391
  0
LINE
  5
700D
  8
0
 10
223.28954121275891
 20
165.44033740062619
 30
0.0
 11
223.28954121275891
 21
157.91033827115211
 31
0.0
  0
ARC
  5
700E
  8
0
 10
231.28954130775401
 20
165.44033784766111
 30
0.0
 40
8.0000000000000568
 50
135.9233712063114
 51
180.0
  0
LINE
  5
700F
  8
0
 10
251.1174911744063
 20
197.41843793888
 30
0.0
 11
239.28954173988751
 21
185.20297263164429
 31
0.0
  0
LINE
  5
7010
  8
0
 10
226.28954135525129
 20
171.77705992360029
 30
0.0
 11
225.54226049050769
 21
171.0052971204033
 31
0.0
  0
ARC
  5
7011
  8
0
 10
254.7095413077538
 20
193.94033784766111
 30
0.0
 40
5.0000000000000284
 50
90.0
 51
135.9233712063114
  0
LINE
  5
7012
  8
0
 10
259.28954315549782
 20
198.9403382350913
 30
0.0
 11
254.7095408774083
 21
198.9403382350913
 31
0.0
  0
ARC
  5
7013
  8
0
 10
259.28954130775401
 20
193.94033784766111
 30
0.0
 40
5.0
 50
0.0
 51
90.0
  0
LINE
  5
7014
  8
0
 10
264.28954211241648
 20
182.44033832449821
 30
0.0
 11
264.28954130775401
 21
195.44033784766111
 31
0.0
  0
ARC
  5
7015
  8
0
 10
266.28954130775401
 20
182.44033784766111
 30
0.0
 40
2.0
 50
180.0
 51
270.0
  0
ARC
  5
7017
  8
0
 10
266.28954130775401
 20
153.44033784766111
 30
0.0
 40
2.0
 50
90.0
 51
180.0
  0
LINE
  5
7018
  8
0
 10
225.28954130775381
 20
153.4382017736545
 30
0.0
 11
225.28954130775381
 21
145.44033784766111
 31
0.0
  0
LINE
  5
7019
  8
0
 10
264.28954211241648
 20
145.44033784766111
 30
0.0
 11
264.28954211241648
 21
153.44033822764069
 31
0.0
  0
LINE
  5
701A
  8
0
 10
266.28954244024197
 20
180.4403379966727
 30
0.0
 11
270.28954309589312
 21
180.4403379966727
 31
0.0
  0
LINE
  5
701B
  8
0
 10
270.28954309589312
 20
180.4403379966727
 30
0.0
 11
270.28954309589312
 21
155.44033762414369
 31
0.0
  0
LINE
  5
701C
  8
0
 10
270.28954309589312
 20
155.44033762414369
 30
0.0
 11
266.28954244024197
 21
155.44033762414369
 31
0.0
  0
LINE
  5
701D
  8
0
 10
252.28954130775381
 20
382.1585108370964
 30
0.0
 11
252.28954130775381
 21
380.7919926487134
 31
0.0
  0
LINE
  5
701E
  8
0
 10
260.28954130775378
 20
380.7919926487134
 30
0.0
 11
260.28954130775378
 21
382.1585108370964
 31
0.0
  0
ARC
  5
701F
  8
0
 10
256.28954130775378
 20
333.85851083707649
 30
0.0
 40
60.00000000002197
 50
91.910213171708165
 51
93.822553729283953
  0
ARC
  5
7020
  8
0
 10
256.28954130775378
 20
333.85851083707649
 30
0.0
 40
60.00000000002197
 50
86.177446270716032
 51
88.089786828291835
  0
LINE
  5
7021
  8
0
 10
252.28954130775381
 20
393.72502902547939
 30
0.0
 11
252.28954130775381
 21
392.35851083709628
 31
0.0
  0
LINE
  5
7022
  8
0
 10
260.28954130775378
 20
392.35851083709628
 30
0.0
 11
260.28954130775378
 21
393.72502902547939
 31
0.0
  0
ARC
  5
7023
  8
0
 10
256.28954130775378
 20
440.65851083708287
 30
0.0
 40
59.999999999986578
 50
266.17744627072261
 51
270.0
  0
ARC
  5
7024
  8
0
 10
256.28954130775378
 20
440.65851083708287
 30
0.0
 40
59.999999999986578
 50
270.0
 51
273.82255372927739
  0
LINE
  5
7025
  8
0
 10
253.28954130775381
 20
389.85851083709639
 30
0.0
 11
253.28954130775381
 21
389.80851083709632
 31
0.0
  0
LINE
  5
7026
  8
0
 10
253.28954130775381
 20
384.7085108370963
 30
0.0
 11
253.28954130775381
 21
384.65851083709629
 31
0.0
  0
LINE
  5
7027
  8
0
 10
259.28954130775378
 20
384.65851083709629
 30
0.0
 11
259.28954130775378
 21
384.7085108370963
 31
0.0
  0
LINE
  5
7028
  8
0
 10
259.28954130775378
 20
389.80851083709632
 30
0.0
 11
259.28954130775378
 21
389.85851083709639
 31
0.0
  0
LINE
  5
7029
  8
0
 10
251.78954130775381
 20
387.30851083709632
 30
0.0
 11
251.78954130775381
 21
387.2085108370963
 31
0.0
  0
LINE
  5
702A
  8
0
 10
260.78954130775378
 20
387.2085108370963
 30
0.0
 11
260.78954130775378
 21
387.30851083709632
 31
0.0
  0
LINE
  5
702B
  8
0
 10
215.69859248709281
 20
407.25851083709603
 30
0.0
 11
215.69859248709281
 21
367.25851083709603
 31
0.0
  0
LINE
  5
702C
  8
0
 10
233.4395413077539
 20
367.25851083709603
 30
0.0
 11
244.69059124599721
 21
367.25851083709603
 31
0.0
  0
LINE
  5
702D
  8
0
 10
215.69859248709281
 20
367.25851083709603
 30
0.0
 11
225.9395413077539
 21
367.25851083709603
 31
0.0
  0
LINE
  5
702E
  8
0
 10
244.69059124599721
 20
367.25851083709603
 30
0.0
 11
244.69059124599721
 21
407.25851083709603
 31
0.0
  0
LINE
  5
702F
  8
0
 10
225.9395413077539
 20
407.25851083709603
 30
0.0
 11
215.69859248709281
 21
407.25851083709603
 31
0.0
  0
LINE
  5
7030
  8
0
 10
244.69059124599721
 20
407.25851083709603
 30
0.0
 11
233.4395413077539
 21
407.25851083709603
 31
0.0
  0
LINE
  5
7031
  8
0
 10
225.9395413077539
 20
367.19716680132473
 30
0.0
 11
233.4395413077539
 21
367.19716680132473
 31
0.0
  0
LINE
  5
7032
  8
0
 10
233.4395413077539
 20
407.3198548728671
 30
0.0
 11
225.9395413077539
 21
407.3198548728671
 31
0.0
  0
LINE
  5
7033
  8
0
 10
225.9395413077539
 20
366.70205735673682
 30
0.0
 11
233.4395413077539
 21
366.70205735673682
 31
0.0
  0
LINE
  5
7034
  8
0
 10
233.4395413077539
 20
407.81496431745501
 30
0.0
 11
225.9395413077539
 21
407.81496431745501
 31
0.0
  0
LINE
  5
7035
  8
0
 10
225.9395413077539
 20
366.538510837096
 30
0.0
 11
233.4395413077539
 21
366.538510837096
 31
0.0
  0
LINE
  5
7036
  8
0
 10
233.4395413077539
 20
407.97851083709588
 30
0.0
 11
225.9395413077539
 21
407.97851083709588
 31
0.0
  0
LINE
  5
7037
  8
0
 10
252.28954130775381
 20
380.7919926487134
 30
0.0
 11
260.28954130775378
 21
380.7919926487134
 31
0.0
  0
LINE
  5
7038
  8
0
 10
258.28954130775401
 20
393.82516823935828
 30
0.0
 11
254.28954130775381
 21
393.82516823935828
 31
0.0
  0
LINE
  5
7039
  8
0
 10
260.28954130775378
 20
393.72502902547939
 30
0.0
 11
252.28954130775381
 21
393.72502902547939
 31
0.0
  0
ARC
  5
703B
  8
0
 10
171.28954130775381
 20
387.25851083709631
 30
0.0
 40
9.0000000000000515
 50
301.78833061704972
 51
58.211669382950291
  0
LINE
  5
703C
  8
0
 10
166.54849711897009
 20
379.60851083709628
 30
0.0
 11
176.03058549653761
 21
379.60851083709628
 31
0.0
  0
ARC
  5
703D
  8
0
 10
171.28954130775381
 20
387.25851083709631
 30
0.0
 40
9.0000000000000355
 50
121.7883306170497
 51
238.2116693829503
  0
LINE
  5
703E
  8
0
 10
176.03058549653761
 20
394.90851083709629
 30
0.0
 11
166.54849711897009
 21
394.90851083709629
 31
0.0
  0
LINE
  5
7041
  8
0
 10
264.28954130775378
 20
389.80851083709632
 30
0.0
 11
244.69059124599721
 21
389.80851083709632
 31
0.0
  0
LINE
  5
7043
  8
0
 10
244.69059124599721
 20
387.30851083709632
 30
0.0
 11
264.28954130775378
 21
387.30851083709632
 31
0.0
  0
LINE
  5
7044
  8
0
 10
212.42427463903749
 20
392.71457948901298
 30
0.0
 11
215.69859248709281
 21
391.18761965625077
 31
0.0
  0
LINE
  5
7046
  8
0
 10
215.69859248709281
 20
393.94610328741959
 30
0.0
 11
212.42427463903749
 21
395.47306312018179
 31
0.0
  0
ARC
  5
7049
  8
0
 10
206.28954130775369
 20
390.0585108370957
 30
0.0
 40
7.5000000000006324
 50
64.998270282870422
 51
90.0
  0
LINE
  5
704A
  8
0
 10
208.4027694192973
 20
394.58998597755362
 30
0.0
 11
212.42427463903749
 21
392.71457948901298
 31
0.0
  0
ARC
  5
704B
  8
0
 10
206.2895413077535
 20
390.0585108370949
 30
0.0
 40
5.0000000000013642
 50
64.998270282871104
 51
89.999999999993491
  0
LINE
  5
704D
  8
0
 10
212.42427463903749
 20
395.47306312018179
 30
0.0
 11
209.45938347506899
 21
396.8557235477823
 31
0.0
  0
LINE
  5
704E
  8
0
 10
212.42427463903749
 20
379.04395855401071
 30
0.0
 11
215.69859248709281
 21
380.57091838677297
 31
0.0
  0
LINE
  5
7050
  8
0
 10
215.69859248709281
 20
383.3294020179419
 30
0.0
 11
212.42427463903749
 21
381.80244218517959
 31
0.0
  0
LINE
  5
7051
  8
0
 10
264.28954130775378
 20
387.2085108370963
 30
0.0
 11
244.69059124599721
 21
387.2085108370963
 31
0.0
  0
LINE
  5
7053
  8
0
 10
244.69059124599721
 20
384.7085108370963
 30
0.0
 11
264.28954130775378
 21
384.7085108370963
 31
0.0
  0
LINE
  5
7054
  8
0
 10
264.28954130775378
 20
387.30851083709632
 30
0.0
 11
264.28954130775378
 21
389.80851083709632
 31
0.0
  0
LINE
  5
7058
  8
0
 10
264.28954130775378
 20
384.7085108370963
 30
0.0
 11
264.28954130775378
 21
387.2085108370963
 31
0.0
  0
ARC
  5
705A
  8
0
 10
206.28954130775381
 20
384.45851083709613
 30
0.0
 40
7.4999999999998392
 50
270.0
 51
295.00172971713027
  0
ARC
  5
705E
  8
0
 10
206.28954130775381
 20
384.4585108370967
 30
0.0
 40
5.000000000000397
 50
270.0
 51
295.00172971712948
  0
LINE
  5
705F
  8
0
 10
209.45938347506899
 20
377.66129812641037
 30
0.0
 11
212.42427463903749
 21
379.04395855401071
 31
0.0
  0
LINE
  5
7060
  8
0
 10
212.42427463903749
 20
381.80244218517959
 30
0.0
 11
208.4027694192973
 21
379.927035696639
 31
0.0
  0
LINE
  5
7062
  8
0
 10
206.28954130775369
 20
397.55851083709632
 30
0.0
 11
163.2895413077535
 21
397.55851083709638
 31
0.0
  0
LINE
  5
7063
  8
0
 10
163.28954130775361
 20
395.05851083709638
 30
0.0
 11
206.2895413077535
 21
395.05851083709632
 31
0.0
  0
LINE
  5
7065
  8
0
 10
206.28954130775381
 20
376.9585108370963
 30
0.0
 11
163.28954130775361
 21
376.9585108370963
 31
0.0
  0
LINE
  5
7066
  8
0
 10
206.28954130775381
 20
379.4585108370963
 30
0.0
 11
163.28954130775361
 21
379.4585108370963
 31
0.0
  0
LINE
  5
7070
  8
0
 10
206.28954130775381
 20
395.05851083709638
 30
0.0
 11
206.28954130775381
 21
379.4585108370963
 31
0.0
  0
LINE
  5
7071
  8
0
 10
163.28954130775361
 20
376.9585108370963
 30
0.0
 11
163.28954130775381
 21
383.1354052114786
 31
0.0
  0
LINE
  5
7072
  8
0
 10
163.28954130775381
 20
391.38161646271402
 30
0.0
 11
163.28954130775361
 21
397.55851083709638
 31
0.0
  0
POLYLINE
  5
7073
  8
0
 66
     1
 10
0.0
 20
0.0
 30
0.0
 70
   128
  0
VERTEX
  5
77D1
  8
0
 10
228.18954130775131
 20
387.25851083709398
 30
0.0
  0
VERTEX
  5
77D2
  8
0
 10
228.58035366809671
 20
386.49475001101263
 30
0.0
  0
VERTEX
  5
77D3
  8
0
 10
229.11167026603309
 20
385.77444767021751
 30
0.0
  0
VERTEX
  5
77D4
  8
0
 10
230.1833641006958
 20
384.48419760839522
 30
0.0
  0
VERTEX
  5
77D5
  8
0
 10
231.27251606394981
 20
383.24105656096918
 30
0.0
  0
VERTEX
  5
77D6
  8
0
 10
232.3706355342251
 20
381.99589667885499
 30
0.0
  0
VERTEX
  5
77D7
  8
0
 10
233.43231121075971
 20
380.7909484582504
 30
0.0
  0
VERTEX
  5
77D8
  8
0
 10
235.03256994619889
 20
378.94819807319033
 30
0.0
  0
VERTEX
  5
77D9
  8
0
 10
235.7761704126417
 20
378.06860444343738
 30
0.0
  0
VERTEX
  5
77DA
  8
0
 10
236.4395413077543
 20
377.25851083709517
 30
0.0
  0
SEQEND
  5
77DB
  8
0
  0
POLYLINE
  5
7074
  8
0
 66
     1
 10
0.0
 20
0.0
 30
0.0
 70
   128
  0
VERTEX
  5
77DC
  8
0
 10
228.18954130775879
 20
387.25851083709301
 30
0.0
  0
VERTEX
  5
77DD
  8
0
 10
228.58035366808829
 20
388.02227166315669
 30
0.0
  0
VERTEX
  5
77DE
  8
0
 10
229.1116702660072
 20
388.74257400393532
 30
0.0
  0
VERTEX
  5
77DF
  8
0
 10
230.1833641006383
 20
390.03282406572629
 30
0.0
  0
VERTEX
  5
77E0
  8
0
 10
231.27251606386309
 20
391.2759651131218
 30
0.0
  0
VERTEX
  5
77E1
  8
0
 10
232.3706355341096
 20
392.52112499520427
 30
0.0
  0
VERTEX
  5
77E2
  8
0
 10
233.43231121061939
 20
393.72607321578022
 30
0.0
  0
VERTEX
  5
77E3
  8
0
 10
235.03256994613341
 20
395.56882360092402
 30
0.0
  0
VERTEX
  5
77E4
  8
0
 10
235.77617041261189
 20
396.44841723071801
 30
0.0
  0
VERTEX
  5
77E5
  8
0
 10
236.4395413077541
 20
397.25851083709591
 30
0.0
  0
SEQEND
  5
77E6
  8
0
  0
POLYLINE
  5
7076
  8
0
 66
     1
 10
0.0
 20
0.0
 30
0.0
 70
   128
  0
VERTEX
  5
77E7
  8
0
 10
221.9445413077535
 20
397.25851083709591
 30
0.0
  0
VERTEX
  5
77E8
  8
0
 10
222.65344554674701
 20
395.998831791653
 30
0.0
  0
VERTEX
  5
77E9
  8
0
 10
223.57373788116979
 20
394.58959737599412
 30
0.0
  0
VERTEX
  5
77EA
  8
0
 10
224.97221441078159
 20
392.60589514464561
 30
0.0
  0
VERTEX
  5
77EB
  8
0
 10
226.47710852553331
 20
390.4881754928843
 30
0.0
  0
VERTEX
  5
77EC
  8
0
 10
227.1721194249356
 20
389.46213525799561
 30
0.0
  0
VERTEX
  5
77ED
  8
0
 10
227.7978162857971
 20
388.37834122032729
 30
0.0
  0
VERTEX
  5
77EE
  8
0
 10
228.1895413077506
 20
387.25851083709409
 30
0.0
  0
SEQEND
  5
77EF
  8
0
  0
POLYLINE
  5
7077
  8
0
 66
     1
 10
0.0
 20
0.0
 30
0.0
 70
   128
  0
VERTEX
  5
77F0
  8
0
 10
221.9445413077535
 20
377.25851083709517
 30
0.0
  0
VERTEX
  5
77F1
  8
0
 10
222.65344554674701
 20
378.51818988253802
 30
0.0
  0
VERTEX
  5
77F2
  8
0
 10
223.57373788116999
 20
379.92742429819668
 30
0.0
  0
VERTEX
  5
77F3
  8
0
 10
224.9722144107821
 20
381.9111265295449
 30
0.0
  0
VERTEX
  5
77F4
  8
0
 10
226.47710852553411
 20
384.0288461813056
 30
0.0
  0
VERTEX
  5
77F5
  8
0
 10
227.1721194249385
 20
385.05488641619638
 30
0.0
  0
VERTEX
  5
77F6
  8
0
 10
227.7978162858021
 20
386.1386804538671
 30
0.0
  0
VERTEX
  5
77F7
  8
0
 10
228.18954130775481
 20
387.25851083709438
 30
0.0
  0
SEQEND
  5
77F8
  8
0
  0
POLYLINE
  5
707C
  8
0
 66
     1
 10
0.0
 20
0.0
 30
0.0
 70
   128
  0
VERTEX
  5
77F9
  8
0
 10
217.37288401448609
 20
404.57901891278448
 30
0.0
  0
VERTEX
  5
77FA
  8
0
 10
217.90292635126801
 20
403.70757251281799
 30
0.0
  0
VERTEX
  5
77FB
  8
0
 10
218.58165666230909
 20
402.62542866744479
 30
0.0
  0
VERTEX
  5
77FC
  8
0
 10
219.42045566825999
 20
401.30186325390179
 30
0.0
  0
VERTEX
  5
77FD
  8
0
 10
220.3788533790659
 20
399.78442056715659
 30
0.0
  0
VERTEX
  5
77FE
  8
0
 10
221.94454130775341
 20
397.25851083709591
 30
0.0
  0
SEQEND
  5
77FF
  8
0
  0
POLYLINE
  5
707D
  8
0
 66
     1
 10
0.0
 20
0.0
 30
0.0
 70
   128
  0
VERTEX
  5
7800
  8
0
 10
217.37288401448629
 20
369.93800276140729
 30
0.0
  0
VERTEX
  5
7801
  8
0
 10
217.90292635126821
 20
370.80944916137389
 30
0.0
  0
VERTEX
  5
7802
  8
0
 10
218.58165666230951
 20
371.89159300674731
 30
0.0
  0
VERTEX
  5
7803
  8
0
 10
219.42045566826039
 20
373.21515842029032
 30
0.0
  0
VERTEX
  5
7804
  8
0
 10
220.3788533790663
 20
374.73260110703552
 30
0.0
  0
VERTEX
  5
7805
  8
0
 10
221.9445413077533
 20
377.25851083709551
 30
0.0
  0
SEQEND
  5
7806
  8
0
  0
ARC
  5
707F
  8
0
 10
201.50810143397931
 20
432.2284631753123
 30
0.0
 40
49.427755949387979
 50
314.96843265380028
 51
325.98630480385839
  0
ARC
  5
7081
  8
0
 10
201.50810143397709
 20
342.28855849887651
 30
0.0
 40
49.427755949391361
 50
34.013695196144248
 51
45.031567346199701
  0
ARC
  5
7083
  8
0
 10
278.84572201573002
 20
444.83105346689672
 30
0.0
 40
73.478813937574159
 50
210.7530242369443
 51
213.21653146073999
  0
ARC
  5
7084
  8
0
 10
281.24428802039978
 20
328.16631939766933
 30
0.0
 40
76.31795189027973
 50
146.81544889036169
 51
149.18765038183921
  0
LINE
  5
7085
  8
0
 10
225.9395413077539
 20
368.0402409459067
 30
0.0
 11
233.4395413077539
 21
368.0402409459067
 31
0.0
  0
ARC
  5
7086
  8
0
 10
185.95208189070669
 20
321.03106907541172
 30
0.0
 40
74.747415771428592
 50
38.202938275201063
 51
40.86628899669104
  0
ARC
  5
7087
  8
0
 10
187.56425491129249
 20
452.13526155652892
 30
0.0
 40
72.644484312381564
 50
319.1073729215633
 51
321.84736453609571
  0
LINE
  5
7088
  8
0
 10
233.4395413077539
 20
406.47678072828518
 30
0.0
 11
225.9395413077539
 21
406.47678072828518
 31
0.0
  0
LINE
  5
708A
  8
0
 10
225.9395413077539
 20
406.65844743422468
 30
0.0
 11
233.4395413077539
 21
406.65844743422468
 31
0.0
  0
LINE
  5
708B
  8
0
 10
225.9395413077539
 20
406.47678072828518
 30
0.0
 11
225.9395413077539
 21
407.97851083709588
 31
0.0
  0
LINE
  5
708C
  8
0
 10
233.4395413077539
 20
406.47678072828518
 30
0.0
 11
233.4395413077539
 21
407.97851083709588
 31
0.0
  0
LINE
  5
708D
  8
0
 10
233.4395413077539
 20
367.85857443761228
 30
0.0
 11
225.9395413077539
 21
367.85857443761228
 31
0.0
  0
LINE
  5
7098
  8
0
 10
233.4395413077539
 20
366.53851083709611
 30
0.0
 11
233.43954130775359
 21
368.0402409459067
 31
0.0
  0
LINE
  5
7099
  8
0
 10
225.9395413077539
 20
368.0402409459067
 30
0.0
 11
225.9395413077539
 21
366.53851083709611
 31
0.0
  0
LINE
  5
70A0
  8
0
 10
264.28954130775378
 20
392.35851083709628
 30
0.0
 11
264.28954130775378
 21
389.85851083709639
 31
0.0
  0
LINE
  5
70AD
  8
0
 10
264.28954130775378
 20
384.65851083709629
 30
0.0
 11
264.28954130775378
 21
382.1585108370964
 31
0.0
  0
LINE
  5
70B0
  8
0
 10
244.69059124599721
 20
389.85851083709639
 30
0.0
 11
266.28954130775378
 21
389.85851083709639
 31
0.0
  0
LINE
  5
70B1
  8
0
 10
266.28954130775378
 20
392.35851083709628
 30
0.0
 11
244.69059124599721
 21
392.35851083709628
 31
0.0
  0
LINE
  5
70B8
  8
0
 10
266.28954130775378
 20
382.1585108370964
 30
0.0
 11
244.69059124599721
 21
382.1585108370964
 31
0.0
  0
LINE
  5
70B9
  8
0
 10
244.69059124599721
 20
384.65851083709629
 30
0.0
 11
266.28954130775378
 21
384.65851083709629
 31
0.0
  0
ARC
  5
70BA
  8
0
 10
266.28954130775378
 20
386.1585108370964
 30
0.0
 40
1.500000000000056
 50
270.0
 51
359.99999999999841
  0
LINE
  5
70BB
  8
0
 10
267.78954130775378
 20
388.35851083709639
 30
0.0
 11
267.78954130775378
 21
386.15851083709629
 31
0.0
  0
ARC
  5
70BC
  8
0
 10
266.28954130775378
 20
388.35851083709639
 30
0.0
 40
1.5
 50
0.0
 51
90.0
  0
ARC
  5
70BD
  8
0
 10
266.28954130775378
 20
388.35851083709639
 30
0.0
 40
4.0
 50
0.0
 51
90.0
  0
LINE
  5
70BE
  8
0
 10
270.28954130775378
 20
386.15851083709629
 30
0.0
 11
270.28954130775378
 21
388.35851083709639
 31
0.0
  0
ARC
  5
70BF
  8
0
 10
266.28954130775378
 20
386.15851083709629
 30
0.0
 40
4.0
 50
270.0
 51
0.0
  0
ARC
  5
70C0
  8
0
 10
255.28954130775381
 20
403.25851083709642
 30
0.0
 40
3.3999999999999768
 50
270.0
 51
90.0
  0
LINE
  5
70C1
  8
0
 10
254.28954130775381
 20
406.6585108370964
 30
0.0
 11
255.28954130775381
 21
406.6585108370964
 31
0.0
  0
ARC
  5
70C2
  8
0
 10
254.28954130775381
 20
403.25851083709642
 30
0.0
 40
3.3999999999999768
 50
90.0
 51
270.0
  0
LINE
  5
70C3
  8
0
 10
255.28954130775381
 20
399.8585108370965
 30
0.0
 11
254.28954130775381
 21
399.8585108370965
 31
0.0
  0
LINE
  5
70C4
  8
0
 10
258.28954130775378
 20
409.75851083709648
 30
0.0
 11
231.28954130775401
 21
409.75851083709648
 31
0.0
  0
ARC
  5
70C5
  8
0
 10
258.28954130775378
 20
403.75851083709642
 30
0.0
 40
6.0
 50
0.0
 51
90.0
  0
ARC
  5
70C6
  8
0
 10
231.28954130775401
 20
403.75851083709642
 30
0.0
 40
6.0
 50
90.0
 51
135.30494662977699
  0
LINE
  5
70C7
  8
0
 10
264.28954130775378
 20
403.75851083709642
 30
0.0
 11
264.28954130775378
 21
392.3585108370965
 31
0.0
  0
ARC
  5
70C8
  8
0
 10
255.28954130775381
 20
371.25851083709648
 30
0.0
 40
3.4000000000000341
 50
270.0
 51
90.0
  0
LINE
  5
70C9
  8
0
 10
254.28954130775381
 20
374.65851083709651
 30
0.0
 11
255.28954130775381
 21
374.65851083709651
 31
0.0
  0
ARC
  5
70CA
  8
0
 10
254.28954130775381
 20
371.25851083709648
 30
0.0
 40
3.4000000000000341
 50
90.0
 51
270.0
  0
LINE
  5
70CB
  8
0
 10
255.28954130775381
 20
367.8585108370965
 30
0.0
 11
254.28954130775381
 21
367.8585108370965
 31
0.0
  0
LINE
  5
70CC
  8
0
 10
231.28954130775381
 20
364.75851083709648
 30
0.0
 11
258.28954130775378
 21
364.75851083709648
 31
0.0
  0
ARC
  5
70CD
  8
0
 10
231.28954130775381
 20
370.75851083709648
 30
0.0
 40
6.0000000000000044
 50
224.69505337023449
 51
270.0
  0
ARC
  5
70CE
  8
0
 10
258.28954130775378
 20
370.75851083709648
 30
0.0
 40
6.0
 50
270.0
 51
0.0
  0
LINE
  5
70CF
  8
0
 10
264.28954130775378
 20
382.15851083709651
 30
0.0
 11
264.28954130775378
 21
370.75851083709648
 31
0.0
  0
LINE
  5
70D0
  8
0
 10
45.797292858978949
 20
170.4403378476843
 30
0.0
 11
45.697292858927192
 21
170.34033784760399
 31
0.0
  0
LINE
  5
70D1
  8
0
 10
45.697292858927192
 20
158.54033784771809
 30
0.0
 11
45.797292858978949
 21
158.44033784763789
 31
0.0
  0
LINE
  5
70D2
  8
0
 10
47.497292858927153
 20
170.44033784766111
 30
0.0
 11
45.797292858978949
 21
170.44033784766111
 31
0.0
  0
LINE
  5
70D3
  8
0
 10
45.797292858978949
 20
158.44033784766111
 30
0.0
 11
47.497292858927153
 21
158.44033784766111
 31
0.0
  0
LINE
  5
70D4
  8
0
 10
47.497292858927153
 20
158.44033784767171
 30
0.0
 11
47.697292858894457
 21
158.64033784769589
 31
0.0
  0
LINE
  5
70D5
  8
0
 10
47.697292858894457
 20
170.24033784762631
 30
0.0
 11
47.497292858927153
 21
170.44033784765051
 31
0.0
  0
LINE
  5
70D6
  8
0
 10
58.147292858927131
 20
158.44033784766111
 30
0.0
 11
59.64729285891292
 21
158.44033784766111
 31
0.0
  0
LINE
  5
70D7
  8
0
 10
59.64729285891292
 20
170.44033784766111
 30
0.0
 11
58.147292858927131
 21
170.44033784766111
 31
0.0
  0
LINE
  5
70D8
  8
0
 10
59.64729285891292
 20
158.44033784763789
 30
0.0
 11
59.897292858907001
 21
158.69033784763201
 31
0.0
  0
LINE
  5
70D9
  8
0
 10
59.897292858907001
 20
170.19033784769019
 30
0.0
 11
59.64729285891292
 21
170.4403378476843
 31
0.0
  0
LINE
  5
70DA
  8
0
 10
58.147292858927131
 20
170.44033784766299
 30
0.0
 11
57.897292858954302
 21
170.190337847747
 31
0.0
  0
LINE
  5
70DB
  8
0
 10
57.897292858954302
 20
158.69033784757511
 30
0.0
 11
58.147292858927131
 21
158.44033784765921
 31
0.0
  0
ARC
  5
70DC
  8
0
 10
52.797292858927342
 20
183.94033784766111
 30
0.0
 40
12.00000000000011
 50
109.6657146257799
 51
129.60565239386929
  0
ARC
  5
70DD
  8
0
 10
52.797292858927342
 20
183.94033784766111
 30
0.0
 40
12.000000000000099
 50
50.394347606130687
 51
70.336738476398281
  0
LINE
  5
70DE
  8
0
 10
46.997292858927381
 20
151.44033784766111
 30
0.0
 11
46.997292858927381
 21
150.94033784766111
 31
0.0
  0
LINE
  5
70DF
  8
0
 10
58.597292858927403
 20
150.94033784766111
 30
0.0
 11
58.597292858927403
 21
151.44033784766111
 31
0.0
  0
LINE
  5
70E0
  8
0
 10
56.79729285902124
 20
195.67333784766109
 30
0.0
 11
56.030292858919772
 21
196.44033784770571
 31
0.0
  0
LINE
  5
70E1
  8
0
 10
49.564292858934891
 20
196.44033784770571
 30
0.0
 11
48.797292858833544
 21
195.67333784766109
 31
0.0
  0
LINE
  5
70E2
  8
0
 10
48.797292858927328
 20
195.67333784766109
 30
0.0
 11
48.797292858927328
 21
195.25404634664591
 31
0.0
  0
LINE
  5
70E3
  8
0
 10
48.797292858927328
 20
173.94033784766111
 30
0.0
 11
48.797292858927328
 21
151.44033784766111
 31
0.0
  0
LINE
  5
70E4
  8
0
 10
56.797292858927328
 20
151.44033784766111
 30
0.0
 11
56.797292858927328
 21
173.94033784766111
 31
0.0
  0
LINE
  5
70E5
  8
0
 10
56.797292858927328
 20
195.2403378476611
 30
0.0
 11
56.797292858927328
 21
195.67333784766109
 31
0.0
  0
LINE
  5
70E6
  8
0
 10
45.89729285884016
 20
230.44033784762519
 30
0.0
 11
45.697292858890357
 21
230.24033784767539
 31
0.0
  0
LINE
  5
70E7
  8
0
 10
45.697292858890357
 20
218.6403378476468
 30
0.0
 11
45.89729285884016
 21
218.44033784769701
 31
0.0
  0
LINE
  5
70E8
  8
0
 10
47.597292858927169
 20
230.44033784766111
 30
0.0
 11
45.89729285884016
 21
230.44033784766111
 31
0.0
  0
LINE
  5
70E9
  8
0
 10
45.89729285884016
 20
218.44033784766111
 30
0.0
 11
47.597292858927169
 21
218.44033784766111
 31
0.0
  0
LINE
  5
70EA
  8
0
 10
47.597292858927169
 20
218.4403378476423
 30
0.0
 11
47.797292858874812
 21
218.64033784758999
 31
0.0
  0
LINE
  5
70EB
  8
0
 10
47.797292858874812
 20
230.24033784773221
 30
0.0
 11
47.597292858927169
 21
230.4403378476799
 31
0.0
  0
LINE
  5
70EC
  8
0
 10
58.047292858927108
 20
218.44033784766111
 30
0.0
 11
59.547292858881178
 21
218.44033784766111
 31
0.0
  0
LINE
  5
70ED
  8
0
 10
59.547292858881178
 20
230.44033784766111
 30
0.0
 11
58.047292858927108
 21
230.44033784766111
 31
0.0
  0
LINE
  5
70EE
  8
0
 10
59.547292858881178
 20
218.44033784764019
 30
0.0
 11
59.797292858875259
 21
218.69033784763431
 31
0.0
  0
LINE
  5
70EF
  8
0
 10
59.797292858875259
 20
230.19033784768791
 30
0.0
 11
59.547292858881178
 21
230.440337847682
 31
0.0
  0
LINE
  5
70F0
  8
0
 10
58.047292858927108
 20
230.4403378476357
 30
0.0
 11
57.797292858979397
 21
230.19033784768791
 31
0.0
  0
LINE
  5
70F1
  8
0
 10
57.797292858979397
 20
218.69033784763431
 30
0.0
 11
58.047292858927108
 21
218.44033784768661
 31
0.0
  0
LINE
  5
70F2
  8
0
 10
50.297292858927101
 20
231.94033784766111
 30
0.0
 11
47.797292858927101
 21
231.94033784766111
 31
0.0
  0
LINE
  5
70F3
  8
0
 10
57.797292858927101
 20
231.94033784766111
 30
0.0
 11
55.297292858927101
 21
231.94033784766111
 31
0.0
  0
LINE
  5
70F4
  8
0
 10
62.397292858927131
 20
160.44033784766111
 30
0.0
 11
63.763811047310128
 21
160.44033784766111
 31
0.0
  0
LINE
  5
70F5
  8
0
 10
63.763811047310128
 20
168.44033784766111
 30
0.0
 11
62.397292858927131
 21
168.44033784766111
 31
0.0
  0
ARC
  5
70F6
  8
0
 10
3.8972928589342919
 20
164.44033784766111
 30
0.0
 40
59.9999999999933
 50
356.17744627072273
 51
0.0
  0
ARC
  5
70F7
  8
0
 10
3.8972928589342919
 20
164.44033784766111
 30
0.0
 40
59.9999999999933
 50
0.0
 51
3.8225537292788898
  0
ARC
  5
70F8
  8
0
 10
101.6972928589724
 20
164.44033784766111
 30
0.0
 40
60.000000000046683
 50
181.91021317170819
 51
183.82255372928211
  0
ARC
  5
70F9
  8
0
 10
101.6972928589724
 20
164.44033784766111
 30
0.0
 40
60.00000000004669
 50
176.17744627071789
 51
178.08978682829181
  0
LINE
  5
70FA
  8
0
 10
41.830774670544088
 20
160.44033784766111
 30
0.0
 11
43.197292858927192
 21
160.44033784766111
 31
0.0
  0
LINE
  5
70FB
  8
0
 10
43.197292858927192
 20
168.44033784766111
 30
0.0
 11
41.830774670544088
 21
168.44033784766111
 31
0.0
  0
LINE
  5
70FC
  8
0
 10
62.397292858927131
 20
220.44033784766111
 30
0.0
 11
63.763811047310128
 21
220.44033784766111
 31
0.0
  0
LINE
  5
70FD
  8
0
 10
63.763811047310128
 20
228.44033784766111
 30
0.0
 11
62.397292858927131
 21
228.44033784766111
 31
0.0
  0
ARC
  5
70FE
  8
0
 10
3.8972928589342919
 20
224.44033784766111
 30
0.0
 40
59.9999999999933
 50
356.17744627072273
 51
0.0
  0
ARC
  5
70FF
  8
0
 10
3.8972928589342919
 20
224.44033784766111
 30
0.0
 40
59.9999999999933
 50
0.0
 51
3.8225537292788898
  0
ARC
  5
7100
  8
0
 10
101.6972928589724
 20
224.44033784766111
 30
0.0
 40
60.00000000004669
 50
181.91021317170819
 51
183.82255372928211
  0
ARC
  5
7101
  8
0
 10
101.6972928589724
 20
224.44033784766111
 30
0.0
 40
60.00000000004669
 50
176.17744627071789
 51
178.08978682829181
  0
LINE
  5
7102
  8
0
 10
41.830774670544088
 20
220.44033784766111
 30
0.0
 11
43.197292858927192
 21
220.44033784766111
 31
0.0
  0
LINE
  5
7103
  8
0
 10
43.197292858927192
 20
228.44033784766111
 30
0.0
 11
41.830774670544088
 21
228.44033784766111
 31
0.0
  0
LINE
  5
7104
  8
0
 10
59.79729285887538
 20
221.44033784766111
 30
0.0
 11
59.897292858927131
 21
221.44033784766111
 31
0.0
  0
LINE
  5
7105
  8
0
 10
59.897292858927131
 20
227.44033784766111
 30
0.0
 11
59.79729285887538
 21
227.44033784766111
 31
0.0
  0
LINE
  5
7106
  8
0
 10
43.197292858927192
 20
157.94033784766111
 30
0.0
 11
45.697292858927192
 21
157.94033784766111
 31
0.0
  0
LINE
  5
7107
  8
0
 10
59.897292858927131
 20
157.94033784766111
 30
0.0
 11
62.397292858927131
 21
157.94033784766111
 31
0.0
  0
LINE
  5
710D
  8
0
 10
56.83585696018941
 20
195.2403378476611
 30
0.0
 11
48.758728757665381
 21
195.2403378476611
 31
0.0
  0
LINE
  5
710E
  8
0
 10
60.447292858927987
 20
182.44033784766111
 30
0.0
 11
60.447292858927312
 21
193.18574211140219
 31
0.0
  0
LINE
  5
710F
  8
0
 10
45.147292858927358
 20
191.87759178085491
 30
0.0
 11
60.447292858927419
 21
191.87759178085491
 31
0.0
  0
LINE
  5
7110
  8
0
 10
45.147292858927358
 20
193.18574211140219
 30
0.0
 11
45.147292858927358
 21
182.44033784766111
 31
0.0
  0
LINE
  5
7111
  8
0
 10
45.147292858927358
 20
183.44033784766111
 30
0.0
 11
60.447292858927419
 21
183.44033784766111
 31
0.0
  0
LINE
  5
7117
  8
0
 10
46.297292858927328
 20
150.94033784766111
 30
0.0
 11
59.297292858927328
 21
150.94033784766111
 31
0.0
  0
LINE
  5
7118
  8
0
 10
52.797292858927449
 20
146.40977509578909
 30
0.0
 11
52.797292858927449
 21
150.94033784766111
 31
0.0
  0
ARC
  5
7119
  8
0
 10
49.436111834143837
 20
167.21718073164331
 30
0.0
 40
21.07713612368487
 50
270.30223427827627
 51
279.1761623612062
  0
ARC
  5
711A
  8
0
 10
49.658007237005222
 20
167.2115519560974
 30
0.0
 40
21.071504969438688
 50
260.82264952651832
 51
269.69895383399938
  0
LINE
  5
711B
  8
0
 10
46.297292858927328
 20
150.94033784766111
 30
0.0
 11
46.297292858927328
 21
146.1403378476611
 31
0.0
  0
LINE
  5
711C
  8
0
 10
59.297292858927221
 20
146.1403378476611
 30
0.0
 11
59.297292858927328
 21
150.94033784766111
 31
0.0
  0
ARC
  5
711D
  8
0
 10
55.936111834143617
 20
167.2171807316459
 30
0.0
 40
21.077136123687481
 50
270.30223427827627
 51
279.1761623612062
  0
ARC
  5
711E
  8
0
 10
56.158007237006238
 20
167.2115519561099
 30
0.0
 40
21.071504969451201
 50
260.82264952651832
 51
269.69895383399938
  0
LINE
  5
7122
  8
0
 10
46.997292858927381
 20
151.44033784766111
 30
0.0
 11
58.597292858927403
 21
151.44033784766111
 31
0.0
  0
LINE
  5
7126
  8
0
 10
46.297292858927221
 20
146.1403378476611
 30
0.0
 11
59.297292858927328
 21
146.1403378476611
 31
0.0
  0
LINE
  5
7127
  8
0
 10
56.797292858927328
 20
195.67333784766109
 30
0.0
 11
48.797292858927328
 21
195.67333784766109
 31
0.0
  0
LINE
  5
7129
  8
0
 10
56.030292858919772
 20
196.44033784770571
 30
0.0
 11
49.564292858934891
 21
196.44033784770571
 31
0.0
  0
ARC
  5
712A
  8
0
 10
49.69338742111222
 20
184.14533847608561
 30
0.0
 40
10.20604631810205
 50
250.5640310768988
 51
269.17981092267831
  0
POLYLINE
  5
712C
  8
0
 66
     1
 10
0.0
 20
0.0
 30
0.0
 70
   128
  0
VERTEX
  5
7807
  8
0
 10
46.29729293395723
 20
177.3597812890703
 30
0.0
  0
VERTEX
  5
7808
  8
0
 10
47.88955974424254
 20
177.78099217943159
 30
0.0
  0
VERTEX
  5
7809
  8
0
 10
49.547292858927328
 20
177.94033784766111
 30
0.0
  0
SEQEND
  5
780A
  8
0
  0
ARC
  5
712D
  8
0
 10
49.401198166810218
 20
167.73533606510659
 30
0.0
 40
10.20604747397368
 50
70.564032369763666
 51
89.179810286073817
  0
LINE
  5
712E
  8
0
 10
52.797292858927449
 20
174.52089443126189
 30
0.0
 11
52.797292896442293
 21
177.35978127656529
 31
0.0
  0
ARC
  5
712F
  8
0
 10
49.398440332359648
 20
184.16077777088941
 30
0.0
 40
10.221523824703709
 50
270.83440817266552
 51
289.42174982775651
  0
ARC
  5
7130
  8
0
 10
56.193387421112668
 20
184.14533847608811
 30
0.0
 40
10.20604631810453
 50
250.56403107690551
 51
269.17981092267831
  0
POLYLINE
  5
7132
  8
0
 66
     1
 10
0.0
 20
0.0
 30
0.0
 70
   128
  0
VERTEX
  5
780B
  8
0
 10
52.797292933957237
 20
177.3597812890703
 30
0.0
  0
VERTEX
  5
780C
  8
0
 10
54.389559744242661
 20
177.78099217943159
 30
0.0
  0
VERTEX
  5
780D
  8
0
 10
56.047292858927442
 20
177.94033784766111
 30
0.0
  0
SEQEND
  5
780E
  8
0
  0
ARC
  5
7133
  8
0
 10
55.901198325464406
 20
167.73533745976039
 30
0.0
 40
10.20604607719172
 50
70.564030770658832
 51
89.179811064575887
  0
ARC
  5
7135
  8
0
 10
55.898440332359087
 20
184.16077777089211
 30
0.0
 40
10.22152382470642
 50
270.83440817266552
 51
289.42174982774981
  0
LINE
  5
7136
  8
0
 10
59.297292858927328
 20
173.94033784766111
 30
0.0
 11
59.297292858927328
 21
177.94033784766111
 31
0.0
  0
POLYLINE
  5
7139
  8
0
 66
     1
 10
0.0
 20
0.0
 30
0.0
 70
   128
  0
VERTEX
  5
780F
  8
0
 10
46.297292858927328
 20
177.94033784766111
 30
0.0
  0
VERTEX
  5
7810
  8
0
 10
46.297292858927328
 20
177.90144793003989
 30
0.0
  0
VERTEX
  5
7811
  8
0
 10
46.297292858927328
 20
177.787100712973
 30
0.0
  0
VERTEX
  5
7812
  8
0
 10
46.297292858927328
 20
177.6025508172506
 30
0.0
  0
VERTEX
  5
7813
  8
0
 10
46.297293424845748
 20
173.94033784766111
 30
0.0
  0
SEQEND
  5
7814
  8
0
  0
LINE
  5
713B
  8
0
 10
46.297293424845748
 20
173.94033784766111
 30
0.0
 11
59.297292858927328
 21
173.94033784766111
 31
0.0
  0
LINE
  5
7141
  8
0
 10
59.797292858875487
 20
230.19033784768769
 30
0.0
 11
59.797292858875259
 21
218.69033784763431
 31
0.0
  0
LINE
  5
7146
  8
0
 10
50.297292858927221
 20
242.94033784766111
 30
0.0
 11
50.297292858927342
 21
218.44033784766111
 31
0.0
  0
LINE
  5
7149
  8
0
 10
55.297292858927221
 20
242.94033784766111
 30
0.0
 11
50.297292858927221
 21
242.94033784766111
 31
0.0
  0
LINE
  5
714D
  8
0
 10
55.297292858927342
 20
242.94033784766111
 30
0.0
 11
55.297292858927221
 21
218.44033784766111
 31
0.0
  0
LINE
  5
7157
  8
0
 10
57.797292858927221
 20
204.44033784766111
 30
0.0
 11
47.797292858927221
 21
204.44033784766111
 31
0.0
  0
LINE
  5
7158
  8
0
 10
47.797292858927221
 20
218.44033784766111
 30
0.0
 11
57.797292858927342
 21
218.44033784766111
 31
0.0
  0
LINE
  5
715F
  8
0
 10
50.297292858927221
 20
203.4403378476612
 30
0.0
 11
50.297292858927221
 21
204.44033784766111
 31
0.0
  0
LINE
  5
7166
  8
0
 10
55.297292858927221
 20
203.4403378476612
 30
0.0
 11
55.297292858927221
 21
204.44033784766111
 31
0.0
  0
LINE
  5
716B
  8
0
 10
47.797292858927101
 20
231.94033784766111
 30
0.0
 11
47.797292858927342
 21
203.44033784766111
 31
0.0
  0
LINE
  5
716C
  8
0
 10
57.797292858927101
 20
231.94033784766111
 30
0.0
 11
57.797292858927449
 21
203.44033784766111
 31
0.0
  0
LINE
  5
716F
  8
0
 10
63.097292858927403
 20
177.94033784766111
 30
0.0
 11
42.497292858927381
 21
177.94033784766111
 31
0.0
  0
LINE
  5
7174
  8
0
 10
60.597292858927403
 20
182.44033784766111
 30
0.0
 11
44.997292858927381
 21
182.44033784766111
 31
0.0
  0
LINE
  5
717E
  8
0
 10
44.997292858927487
 20
182.44033784766111
 30
0.0
 11
44.99729285892726
 21
202.11194637760511
 31
0.0
  0
LINE
  5
7181
  8
0
 10
60.597292858927283
 20
202.11194637760511
 30
0.0
 11
60.597292858927403
 21
182.44033784766111
 31
0.0
  0
ARC
  5
7182
  8
0
 10
43.369863583057963
 20
202.3549032321645
 30
0.0
 40
0.8809647786810595
 50
101.1118216894577
 51
172.08429329884771
  0
POLYLINE
  5
7183
  8
0
 10
44.582740575841619
 20
203.44033784766111
 30
0.0
 66
     1
 70
     8
  0
VERTEX
  8
0
  5
7833
 10
44.5827
 20
203.440
 30
0.000000
  70
    32
  0
VERTEX
  8
0
  5
7834
 10
44.5719
 20
203.440
 30
0.000000
  70
    32
  0
VERTEX
  8
0
  5
7835
 10
44.5611
 20
203.440
 30
0.000000
  70
    32
  0
VERTEX
  8
0
  5
7836
 10
44.5502
 20
203.440
 30
0.000000
  70
    32
  0
VERTEX
  8
0
  5
7837
 10
44.5394
 20
203.440
 30
0.000000
  70
    32
  0
VERTEX
  8
0
  5
7838
 10
44.5285
 20
203.440
 30
0.000000
  70
    32
  0
VERTEX
  8
0
  5
7839
 10
44.5177
 20
203.440
 30
0.000000
  70
    32
  0
VERTEX
  8
0
  5
783A
 10
44.5068
 20
203.440
 30
0.000000
  70
    32
  0
VERTEX
  8
0
  5
783B
 10
44.4960
 20
203.439
 30
0.000000
  70
    32
  0
VERTEX
  8
0
  5
783C
 10
44.4852
 20
203.439
 30
0.000000
  70
    32
  0
VERTEX
  8
0
  5
783D
 10
44.4743
 20
203.439
 30
0.000000
  70
    32
  0
VERTEX
  8
0
  5
783E
 10
44.4635
 20
203.439
 30
0.000000
  70
    32
  0
VERTEX
  8
0
  5
783F
 10
44.4526
 20
203.438
 30
0.000000
  70
    32
  0
VERTEX
  8
0
  5
7840
 10
44.4418
 20
203.438
 30
0.000000
  70
    32
  0
VERTEX
  8
0
  5
7841
 10
44.4310
 20
203.438
 30
0.000000
  70
    32
  0
VERTEX
  8
0
  5
7842
 10
44.4201
 20
203.437
 30
0.000000
  70
    32
  0
VERTEX
  8
0
  5
7843
 10
44.4093
 20
203.437
 30
0.000000
  70
    32
  0
VERTEX
  8
0
  5
7844
 10
44.3984
 20
203.436
 30
0.000000
  70
    32
  0
VERTEX
  8
0
  5
7845
 10
44.3876
 20
203.436
 30
0.000000
  70
    32
  0
VERTEX
  8
0
  5
7846
 10
44.3768
 20
203.435
 30
0.000000
  70
    32
  0
VERTEX
  8
0
  5
7847
 10
44.3659
 20
203.435
 30
0.000000
  70
    32
  0
VERTEX
  8
0
  5
7848
 10
44.3551
 20
203.434
 30
0.000000
  70
    32
  0
VERTEX
  8
0
  5
7849
 10
44.3442
 20
203.434
 30
0.000000
  70
    32
  0
VERTEX
  8
0
  5
784A
 10
44.3334
 20
203.433
 30
0.000000
  70
    32
  0
VERTEX
  8
0
  5
784B
 10
44.3226
 20
203.433
 30
0.000000
  70
    32
  0
VERTEX
  8
0
  5
784C
 10
44.3117
 20
203.432
 30
0.000000
  70
    32
  0
VERTEX
  8
0
  5
784D
 10
44.3009
 20
203.431
 30
0.000000
  70
    32
  0
VERTEX
  8
0
  5
784E
 10
44.2901
 20
203.430
 30
0.000000
  70
    32
  0
VERTEX
  8
0
  5
784F
 10
44.2792
 20
203.430
 30
0.000000
  70
    32
  0
VERTEX
  8
0
  5
7850
 10
44.2684
 20
203.429
 30
0.000000
  70
    32
  0
VERTEX
  8
0
  5
7851
 10
44.2575
 20
203.428
 30
0.000000
  70
    32
  0
VERTEX
  8
0
  5
7852
 10
44.2467
 20
203.427
 30
0.000000
  70
    32
  0
VERTEX
  8
0
  5
7853
 10
44.2359
 20
203.427
 30
0.000000
  70
    32
  0
VERTEX
  8
0
  5
7854
 10
44.2250
 20
203.426
 30
0.000000
  70
    32
  0
VERTEX
  8
0
  5
7855
 10
44.2142
 20
203.425
 30
0.000000
  70
    32
  0
VERTEX
  8
0
  5
7856
 10
44.2034
 20
203.424
 30
0.000000
  70
    32
  0
VERTEX
  8
0
  5
7857
 10
44.1925
 20
203.423
 30
0.000000
  70
    32
  0
VERTEX
  8
0
  5
7858
 10
44.1817
 20
203.422
 30
0.000000
  70
    32
  0
VERTEX
  8
0
  5
7859
 10
44.1709
 20
203.421
 30
0.000000
  70
    32
  0
VERTEX
  8
0
  5
785A
 10
44.1600
 20
203.420
 30
0.000000
  70
    32
  0
VERTEX
  8
0
  5
785B
 10
44.1492
 20
203.419
 30
0.000000
  70
    32
  0
VERTEX
  8
0
  5
785C
 10
44.1384
 20
203.418
 30
0.000000
  70
    32
  0
VERTEX
  8
0
  5
785D
 10
44.1276
 20
203.417
 30
0.000000
  70
    32
  0
VERTEX
  8
0
  5
785E
 10
44.1167
 20
203.415
 30
0.000000
  70
    32
  0
VERTEX
  8
0
  5
785F
 10
44.1059
 20
203.414
 30
0.000000
  70
    32
  0
VERTEX
  8
0
  5
7860
 10
44.0951
 20
203.413
 30
0.000000
  70
    32
  0
VERTEX
  8
0
  5
7861
 10
44.0842
 20
203.412
 30
0.000000
  70
    32
  0
VERTEX
  8
0
  5
7862
 10
44.0734
 20
203.410
 30
0.000000
  70
    32
  0
VERTEX
  8
0
  5
7863
 10
44.0626
 20
203.409
 30
0.000000
  70
    32
  0
VERTEX
  8
0
  5
7864
 10
44.0518
 20
203.408
 30
0.000000
  70
    32
  0
VERTEX
  8
0
  5
7865
 10
44.0409
 20
203.407
 30
0.000000
  70
    32
  0
VERTEX
  8
0
  5
7866
 10
44.0301
 20
203.405
 30
0.000000
  70
    32
  0
VERTEX
  8
0
  5
7867
 10
44.0193
 20
203.404
 30
0.000000
  70
    32
  0
VERTEX
  8
0
  5
7868
 10
44.0085
 20
203.402
 30
0.000000
  70
    32
  0
VERTEX
  8
0
  5
7869
 10
43.9977
 20
203.401
 30
0.000000
  70
    32
  0
VERTEX
  8
0
  5
786A
 10
43.9868
 20
203.399
 30
0.000000
  70
    32
  0
VERTEX
  8
0
  5
786B
 10
43.9760
 20
203.398
 30
0.000000
  70
    32
  0
VERTEX
  8
0
  5
786C
 10
43.9652
 20
203.396
 30
0.000000
  70
    32
  0
VERTEX
  8
0
  5
786D
 10
43.9544
 20
203.395
 30
0.000000
  70
    32
  0
VERTEX
  8
0
  5
786E
 10
43.9436
 20
203.393
 30
0.000000
  70
    32
  0
VERTEX
  8
0
  5
786F
 10
43.9327
 20
203.392
 30
0.000000
  70
    32
  0
VERTEX
  8
0
  5
7870
 10
43.9219
 20
203.390
 30
0.000000
  70
    32
  0
VERTEX
  8
0
  5
7871
 10
43.9111
 20
203.388
 30
0.000000
  70
    32
  0
VERTEX
  8
0
  5
7872
 10
43.9003
 20
203.387
 30
0.000000
  70
    32
  0
VERTEX
  8
0
  5
7873
 10
43.8895
 20
203.385
 30
0.000000
  70
    32
  0
VERTEX
  8
0
  5
7874
 10
43.8787
 20
203.383
 30
0.000000
  70
    32
  0
VERTEX
  8
0
  5
7875
 10
43.8679
 20
203.382
 30
0.000000
  70
    32
  0
VERTEX
  8
0
  5
7876
 10
43.8571
 20
203.380
 30
0.000000
  70
    32
  0
VERTEX
  8
0
  5
7877
 10
43.8463
 20
203.378
 30
0.000000
  70
    32
  0
VERTEX
  8
0
  5
7878
 10
43.8354
 20
203.376
 30
0.000000
  70
    32
  0
VERTEX
  8
0
  5
7879
 10
43.8246
 20
203.374
 30
0.000000
  70
    32
  0
VERTEX
  8
0
  5
787A
 10
43.8138
 20
203.372
 30
0.000000
  70
    32
  0
VERTEX
  8
0
  5
787B
 10
43.8030
 20
203.370
 30
0.000000
  70
    32
  0
VERTEX
  8
0
  5
787C
 10
43.7922
 20
203.368
 30
0.000000
  70
    32
  0
VERTEX
  8
0
  5
787D
 10
43.7814
 20
203.366
 30
0.000000
  70
    32
  0
VERTEX
  8
0
  5
787E
 10
43.7706
 20
203.364
 30
0.000000
  70
    32
  0
VERTEX
  8
0
  5
787F
 10
43.7598
 20
203.362
 30
0.000000
  70
    32
  0
VERTEX
  8
0
  5
7880
 10
43.7490
 20
203.360
 30
0.000000
  70
    32
  0
VERTEX
  8
0
  5
7881
 10
43.7382
 20
203.358
 30
0.000000
  70
    32
  0
VERTEX
  8
0
  5
7882
 10
43.7274
 20
203.356
 30
0.000000
  70
    32
  0
VERTEX
  8
0
  5
7883
 10
43.7166
 20
203.354
 30
0.000000
  70
    32
  0
VERTEX
  8
0
  5
7884
 10
43.7058
 20
203.352
 30
0.000000
  70
    32
  0
VERTEX
  8
0
  5
7885
 10
43.6950
 20
203.350
 30
0.000000
  70
    32
  0
VERTEX
  8
0
  5
7886
 10
43.6843
 20
203.347
 30
0.000000
  70
    32
  0
VERTEX
  8
0
  5
7887
 10
43.6735
 20
203.345
 30
0.000000
  70
    32
  0
VERTEX
  8
0
  5
7888
 10
43.6627
 20
203.343
 30
0.000000
  70
    32
  0
VERTEX
  8
0
  5
7889
 10
43.6519
 20
203.340
 30
0.000000
  70
    32
  0
VERTEX
  8
0
  5
788A
 10
43.6411
 20
203.338
 30
0.000000
  70
    32
  0
VERTEX
  8
0
  5
788B
 10
43.6303
 20
203.336
 30
0.000000
  70
    32
  0
VERTEX
  8
0
  5
788C
 10
43.6195
 20
203.333
 30
0.000000
  70
    32
  0
VERTEX
  8
0
  5
788D
 10
43.6087
 20
203.331
 30
0.000000
  70
    32
  0
VERTEX
  8
0
  5
788E
 10
43.5980
 20
203.329
 30
0.000000
  70
    32
  0
VERTEX
  8
0
  5
788F
 10
43.5872
 20
203.326
 30
0.000000
  70
    32
  0
VERTEX
  8
0
  5
7890
 10
43.5764
 20
203.324
 30
0.000000
  70
    32
  0
VERTEX
  8
0
  5
7891
 10
43.5656
 20
203.321
 30
0.000000
  70
    32
  0
VERTEX
  8
0
  5
7892
 10
43.5548
 20
203.319
 30
0.000000
  70
    32
  0
VERTEX
  8
0
  5
7893
 10
43.5441
 20
203.316
 30
0.000000
  70
    32
  0
VERTEX
  8
0
  5
7894
 10
43.5333
 20
203.313
 30
0.000000
  70
    32
  0
VERTEX
  8
0
  5
7895
 10
43.5225
 20
203.311
 30
0.000000
  70
    32
  0
VERTEX
  8
0
  5
7896
 10
43.5118
 20
203.308
 30
0.000000
  70
    32
  0
VERTEX
  8
0
  5
7897
 10
43.5010
 20
203.305
 30
0.000000
  70
    32
  0
VERTEX
  8
0
  5
7898
 10
43.4902
 20
203.303
 30
0.000000
  70
    32
  0
VERTEX
  8
0
  5
7899
 10
43.4794
 20
203.300
 30
0.000000
  70
    32
  0
VERTEX
  8
0
  5
789A
 10
43.4687
 20
203.297
 30
0.000000
  70
    32
  0
VERTEX
  8
0
  5
789B
 10
43.4579
 20
203.294
 30
0.000000
  70
    32
  0
VERTEX
  8
0
  5
789C
 10
43.4472
 20
203.292
 30
0.000000
  70
    32
  0
VERTEX
  8
0
  5
789D
 10
43.4364
 20
203.289
 30
0.000000
  70
    32
  0
VERTEX
  8
0
  5
789E
 10
43.4256
 20
203.286
 30
0.000000
  70
    32
  0
VERTEX
  8
0
  5
789F
 10
43.4149
 20
203.283
 30
0.000000
  70
    32
  0
VERTEX
  8
0
  5
78A0
 10
43.4041
 20
203.280
 30
0.000000
  70
    32
  0
VERTEX
  8
0
  5
78A1
 10
43.3934
 20
203.277
 30
0.000000
  70
    32
  0
VERTEX
  8
0
  5
78A2
 10
43.3826
 20
203.274
 30
0.000000
  70
    32
  0
VERTEX
  8
0
  5
78A3
 10
43.3719
 20
203.271
 30
0.000000
  70
    32
  0
VERTEX
  8
0
  5
78A4
 10
43.3611
 20
203.268
 30
0.000000
  70
    32
  0
VERTEX
  8
0
  5
78A5
 10
43.3504
 20
203.265
 30
0.000000
  70
    32
  0
VERTEX
  8
0
  5
78A6
 10
43.3396
 20
203.262
 30
0.000000
  70
    32
  0
VERTEX
  8
0
  5
78A7
 10
43.3289
 20
203.259
 30
0.000000
  70
    32
  0
VERTEX
  8
0
  5
78A8
 10
43.3181
 20
203.256
 30
0.000000
  70
    32
  0
VERTEX
  8
0
  5
78A9
 10
43.3074
 20
203.252
 30
0.000000
  70
    32
  0
VERTEX
  8
0
  5
78AA
 10
43.2967
 20
203.249
 30
0.000000
  70
    32
  0
VERTEX
  8
0
  5
78AB
 10
43.2859
 20
203.246
 30
0.000000
  70
    32
  0
VERTEX
  8
0
  5
78AC
 10
43.2752
 20
203.243
 30
0.000000
  70
    32
  0
VERTEX
  8
0
  5
78AD
 10
43.2644
 20
203.240
 30
0.000000
  70
    32
  0
VERTEX
  8
0
  5
78AE
 10
43.2537
 20
203.236
 30
0.000000
  70
    32
  0
VERTEX
  8
0
  5
78AF
 10
43.2430
 20
203.233
 30
0.000000
  70
    32
  0
VERTEX
  8
0
  5
78B0
 10
43.2323
 20
203.230
 30
0.000000
  70
    32
  0
VERTEX
  8
0
  5
78B1
 10
43.2215
 20
203.226
 30
0.000000
  70
    32
  0
VERTEX
  8
0
  5
78B2
 10
43.2108
 20
203.223
 30
0.000000
  70
    32
  0
VERTEX
  8
0
  5
78B3
 10
43.2001
 20
203.219
 30
0.000000
  70
    32
  0
SEQEND
  8
0
  5
78B4
  0
LINE
  5
7184
  8
0
 10
52.747292858927032
 20
203.44033784766111
 30
0.0
 11
44.582740575841619
 21
203.44033784766111
 31
0.0
  0
POLYLINE
  5
7185
  8
0
 10
47.341224207010548
 20
203.44033784766111
 30
0.0
 66
     1
 70
     8
  0
VERTEX
  8
0
  5
78B5
 10
47.3412
 20
203.440
 30
0.000000
  70
    32
  0
VERTEX
  8
0
  5
78B6
 10
47.3265
 20
203.440
 30
0.000000
  70
    32
  0
VERTEX
  8
0
  5
78B7
 10
47.3117
 20
203.440
 30
0.000000
  70
    32
  0
VERTEX
  8
0
  5
78B8
 10
47.2970
 20
203.440
 30
0.000000
  70
    32
  0
VERTEX
  8
0
  5
78B9
 10
47.2822
 20
203.440
 30
0.000000
  70
    32
  0
VERTEX
  8
0
  5
78BA
 10
47.2675
 20
203.440
 30
0.000000
  70
    32
  0
VERTEX
  8
0
  5
78BB
 10
47.2527
 20
203.439
 30
0.000000
  70
    32
  0
VERTEX
  8
0
  5
78BC
 10
47.2380
 20
203.439
 30
0.000000
  70
    32
  0
VERTEX
  8
0
  5
78BD
 10
47.2232
 20
203.439
 30
0.000000
  70
    32
  0
VERTEX
  8
0
  5
78BE
 10
47.2085
 20
203.438
 30
0.000000
  70
    32
  0
VERTEX
  8
0
  5
78BF
 10
47.1937
 20
203.438
 30
0.000000
  70
    32
  0
VERTEX
  8
0
  5
78C0
 10
47.1790
 20
203.437
 30
0.000000
  70
    32
  0
VERTEX
  8
0
  5
78C1
 10
47.1642
 20
203.437
 30
0.000000
  70
    32
  0
VERTEX
  8
0
  5
78C2
 10
47.1495
 20
203.436
 30
0.000000
  70
    32
  0
VERTEX
  8
0
  5
78C3
 10
47.1347
 20
203.435
 30
0.000000
  70
    32
  0
VERTEX
  8
0
  5
78C4
 10
47.1200
 20
203.435
 30
0.000000
  70
    32
  0
VERTEX
  8
0
  5
78C5
 10
47.1052
 20
203.434
 30
0.000000
  70
    32
  0
VERTEX
  8
0
  5
78C6
 10
47.0905
 20
203.433
 30
0.000000
  70
    32
  0
VERTEX
  8
0
  5
78C7
 10
47.0757
 20
203.432
 30
0.000000
  70
    32
  0
VERTEX
  8
0
  5
78C8
 10
47.0610
 20
203.431
 30
0.000000
  70
    32
  0
VERTEX
  8
0
  5
78C9
 10
47.0462
 20
203.430
 30
0.000000
  70
    32
  0
VERTEX
  8
0
  5
78CA
 10
47.0315
 20
203.429
 30
0.000000
  70
    32
  0
VERTEX
  8
0
  5
78CB
 10
47.0167
 20
203.428
 30
0.000000
  70
    32
  0
VERTEX
  8
0
  5
78CC
 10
47.0020
 20
203.427
 30
0.000000
  70
    32
  0
VERTEX
  8
0
  5
78CD
 10
46.9873
 20
203.426
 30
0.000000
  70
    32
  0
VERTEX
  8
0
  5
78CE
 10
46.9725
 20
203.425
 30
0.000000
  70
    32
  0
VERTEX
  8
0
  5
78CF
 10
46.9578
 20
203.423
 30
0.000000
  70
    32
  0
VERTEX
  8
0
  5
78D0
 10
46.9430
 20
203.422
 30
0.000000
  70
    32
  0
VERTEX
  8
0
  5
78D1
 10
46.9283
 20
203.421
 30
0.000000
  70
    32
  0
VERTEX
  8
0
  5
78D2
 10
46.9136
 20
203.419
 30
0.000000
  70
    32
  0
VERTEX
  8
0
  5
78D3
 10
46.8988
 20
203.418
 30
0.000000
  70
    32
  0
VERTEX
  8
0
  5
78D4
 10
46.8841
 20
203.416
 30
0.000000
  70
    32
  0
VERTEX
  8
0
  5
78D5
 10
46.8694
 20
203.415
 30
0.000000
  70
    32
  0
VERTEX
  8
0
  5
78D6
 10
46.8546
 20
203.413
 30
0.000000
  70
    32
  0
VERTEX
  8
0
  5
78D7
 10
46.8399
 20
203.411
 30
0.000000
  70
    32
  0
VERTEX
  8
0
  5
78D8
 10
46.8252
 20
203.410
 30
0.000000
  70
    32
  0
VERTEX
  8
0
  5
78D9
 10
46.8104
 20
203.408
 30
0.000000
  70
    32
  0
VERTEX
  8
0
  5
78DA
 10
46.7957
 20
203.406
 30
0.000000
  70
    32
  0
VERTEX
  8
0
  5
78DB
 10
46.7810
 20
203.404
 30
0.000000
  70
    32
  0
VERTEX
  8
0
  5
78DC
 10
46.7663
 20
203.402
 30
0.000000
  70
    32
  0
VERTEX
  8
0
  5
78DD
 10
46.7515
 20
203.400
 30
0.000000
  70
    32
  0
VERTEX
  8
0
  5
78DE
 10
46.7368
 20
203.398
 30
0.000000
  70
    32
  0
VERTEX
  8
0
  5
78DF
 10
46.7221
 20
203.396
 30
0.000000
  70
    32
  0
VERTEX
  8
0
  5
78E0
 10
46.7074
 20
203.394
 30
0.000000
  70
    32
  0
VERTEX
  8
0
  5
78E1
 10
46.6927
 20
203.392
 30
0.000000
  70
    32
  0
VERTEX
  8
0
  5
78E2
 10
46.6779
 20
203.390
 30
0.000000
  70
    32
  0
VERTEX
  8
0
  5
78E3
 10
46.6632
 20
203.387
 30
0.000000
  70
    32
  0
VERTEX
  8
0
  5
78E4
 10
46.6485
 20
203.385
 30
0.000000
  70
    32
  0
VERTEX
  8
0
  5
78E5
 10
46.6338
 20
203.383
 30
0.000000
  70
    32
  0
VERTEX
  8
0
  5
78E6
 10
46.6191
 20
203.380
 30
0.000000
  70
    32
  0
VERTEX
  8
0
  5
78E7
 10
46.6044
 20
203.378
 30
0.000000
  70
    32
  0
VERTEX
  8
0
  5
78E8
 10
46.5897
 20
203.375
 30
0.000000
  70
    32
  0
VERTEX
  8
0
  5
78E9
 10
46.5750
 20
203.373
 30
0.000000
  70
    32
  0
VERTEX
  8
0
  5
78EA
 10
46.5603
 20
203.370
 30
0.000000
  70
    32
  0
VERTEX
  8
0
  5
78EB
 10
46.5456
 20
203.367
 30
0.000000
  70
    32
  0
VERTEX
  8
0
  5
78EC
 10
46.5309
 20
203.365
 30
0.000000
  70
    32
  0
VERTEX
  8
0
  5
78ED
 10
46.5162
 20
203.362
 30
0.000000
  70
    32
  0
VERTEX
  8
0
  5
78EE
 10
46.5015
 20
203.359
 30
0.000000
  70
    32
  0
VERTEX
  8
0
  5
78EF
 10
46.4868
 20
203.356
 30
0.000000
  70
    32
  0
VERTEX
  8
0
  5
78F0
 10
46.4721
 20
203.353
 30
0.000000
  70
    32
  0
VERTEX
  8
0
  5
78F1
 10
46.4574
 20
203.350
 30
0.000000
  70
    32
  0
VERTEX
  8
0
  5
78F2
 10
46.4427
 20
203.347
 30
0.000000
  70
    32
  0
VERTEX
  8
0
  5
78F3
 10
46.4281
 20
203.344
 30
0.000000
  70
    32
  0
VERTEX
  8
0
  5
78F4
 10
46.4134
 20
203.341
 30
0.000000
  70
    32
  0
VERTEX
  8
0
  5
78F5
 10
46.3987
 20
203.338
 30
0.000000
  70
    32
  0
VERTEX
  8
0
  5
78F6
 10
46.3840
 20
203.335
 30
0.000000
  70
    32
  0
VERTEX
  8
0
  5
78F7
 10
46.3693
 20
203.331
 30
0.000000
  70
    32
  0
VERTEX
  8
0
  5
78F8
 10
46.3547
 20
203.328
 30
0.000000
  70
    32
  0
VERTEX
  8
0
  5
78F9
 10
46.3400
 20
203.325
 30
0.000000
  70
    32
  0
VERTEX
  8
0
  5
78FA
 10
46.3253
 20
203.321
 30
0.000000
  70
    32
  0
VERTEX
  8
0
  5
78FB
 10
46.3107
 20
203.318
 30
0.000000
  70
    32
  0
VERTEX
  8
0
  5
78FC
 10
46.2960
 20
203.314
 30
0.000000
  70
    32
  0
VERTEX
  8
0
  5
78FD
 10
46.2814
 20
203.311
 30
0.000000
  70
    32
  0
VERTEX
  8
0
  5
78FE
 10
46.2667
 20
203.307
 30
0.000000
  70
    32
  0
VERTEX
  8
0
  5
78FF
 10
46.2521
 20
203.303
 30
0.000000
  70
    32
  0
VERTEX
  8
0
  5
7900
 10
46.2374
 20
203.300
 30
0.000000
  70
    32
  0
VERTEX
  8
0
  5
7901
 10
46.2228
 20
203.296
 30
0.000000
  70
    32
  0
VERTEX
  8
0
  5
7902
 10
46.2081
 20
203.292
 30
0.000000
  70
    32
  0
VERTEX
  8
0
  5
7903
 10
46.1935
 20
203.288
 30
0.000000
  70
    32
  0
VERTEX
  8
0
  5
7904
 10
46.1788
 20
203.284
 30
0.000000
  70
    32
  0
VERTEX
  8
0
  5
7905
 10
46.1642
 20
203.280
 30
0.000000
  70
    32
  0
VERTEX
  8
0
  5
7906
 10
46.1496
 20
203.276
 30
0.000000
  70
    32
  0
VERTEX
  8
0
  5
7907
 10
46.1349
 20
203.272
 30
0.000000
  70
    32
  0
VERTEX
  8
0
  5
7908
 10
46.1203
 20
203.268
 30
0.000000
  70
    32
  0
VERTEX
  8
0
  5
7909
 10
46.1057
 20
203.264
 30
0.000000
  70
    32
  0
VERTEX
  8
0
  5
790A
 10
46.0911
 20
203.260
 30
0.000000
  70
    32
  0
VERTEX
  8
0
  5
790B
 10
46.0764
 20
203.256
 30
0.000000
  70
    32
  0
VERTEX
  8
0
  5
790C
 10
46.0618
 20
203.251
 30
0.000000
  70
    32
  0
VERTEX
  8
0
  5
790D
 10
46.0472
 20
203.247
 30
0.000000
  70
    32
  0
VERTEX
  8
0
  5
790E
 10
46.0326
 20
203.243
 30
0.000000
  70
    32
  0
VERTEX
  8
0
  5
790F
 10
46.0180
 20
203.238
 30
0.000000
  70
    32
  0
VERTEX
  8
0
  5
7910
 10
46.0034
 20
203.234
 30
0.000000
  70
    32
  0
VERTEX
  8
0
  5
7911
 10
45.9888
 20
203.229
 30
0.000000
  70
    32
  0
VERTEX
  8
0
  5
7912
 10
45.9742
 20
203.224
 30
0.000000
  70
    32
  0
VERTEX
  8
0
  5
7913
 10
45.9596
 20
203.220
 30
0.000000
  70
    32
  0
VERTEX
  8
0
  5
7914
 10
45.9450
 20
203.215
 30
0.000000
  70
    32
  0
VERTEX
  8
0
  5
7915
 10
45.9305
 20
203.210
 30
0.000000
  70
    32
  0
VERTEX
  8
0
  5
7916
 10
45.9159
 20
203.205
 30
0.000000
  70
    32
  0
VERTEX
  8
0
  5
7917
 10
45.9013
 20
203.201
 30
0.000000
  70
    32
  0
VERTEX
  8
0
  5
7918
 10
45.8867
 20
203.196
 30
0.000000
  70
    32
  0
VERTEX
  8
0
  5
7919
 10
45.8721
 20
203.191
 30
0.000000
  70
    32
  0
VERTEX
  8
0
  5
791A
 10
45.8576
 20
203.186
 30
0.000000
  70
    32
  0
VERTEX
  8
0
  5
791B
 10
45.8430
 20
203.181
 30
0.000000
  70
    32
  0
VERTEX
  8
0
  5
791C
 10
45.8285
 20
203.176
 30
0.000000
  70
    32
  0
VERTEX
  8
0
  5
791D
 10
45.8139
 20
203.170
 30
0.000000
  70
    32
  0
VERTEX
  8
0
  5
791E
 10
45.7994
 20
203.165
 30
0.000000
  70
    32
  0
VERTEX
  8
0
  5
791F
 10
45.7848
 20
203.160
 30
0.000000
  70
    32
  0
VERTEX
  8
0
  5
7920
 10
45.7703
 20
203.155
 30
0.000000
  70
    32
  0
VERTEX
  8
0
  5
7921
 10
45.7557
 20
203.149
 30
0.000000
  70
    32
  0
VERTEX
  8
0
  5
7922
 10
45.7412
 20
203.144
 30
0.000000
  70
    32
  0
VERTEX
  8
0
  5
7923
 10
45.7267
 20
203.138
 30
0.000000
  70
    32
  0
VERTEX
  8
0
  5
7924
 10
45.7121
 20
203.133
 30
0.000000
  70
    32
  0
VERTEX
  8
0
  5
7925
 10
45.6976
 20
203.127
 30
0.000000
  70
    32
  0
VERTEX
  8
0
  5
7926
 10
45.6831
 20
203.122
 30
0.000000
  70
    32
  0
VERTEX
  8
0
  5
7927
 10
45.6686
 20
203.116
 30
0.000000
  70
    32
  0
VERTEX
  8
0
  5
7928
 10
45.6541
 20
203.110
 30
0.000000
  70
    32
  0
VERTEX
  8
0
  5
7929
 10
45.6396
 20
203.105
 30
0.000000
  70
    32
  0
VERTEX
  8
0
  5
792A
 10
45.6251
 20
203.099
 30
0.000000
  70
    32
  0
VERTEX
  8
0
  5
792B
 10
45.6106
 20
203.093
 30
0.000000
  70
    32
  0
VERTEX
  8
0
  5
792C
 10
45.5961
 20
203.087
 30
0.000000
  70
    32
  0
VERTEX
  8
0
  5
792D
 10
45.5816
 20
203.081
 30
0.000000
  70
    32
  0
VERTEX
  8
0
  5
792E
 10
45.5671
 20
203.075
 30
0.000000
  70
    32
  0
VERTEX
  8
0
  5
792F
 10
45.5526
 20
203.069
 30
0.000000
  70
    32
  0
VERTEX
  8
0
  5
7930
 10
45.5381
 20
203.063
 30
0.000000
  70
    32
  0
VERTEX
  8
0
  5
7931
 10
45.5237
 20
203.057
 30
0.000000
  70
    32
  0
VERTEX
  8
0
  5
7932
 10
45.5092
 20
203.051
 30
0.000000
  70
    32
  0
VERTEX
  8
0
  5
7933
 10
45.4947
 20
203.044
 30
0.000000
  70
    32
  0
VERTEX
  8
0
  5
7934
 10
45.4803
 20
203.038
 30
0.000000
  70
    32
  0
VERTEX
  8
0
  5
7935
 10
45.4658
 20
203.032
 30
0.000000
  70
    32
  0
SEQEND
  8
0
  5
7936
  0
ARC
  5
7186
  8
0
 10
45.685471552459369
 20
202.37128168467419
 30
0.0
 40
0.6961345231358419
 50
108.39302989413591
 51
171.32941771422929
  0
LINE
  5
7187
  8
0
 10
42.49729285892726
 20
202.476226241798
 30
0.0
 11
42.497292858927381
 21
177.94033784766111
 31
0.0
  0
LINE
  5
7188
  8
0
 10
44.99729285892726
 20
202.11194637760511
 30
0.0
 11
44.99729285892726
 21
202.476226241798
 31
0.0
  0
LINE
  5
7189
  8
0
 10
61.011845142012703
 20
203.44033784766111
 30
0.0
 11
52.847292858927169
 21
203.44033784766111
 31
0.0
  0
POLYLINE
  5
718A
  8
0
 10
62.394505569612875
 20
203.219352494145
 30
0.0
 66
     1
 70
     8
  0
VERTEX
  8
0
  5
7937
 10
62.3945
 20
203.219
 30
0.000000
  70
    32
  0
VERTEX
  8
0
  5
7938
 10
62.3838
 20
203.223
 30
0.000000
  70
    32
  0
VERTEX
  8
0
  5
7939
 10
62.3731
 20
203.226
 30
0.000000
  70
    32
  0
VERTEX
  8
0
  5
793A
 10
62.3623
 20
203.230
 30
0.000000
  70
    32
  0
VERTEX
  8
0
  5
793B
 10
62.3516
 20
203.233
 30
0.000000
  70
    32
  0
VERTEX
  8
0
  5
793C
 10
62.3409
 20
203.236
 30
0.000000
  70
    32
  0
VERTEX
  8
0
  5
793D
 10
62.3301
 20
203.240
 30
0.000000
  70
    32
  0
VERTEX
  8
0
  5
793E
 10
62.3194
 20
203.243
 30
0.000000
  70
    32
  0
VERTEX
  8
0
  5
793F
 10
62.3087
 20
203.246
 30
0.000000
  70
    32
  0
VERTEX
  8
0
  5
7940
 10
62.2979
 20
203.249
 30
0.000000
  70
    32
  0
VERTEX
  8
0
  5
7941
 10
62.2872
 20
203.252
 30
0.000000
  70
    32
  0
VERTEX
  8
0
  5
7942
 10
62.2765
 20
203.256
 30
0.000000
  70
    32
  0
VERTEX
  8
0
  5
7943
 10
62.2657
 20
203.259
 30
0.000000
  70
    32
  0
VERTEX
  8
0
  5
7944
 10
62.2550
 20
203.262
 30
0.000000
  70
    32
  0
VERTEX
  8
0
  5
7945
 10
62.2442
 20
203.265
 30
0.000000
  70
    32
  0
VERTEX
  8
0
  5
7946
 10
62.2335
 20
203.268
 30
0.000000
  70
    32
  0
VERTEX
  8
0
  5
7947
 10
62.2227
 20
203.271
 30
0.000000
  70
    32
  0
VERTEX
  8
0
  5
7948
 10
62.2120
 20
203.274
 30
0.000000
  70
    32
  0
VERTEX
  8
0
  5
7949
 10
62.2012
 20
203.277
 30
0.000000
  70
    32
  0
VERTEX
  8
0
  5
794A
 10
62.1905
 20
203.280
 30
0.000000
  70
    32
  0
VERTEX
  8
0
  5
794B
 10
62.1797
 20
203.283
 30
0.000000
  70
    32
  0
VERTEX
  8
0
  5
794C
 10
62.1689
 20
203.286
 30
0.000000
  70
    32
  0
VERTEX
  8
0
  5
794D
 10
62.1582
 20
203.289
 30
0.000000
  70
    32
  0
VERTEX
  8
0
  5
794E
 10
62.1474
 20
203.292
 30
0.000000
  70
    32
  0
VERTEX
  8
0
  5
794F
 10
62.1367
 20
203.294
 30
0.000000
  70
    32
  0
VERTEX
  8
0
  5
7950
 10
62.1259
 20
203.297
 30
0.000000
  70
    32
  0
VERTEX
  8
0
  5
7951
 10
62.1151
 20
203.300
 30
0.000000
  70
    32
  0
VERTEX
  8
0
  5
7952
 10
62.1044
 20
203.303
 30
0.000000
  70
    32
  0
VERTEX
  8
0
  5
7953
 10
62.0936
 20
203.305
 30
0.000000
  70
    32
  0
VERTEX
  8
0
  5
7954
 10
62.0828
 20
203.308
 30
0.000000
  70
    32
  0
VERTEX
  8
0
  5
7955
 10
62.0721
 20
203.311
 30
0.000000
  70
    32
  0
VERTEX
  8
0
  5
7956
 10
62.0613
 20
203.313
 30
0.000000
  70
    32
  0
VERTEX
  8
0
  5
7957
 10
62.0505
 20
203.316
 30
0.000000
  70
    32
  0
VERTEX
  8
0
  5
7958
 10
62.0397
 20
203.319
 30
0.000000
  70
    32
  0
VERTEX
  8
0
  5
7959
 10
62.0290
 20
203.321
 30
0.000000
  70
    32
  0
VERTEX
  8
0
  5
795A
 10
62.0182
 20
203.324
 30
0.000000
  70
    32
  0
VERTEX
  8
0
  5
795B
 10
62.0074
 20
203.326
 30
0.000000
  70
    32
  0
VERTEX
  8
0
  5
795C
 10
61.9966
 20
203.329
 30
0.000000
  70
    32
  0
VERTEX
  8
0
  5
795D
 10
61.9858
 20
203.331
 30
0.000000
  70
    32
  0
VERTEX
  8
0
  5
795E
 10
61.9751
 20
203.333
 30
0.000000
  70
    32
  0
VERTEX
  8
0
  5
795F
 10
61.9643
 20
203.336
 30
0.000000
  70
    32
  0
VERTEX
  8
0
  5
7960
 10
61.9535
 20
203.338
 30
0.000000
  70
    32
  0
VERTEX
  8
0
  5
7961
 10
61.9427
 20
203.340
 30
0.000000
  70
    32
  0
VERTEX
  8
0
  5
7962
 10
61.9319
 20
203.343
 30
0.000000
  70
    32
  0
VERTEX
  8
0
  5
7963
 10
61.9211
 20
203.345
 30
0.000000
  70
    32
  0
VERTEX
  8
0
  5
7964
 10
61.9103
 20
203.347
 30
0.000000
  70
    32
  0
VERTEX
  8
0
  5
7965
 10
61.8995
 20
203.350
 30
0.000000
  70
    32
  0
VERTEX
  8
0
  5
7966
 10
61.8887
 20
203.352
 30
0.000000
  70
    32
  0
VERTEX
  8
0
  5
7967
 10
61.8780
 20
203.354
 30
0.000000
  70
    32
  0
VERTEX
  8
0
  5
7968
 10
61.8672
 20
203.356
 30
0.000000
  70
    32
  0
VERTEX
  8
0
  5
7969
 10
61.8564
 20
203.358
 30
0.000000
  70
    32
  0
VERTEX
  8
0
  5
796A
 10
61.8456
 20
203.360
 30
0.000000
  70
    32
  0
VERTEX
  8
0
  5
796B
 10
61.8348
 20
203.362
 30
0.000000
  70
    32
  0
VERTEX
  8
0
  5
796C
 10
61.8240
 20
203.364
 30
0.000000
  70
    32
  0
VERTEX
  8
0
  5
796D
 10
61.8132
 20
203.366
 30
0.000000
  70
    32
  0
VERTEX
  8
0
  5
796E
 10
61.8024
 20
203.368
 30
0.000000
  70
    32
  0
VERTEX
  8
0
  5
796F
 10
61.7916
 20
203.370
 30
0.000000
  70
    32
  0
VERTEX
  8
0
  5
7970
 10
61.7808
 20
203.372
 30
0.000000
  70
    32
  0
VERTEX
  8
0
  5
7971
 10
61.7699
 20
203.374
 30
0.000000
  70
    32
  0
VERTEX
  8
0
  5
7972
 10
61.7591
 20
203.376
 30
0.000000
  70
    32
  0
VERTEX
  8
0
  5
7973
 10
61.7483
 20
203.378
 30
0.000000
  70
    32
  0
VERTEX
  8
0
  5
7974
 10
61.7375
 20
203.380
 30
0.000000
  70
    32
  0
VERTEX
  8
0
  5
7975
 10
61.7267
 20
203.382
 30
0.000000
  70
    32
  0
VERTEX
  8
0
  5
7976
 10
61.7159
 20
203.383
 30
0.000000
  70
    32
  0
VERTEX
  8
0
  5
7977
 10
61.7051
 20
203.385
 30
0.000000
  70
    32
  0
VERTEX
  8
0
  5
7978
 10
61.6943
 20
203.387
 30
0.000000
  70
    32
  0
VERTEX
  8
0
  5
7979
 10
61.6835
 20
203.388
 30
0.000000
  70
    32
  0
VERTEX
  8
0
  5
797A
 10
61.6727
 20
203.390
 30
0.000000
  70
    32
  0
VERTEX
  8
0
  5
797B
 10
61.6618
 20
203.392
 30
0.000000
  70
    32
  0
VERTEX
  8
0
  5
797C
 10
61.6510
 20
203.393
 30
0.000000
  70
    32
  0
VERTEX
  8
0
  5
797D
 10
61.6402
 20
203.395
 30
0.000000
  70
    32
  0
VERTEX
  8
0
  5
797E
 10
61.6294
 20
203.396
 30
0.000000
  70
    32
  0
VERTEX
  8
0
  5
797F
 10
61.6186
 20
203.398
 30
0.000000
  70
    32
  0
VERTEX
  8
0
  5
7980
 10
61.6077
 20
203.399
 30
0.000000
  70
    32
  0
VERTEX
  8
0
  5
7981
 10
61.5969
 20
203.401
 30
0.000000
  70
    32
  0
VERTEX
  8
0
  5
7982
 10
61.5861
 20
203.402
 30
0.000000
  70
    32
  0
VERTEX
  8
0
  5
7983
 10
61.5753
 20
203.404
 30
0.000000
  70
    32
  0
VERTEX
  8
0
  5
7984
 10
61.5645
 20
203.405
 30
0.000000
  70
    32
  0
VERTEX
  8
0
  5
7985
 10
61.5536
 20
203.407
 30
0.000000
  70
    32
  0
VERTEX
  8
0
  5
7986
 10
61.5428
 20
203.408
 30
0.000000
  70
    32
  0
VERTEX
  8
0
  5
7987
 10
61.5320
 20
203.409
 30
0.000000
  70
    32
  0
VERTEX
  8
0
  5
7988
 10
61.5212
 20
203.410
 30
0.000000
  70
    32
  0
VERTEX
  8
0
  5
7989
 10
61.5103
 20
203.412
 30
0.000000
  70
    32
  0
VERTEX
  8
0
  5
798A
 10
61.4995
 20
203.413
 30
0.000000
  70
    32
  0
VERTEX
  8
0
  5
798B
 10
61.4887
 20
203.414
 30
0.000000
  70
    32
  0
VERTEX
  8
0
  5
798C
 10
61.4779
 20
203.415
 30
0.000000
  70
    32
  0
VERTEX
  8
0
  5
798D
 10
61.4670
 20
203.417
 30
0.000000
  70
    32
  0
VERTEX
  8
0
  5
798E
 10
61.4562
 20
203.418
 30
0.000000
  70
    32
  0
VERTEX
  8
0
  5
798F
 10
61.4454
 20
203.419
 30
0.000000
  70
    32
  0
VERTEX
  8
0
  5
7990
 10
61.4345
 20
203.420
 30
0.000000
  70
    32
  0
VERTEX
  8
0
  5
7991
 10
61.4237
 20
203.421
 30
0.000000
  70
    32
  0
VERTEX
  8
0
  5
7992
 10
61.4129
 20
203.422
 30
0.000000
  70
    32
  0
VERTEX
  8
0
  5
7993
 10
61.4020
 20
203.423
 30
0.000000
  70
    32
  0
VERTEX
  8
0
  5
7994
 10
61.3912
 20
203.424
 30
0.000000
  70
    32
  0
VERTEX
  8
0
  5
7995
 10
61.3804
 20
203.425
 30
0.000000
  70
    32
  0
VERTEX
  8
0
  5
7996
 10
61.3695
 20
203.426
 30
0.000000
  70
    32
  0
VERTEX
  8
0
  5
7997
 10
61.3587
 20
203.427
 30
0.000000
  70
    32
  0
VERTEX
  8
0
  5
7998
 10
61.3479
 20
203.427
 30
0.000000
  70
    32
  0
VERTEX
  8
0
  5
7999
 10
61.3370
 20
203.428
 30
0.000000
  70
    32
  0
VERTEX
  8
0
  5
799A
 10
61.3262
 20
203.429
 30
0.000000
  70
    32
  0
VERTEX
  8
0
  5
799B
 10
61.3154
 20
203.430
 30
0.000000
  70
    32
  0
VERTEX
  8
0
  5
799C
 10
61.3045
 20
203.430
 30
0.000000
  70
    32
  0
VERTEX
  8
0
  5
799D
 10
61.2937
 20
203.431
 30
0.000000
  70
    32
  0
VERTEX
  8
0
  5
799E
 10
61.2829
 20
203.432
 30
0.000000
  70
    32
  0
VERTEX
  8
0
  5
799F
 10
61.2720
 20
203.433
 30
0.000000
  70
    32
  0
VERTEX
  8
0
  5
79A0
 10
61.2612
 20
203.433
 30
0.000000
  70
    32
  0
VERTEX
  8
0
  5
79A1
 10
61.2503
 20
203.434
 30
0.000000
  70
    32
  0
VERTEX
  8
0
  5
79A2
 10
61.2395
 20
203.434
 30
0.000000
  70
    32
  0
VERTEX
  8
0
  5
79A3
 10
61.2287
 20
203.435
 30
0.000000
  70
    32
  0
VERTEX
  8
0
  5
79A4
 10
61.2178
 20
203.435
 30
0.000000
  70
    32
  0
VERTEX
  8
0
  5
79A5
 10
61.2070
 20
203.436
 30
0.000000
  70
    32
  0
VERTEX
  8
0
  5
79A6
 10
61.1961
 20
203.436
 30
0.000000
  70
    32
  0
VERTEX
  8
0
  5
79A7
 10
61.1853
 20
203.437
 30
0.000000
  70
    32
  0
VERTEX
  8
0
  5
79A8
 10
61.1745
 20
203.437
 30
0.000000
  70
    32
  0
VERTEX
  8
0
  5
79A9
 10
61.1636
 20
203.438
 30
0.000000
  70
    32
  0
VERTEX
  8
0
  5
79AA
 10
61.1528
 20
203.438
 30
0.000000
  70
    32
  0
VERTEX
  8
0
  5
79AB
 10
61.1419
 20
203.438
 30
0.000000
  70
    32
  0
VERTEX
  8
0
  5
79AC
 10
61.1311
 20
203.439
 30
0.000000
  70
    32
  0
VERTEX
  8
0
  5
79AD
 10
61.1203
 20
203.439
 30
0.000000
  70
    32
  0
VERTEX
  8
0
  5
79AE
 10
61.1094
 20
203.439
 30
0.000000
  70
    32
  0
VERTEX
  8
0
  5
79AF
 10
61.0986
 20
203.439
 30
0.000000
  70
    32
  0
VERTEX
  8
0
  5
79B0
 10
61.0877
 20
203.440
 30
0.000000
  70
    32
  0
VERTEX
  8
0
  5
79B1
 10
61.0769
 20
203.440
 30
0.000000
  70
    32
  0
VERTEX
  8
0
  5
79B2
 10
61.0661
 20
203.440
 30
0.000000
  70
    32
  0
VERTEX
  8
0
  5
79B3
 10
61.0552
 20
203.440
 30
0.000000
  70
    32
  0
VERTEX
  8
0
  5
79B4
 10
61.0444
 20
203.440
 30
0.000000
  70
    32
  0
VERTEX
  8
0
  5
79B5
 10
61.0335
 20
203.440
 30
0.000000
  70
    32
  0
VERTEX
  8
0
  5
79B6
 10
61.0227
 20
203.440
 30
0.000000
  70
    32
  0
VERTEX
  8
0
  5
79B7
 10
61.0118
 20
203.440
 30
0.000000
  70
    32
  0
SEQEND
  8
0
  5
79B8
  0
ARC
  5
718B
  8
0
 10
62.311452045319022
 20
202.43692520154869
 30
0.0
 40
0.7868229509217385
 50
2.8630597494388859
 51
83.940825262253526
  0
ARC
  5
718C
  8
0
 10
59.991704388787177
 20
202.4409246946112
 30
0.0
 40
0.6066165134583621
 50
3.336165417950153
 51
76.941386973686988
  0
POLYLINE
  5
718D
  8
0
 10
60.128767999384252
 20
203.03185376061705
 30
0.0
 66
     1
 70
     8
  0
VERTEX
  8
0
  5
79B9
 10
60.1288
 20
203.032
 30
0.000000
  70
    32
  0
VERTEX
  8
0
  5
79BA
 10
60.1143
 20
203.038
 30
0.000000
  70
    32
  0
VERTEX
  8
0
  5
79BB
 10
60.0999
 20
203.044
 30
0.000000
  70
    32
  0
VERTEX
  8
0
  5
79BC
 10
60.0854
 20
203.051
 30
0.000000
  70
    32
  0
VERTEX
  8
0
  5
79BD
 10
60.0709
 20
203.057
 30
0.000000
  70
    32
  0
VERTEX
  8
0
  5
79BE
 10
60.0565
 20
203.063
 30
0.000000
  70
    32
  0
VERTEX
  8
0
  5
79BF
 10
60.0420
 20
203.069
 30
0.000000
  70
    32
  0
VERTEX
  8
0
  5
79C0
 10
60.0275
 20
203.075
 30
0.000000
  70
    32
  0
VERTEX
  8
0
  5
79C1
 10
60.0130
 20
203.081
 30
0.000000
  70
    32
  0
VERTEX
  8
0
  5
79C2
 10
59.9985
 20
203.087
 30
0.000000
  70
    32
  0
VERTEX
  8
0
  5
79C3
 10
59.9840
 20
203.093
 30
0.000000
  70
    32
  0
VERTEX
  8
0
  5
79C4
 10
59.9695
 20
203.099
 30
0.000000
  70
    32
  0
VERTEX
  8
0
  5
79C5
 10
59.9550
 20
203.105
 30
0.000000
  70
    32
  0
VERTEX
  8
0
  5
79C6
 10
59.9405
 20
203.110
 30
0.000000
  70
    32
  0
VERTEX
  8
0
  5
79C7
 10
59.9260
 20
203.116
 30
0.000000
  70
    32
  0
VERTEX
  8
0
  5
79C8
 10
59.9115
 20
203.122
 30
0.000000
  70
    32
  0
VERTEX
  8
0
  5
79C9
 10
59.8970
 20
203.127
 30
0.000000
  70
    32
  0
VERTEX
  8
0
  5
79CA
 10
59.8825
 20
203.133
 30
0.000000
  70
    32
  0
VERTEX
  8
0
  5
79CB
 10
59.8679
 20
203.138
 30
0.000000
  70
    32
  0
VERTEX
  8
0
  5
79CC
 10
59.8534
 20
203.144
 30
0.000000
  70
    32
  0
VERTEX
  8
0
  5
79CD
 10
59.8389
 20
203.149
 30
0.000000
  70
    32
  0
VERTEX
  8
0
  5
79CE
 10
59.8243
 20
203.155
 30
0.000000
  70
    32
  0
VERTEX
  8
0
  5
79CF
 10
59.8098
 20
203.160
 30
0.000000
  70
    32
  0
VERTEX
  8
0
  5
79D0
 10
59.7952
 20
203.165
 30
0.000000
  70
    32
  0
VERTEX
  8
0
  5
79D1
 10
59.7807
 20
203.170
 30
0.000000
  70
    32
  0
VERTEX
  8
0
  5
79D2
 10
59.7661
 20
203.176
 30
0.000000
  70
    32
  0
VERTEX
  8
0
  5
79D3
 10
59.7516
 20
203.181
 30
0.000000
  70
    32
  0
VERTEX
  8
0
  5
79D4
 10
59.7370
 20
203.186
 30
0.000000
  70
    32
  0
VERTEX
  8
0
  5
79D5
 10
59.7224
 20
203.191
 30
0.000000
  70
    32
  0
VERTEX
  8
0
  5
79D6
 10
59.7079
 20
203.196
 30
0.000000
  70
    32
  0
VERTEX
  8
0
  5
79D7
 10
59.6933
 20
203.201
 30
0.000000
  70
    32
  0
VERTEX
  8
0
  5
79D8
 10
59.6787
 20
203.205
 30
0.000000
  70
    32
  0
VERTEX
  8
0
  5
79D9
 10
59.6641
 20
203.210
 30
0.000000
  70
    32
  0
VERTEX
  8
0
  5
79DA
 10
59.6496
 20
203.215
 30
0.000000
  70
    32
  0
VERTEX
  8
0
  5
79DB
 10
59.6350
 20
203.220
 30
0.000000
  70
    32
  0
VERTEX
  8
0
  5
79DC
 10
59.6204
 20
203.224
 30
0.000000
  70
    32
  0
VERTEX
  8
0
  5
79DD
 10
59.6058
 20
203.229
 30
0.000000
  70
    32
  0
VERTEX
  8
0
  5
79DE
 10
59.5912
 20
203.234
 30
0.000000
  70
    32
  0
VERTEX
  8
0
  5
79DF
 10
59.5766
 20
203.238
 30
0.000000
  70
    32
  0
VERTEX
  8
0
  5
79E0
 10
59.5620
 20
203.243
 30
0.000000
  70
    32
  0
VERTEX
  8
0
  5
79E1
 10
59.5474
 20
203.247
 30
0.000000
  70
    32
  0
VERTEX
  8
0
  5
79E2
 10
59.5328
 20
203.251
 30
0.000000
  70
    32
  0
VERTEX
  8
0
  5
79E3
 10
59.5181
 20
203.256
 30
0.000000
  70
    32
  0
VERTEX
  8
0
  5
79E4
 10
59.5035
 20
203.260
 30
0.000000
  70
    32
  0
VERTEX
  8
0
  5
79E5
 10
59.4889
 20
203.264
 30
0.000000
  70
    32
  0
VERTEX
  8
0
  5
79E6
 10
59.4743
 20
203.268
 30
0.000000
  70
    32
  0
VERTEX
  8
0
  5
79E7
 10
59.4597
 20
203.272
 30
0.000000
  70
    32
  0
VERTEX
  8
0
  5
79E8
 10
59.4450
 20
203.276
 30
0.000000
  70
    32
  0
VERTEX
  8
0
  5
79E9
 10
59.4304
 20
203.280
 30
0.000000
  70
    32
  0
VERTEX
  8
0
  5
79EA
 10
59.4158
 20
203.284
 30
0.000000
  70
    32
  0
VERTEX
  8
0
  5
79EB
 10
59.4011
 20
203.288
 30
0.000000
  70
    32
  0
VERTEX
  8
0
  5
79EC
 10
59.3865
 20
203.292
 30
0.000000
  70
    32
  0
VERTEX
  8
0
  5
79ED
 10
59.3718
 20
203.296
 30
0.000000
  70
    32
  0
VERTEX
  8
0
  5
79EE
 10
59.3572
 20
203.300
 30
0.000000
  70
    32
  0
VERTEX
  8
0
  5
79EF
 10
59.3425
 20
203.303
 30
0.000000
  70
    32
  0
VERTEX
  8
0
  5
79F0
 10
59.3279
 20
203.307
 30
0.000000
  70
    32
  0
VERTEX
  8
0
  5
79F1
 10
59.3132
 20
203.311
 30
0.000000
  70
    32
  0
VERTEX
  8
0
  5
79F2
 10
59.2986
 20
203.314
 30
0.000000
  70
    32
  0
VERTEX
  8
0
  5
79F3
 10
59.2839
 20
203.318
 30
0.000000
  70
    32
  0
VERTEX
  8
0
  5
79F4
 10
59.2692
 20
203.321
 30
0.000000
  70
    32
  0
VERTEX
  8
0
  5
79F5
 10
59.2546
 20
203.325
 30
0.000000
  70
    32
  0
VERTEX
  8
0
  5
79F6
 10
59.2399
 20
203.328
 30
0.000000
  70
    32
  0
VERTEX
  8
0
  5
79F7
 10
59.2252
 20
203.331
 30
0.000000
  70
    32
  0
VERTEX
  8
0
  5
79F8
 10
59.2106
 20
203.335
 30
0.000000
  70
    32
  0
VERTEX
  8
0
  5
79F9
 10
59.1959
 20
203.338
 30
0.000000
  70
    32
  0
VERTEX
  8
0
  5
79FA
 10
59.1812
 20
203.341
 30
0.000000
  70
    32
  0
VERTEX
  8
0
  5
79FB
 10
59.1665
 20
203.344
 30
0.000000
  70
    32
  0
VERTEX
  8
0
  5
79FC
 10
59.1518
 20
203.347
 30
0.000000
  70
    32
  0
VERTEX
  8
0
  5
79FD
 10
59.1372
 20
203.350
 30
0.000000
  70
    32
  0
VERTEX
  8
0
  5
79FE
 10
59.1225
 20
203.353
 30
0.000000
  70
    32
  0
VERTEX
  8
0
  5
79FF
 10
59.1078
 20
203.356
 30
0.000000
  70
    32
  0
VERTEX
  8
0
  5
7A00
 10
59.0931
 20
203.359
 30
0.000000
  70
    32
  0
VERTEX
  8
0
  5
7A01
 10
59.0784
 20
203.362
 30
0.000000
  70
    32
  0
VERTEX
  8
0
  5
7A02
 10
59.0637
 20
203.365
 30
0.000000
  70
    32
  0
VERTEX
  8
0
  5
7A03
 10
59.0490
 20
203.367
 30
0.000000
  70
    32
  0
VERTEX
  8
0
  5
7A04
 10
59.0343
 20
203.370
 30
0.000000
  70
    32
  0
VERTEX
  8
0
  5
7A05
 10
59.0196
 20
203.373
 30
0.000000
  70
    32
  0
VERTEX
  8
0
  5
7A06
 10
59.0049
 20
203.375
 30
0.000000
  70
    32
  0
VERTEX
  8
0
  5
7A07
 10
58.9902
 20
203.378
 30
0.000000
  70
    32
  0
VERTEX
  8
0
  5
7A08
 10
58.9755
 20
203.380
 30
0.000000
  70
    32
  0
VERTEX
  8
0
  5
7A09
 10
58.9608
 20
203.383
 30
0.000000
  70
    32
  0
VERTEX
  8
0
  5
7A0A
 10
58.9461
 20
203.385
 30
0.000000
  70
    32
  0
VERTEX
  8
0
  5
7A0B
 10
58.9314
 20
203.387
 30
0.000000
  70
    32
  0
VERTEX
  8
0
  5
7A0C
 10
58.9166
 20
203.390
 30
0.000000
  70
    32
  0
VERTEX
  8
0
  5
7A0D
 10
58.9019
 20
203.392
 30
0.000000
  70
    32
  0
VERTEX
  8
0
  5
7A0E
 10
58.8872
 20
203.394
 30
0.000000
  70
    32
  0
VERTEX
  8
0
  5
7A0F
 10
58.8725
 20
203.396
 30
0.000000
  70
    32
  0
VERTEX
  8
0
  5
7A10
 10
58.8578
 20
203.398
 30
0.000000
  70
    32
  0
VERTEX
  8
0
  5
7A11
 10
58.8431
 20
203.400
 30
0.000000
  70
    32
  0
VERTEX
  8
0
  5
7A12
 10
58.8283
 20
203.402
 30
0.000000
  70
    32
  0
VERTEX
  8
0
  5
7A13
 10
58.8136
 20
203.404
 30
0.000000
  70
    32
  0
VERTEX
  8
0
  5
7A14
 10
58.7989
 20
203.406
 30
0.000000
  70
    32
  0
VERTEX
  8
0
  5
7A15
 10
58.7842
 20
203.408
 30
0.000000
  70
    32
  0
VERTEX
  8
0
  5
7A16
 10
58.7694
 20
203.410
 30
0.000000
  70
    32
  0
VERTEX
  8
0
  5
7A17
 10
58.7547
 20
203.411
 30
0.000000
  70
    32
  0
VERTEX
  8
0
  5
7A18
 10
58.7400
 20
203.413
 30
0.000000
  70
    32
  0
VERTEX
  8
0
  5
7A19
 10
58.7252
 20
203.415
 30
0.000000
  70
    32
  0
VERTEX
  8
0
  5
7A1A
 10
58.7105
 20
203.416
 30
0.000000
  70
    32
  0
VERTEX
  8
0
  5
7A1B
 10
58.6958
 20
203.418
 30
0.000000
  70
    32
  0
VERTEX
  8
0
  5
7A1C
 10
58.6810
 20
203.419
 30
0.000000
  70
    32
  0
VERTEX
  8
0
  5
7A1D
 10
58.6663
 20
203.421
 30
0.000000
  70
    32
  0
VERTEX
  8
0
  5
7A1E
 10
58.6515
 20
203.422
 30
0.000000
  70
    32
  0
VERTEX
  8
0
  5
7A1F
 10
58.6368
 20
203.423
 30
0.000000
  70
    32
  0
VERTEX
  8
0
  5
7A20
 10
58.6221
 20
203.425
 30
0.000000
  70
    32
  0
VERTEX
  8
0
  5
7A21
 10
58.6073
 20
203.426
 30
0.000000
  70
    32
  0
VERTEX
  8
0
  5
7A22
 10
58.5926
 20
203.427
 30
0.000000
  70
    32
  0
VERTEX
  8
0
  5
7A23
 10
58.5778
 20
203.428
 30
0.000000
  70
    32
  0
VERTEX
  8
0
  5
7A24
 10
58.5631
 20
203.429
 30
0.000000
  70
    32
  0
VERTEX
  8
0
  5
7A25
 10
58.5484
 20
203.430
 30
0.000000
  70
    32
  0
VERTEX
  8
0
  5
7A26
 10
58.5336
 20
203.431
 30
0.000000
  70
    32
  0
VERTEX
  8
0
  5
7A27
 10
58.5189
 20
203.432
 30
0.000000
  70
    32
  0
VERTEX
  8
0
  5
7A28
 10
58.5041
 20
203.433
 30
0.000000
  70
    32
  0
VERTEX
  8
0
  5
7A29
 10
58.4894
 20
203.434
 30
0.000000
  70
    32
  0
VERTEX
  8
0
  5
7A2A
 10
58.4746
 20
203.435
 30
0.000000
  70
    32
  0
VERTEX
  8
0
  5
7A2B
 10
58.4599
 20
203.435
 30
0.000000
  70
    32
  0
VERTEX
  8
0
  5
7A2C
 10
58.4451
 20
203.436
 30
0.000000
  70
    32
  0
VERTEX
  8
0
  5
7A2D
 10
58.4304
 20
203.437
 30
0.000000
  70
    32
  0
VERTEX
  8
0
  5
7A2E
 10
58.4156
 20
203.437
 30
0.000000
  70
    32
  0
VERTEX
  8
0
  5
7A2F
 10
58.4009
 20
203.438
 30
0.000000
  70
    32
  0
VERTEX
  8
0
  5
7A30
 10
58.3861
 20
203.438
 30
0.000000
  70
    32
  0
VERTEX
  8
0
  5
7A31
 10
58.3714
 20
203.439
 30
0.000000
  70
    32
  0
VERTEX
  8
0
  5
7A32
 10
58.3566
 20
203.439
 30
0.000000
  70
    32
  0
VERTEX
  8
0
  5
7A33
 10
58.3419
 20
203.439
 30
0.000000
  70
    32
  0
VERTEX
  8
0
  5
7A34
 10
58.3271
 20
203.440
 30
0.000000
  70
    32
  0
VERTEX
  8
0
  5
7A35
 10
58.3124
 20
203.440
 30
0.000000
  70
    32
  0
VERTEX
  8
0
  5
7A36
 10
58.2976
 20
203.440
 30
0.000000
  70
    32
  0
VERTEX
  8
0
  5
7A37
 10
58.2829
 20
203.440
 30
0.000000
  70
    32
  0
VERTEX
  8
0
  5
7A38
 10
58.2681
 20
203.440
 30
0.000000
  70
    32
  0
VERTEX
  8
0
  5
7A39
 10
58.2534
 20
203.440
 30
0.000000
  70
    32
  0
SEQEND
  8
0
  5
7A3A
  0
LINE
  5
718E
  8
0
 10
63.097292858927062
 20
177.94033784766111
 30
0.0
 11
63.097292858927183
 21
202.476226241798
 31
0.0
  0
LINE
  5
718F
  8
0
 10
60.597292858927183
 20
202.476226241798
 30
0.0
 11
60.597292858927283
 21
202.11194637760511
 31
0.0
  0
LINE
  5
7192
  8
0
 10
52.847292858927169
 20
203.44033784766111
 30
0.0
 11
52.847292858927169
 21
196.44033784770571
 31
0.0
  0
LINE
  5
7194
  8
0
 10
52.747292858927153
 20
196.44033784770571
 30
0.0
 11
52.747292858927153
 21
203.44033784766111
 31
0.0
  0
LINE
  5
7196
  8
0
 10
63.763811047310128
 20
160.44033784765941
 30
0.0
 11
63.763811047310128
 21
168.4403378476627
 31
0.0
  0
LINE
  5
7197
  8
0
 10
41.730635456665929
 20
166.44033784766111
 30
0.0
 11
41.730635456665929
 21
162.44033784766111
 31
0.0
  0
LINE
  5
7199
  8
0
 10
41.830774670544088
 20
168.44033784766111
 30
0.0
 11
41.830774670543967
 21
160.44033784766111
 31
0.0
  0
ARC
  5
719B
  8
0
 10
-3.1834692546058241
 20
289.82033784766111
 30
0.0
 40
75.980762113533103
 50
344.73851957514159
 51
0.0
  0
ARC
  5
719D
  8
0
 10
108.7780549724571
 20
289.82033784766071
 30
0.0
 40
75.980762113529877
 50
180.0
 51
195.26148042486
  0
ARC
  5
719F
  8
0
 10
-3.1834692546038919
 20
289.82033784766128
 30
0.0
 40
75.980762113531171
 50
0.0
 51
15.261480424860039
  0
ARC
  5
71A0
  8
0
 10
108.7780549724602
 20
289.82033784766111
 30
0.0
 40
75.980762113533061
 50
164.73851957514
 51
180.0
  0
ARC
  5
71A1
  8
0
 10
32.301765429563488
 20
279.57772050557651
 30
0.0
 40
39.054565132035123
 50
321.33792706984048
 51
345.53197057600448
  0
ARC
  5
71A3
  8
0
 10
73.292820288291523
 20
279.577720505576
 30
0.0
 40
39.054565132035783
 50
194.46802942399711
 51
218.6620729301595
  0
ARC
  5
71A5
  8
0
 10
32.30691180216013
 20
300.06552837604403
 30
0.0
 40
39.048939099729999
 50
14.466260154259469
 51
38.663842199896187
  0
ARC
  5
71A6
  8
0
 10
73.287673915693844
 20
300.06552837604409
 30
0.0
 40
39.048939099729438
 50
141.33615780010379
 51
165.5337398457421
  0
ARC
  5
71A7
  8
0
 10
52.423089919943202
 20
317.11244671411322
 30
0.0
 40
12.71339942350833
 50
35.313102019808362
 51
88.313327116155705
  0
ARC
  5
71A8
  8
0
 10
53.171495797911341
 20
317.11244671411202
 30
0.0
 40
12.713399423508699
 50
91.686672883837787
 51
144.68689798018389
  0
ARC
  5
71A9
  8
0
 10
52.02160890018763
 20
263.27740276321111
 30
0.0
 40
13.47940212862431
 50
279.96145181060348
 51
323.0746127545379
  0
ARC
  5
71AA
  8
0
 10
52.797292858927221
 20
242.22554842218781
 30
0.0
 40
7.9298328610590181
 50
78.683510384029731
 51
101.3164896159703
  0
ARC
  5
71AB
  8
0
 10
53.572976817666593
 20
263.27740276321089
 30
0.0
 40
13.479402128624081
 50
216.92538724546219
 51
260.03854818939681
  0
LINE
  5
71BA
  8
0
 10
63.763811047310128
 20
220.44033784766111
 30
0.0
 11
63.763811047310128
 21
228.44033784766279
 31
0.0
  0
LINE
  5
71BB
  8
0
 10
41.730635456665929
 20
226.44033784766111
 30
0.0
 11
41.730635456665929
 21
222.44033784766111
 31
0.0
  0
LINE
  5
71BC
  8
0
 10
41.830774670543967
 20
228.44033784766111
 30
0.0
 11
41.830774670544088
 21
220.44033784766111
 31
0.0
  0
LINE
  5
71BE
  8
0
 10
57.397292858927131
 20
244.44033784766111
 30
0.0
 11
48.197292858927192
 21
244.44033784766111
 31
0.0
  0
LINE
  5
71BF
  8
0
 10
48.197292858927192
 20
249.44033784766111
 30
0.0
 11
57.397292858927131
 21
249.44033784766111
 31
0.0
  0
ARC
  5
71C2
  8
0
 10
46.69729285892663
 20
235.95033784766119
 30
0.0
 40
0.9999999999994365
 50
165.33146831692699
 51
180.00000000000321
  0
LINE
  5
71C3
  8
0
 10
45.697292858927192
 20
157.94033784766111
 30
0.0
 11
45.697292858927192
 21
177.94033784766111
 31
0.0
  0
LINE
  5
71C4
  8
0
 10
45.697292858927192
 20
203.44033784766111
 30
0.0
 11
45.697292858927192
 21
235.9503378476611
 31
0.0
  0
LINE
  5
71C6
  8
0
 10
43.197292858927192
 20
235.9503378476611
 30
0.0
 11
43.197292858927192
 21
203.21831407966511
 31
0.0
  0
LINE
  5
71C7
  8
0
 10
43.197292858927192
 20
177.94033784766111
 30
0.0
 11
43.197292858927192
 21
157.94033784766111
 31
0.0
  0
ARC
  5
71C8
  8
0
 10
46.697292858926737
 20
235.95033784766119
 30
0.0
 40
3.499999999999531
 50
165.33146831692849
 51
180.00000000000159
  0
LINE
  5
71C9
  8
0
 10
45.664699836203447
 20
245.82711118967021
 30
0.0
 11
43.311368438460242
 21
236.8366311506291
 31
0.0
  0
ARC
  5
71CA
  8
0
 10
44.697292858927533
 20
246.0803378476611
 30
0.0
 40
0.9999999999996859
 50
345.33146831692068
 51
0.0
  0
ARC
  5
71CB
  8
0
 10
44.697292858927533
 20
246.0803378476611
 30
0.0
 40
3.4999999999996398
 50
345.33146831692858
 51
0.0
  0
LINE
  5
71CC
  8
0
 10
45.729885881650937
 20
236.203564505652
 30
0.0
 11
48.083217279394042
 21
245.1940445446931
 31
0.0
  0
LINE
  5
71CD
  8
0
 10
48.197292858927312
 20
244.44033784766111
 30
0.0
 11
48.197292858927192
 21
250.93418936683031
 31
0.0
  0
LINE
  5
71CE
  8
0
 10
45.697292858927192
 20
252.3782201981077
 30
0.0
 11
45.697292858927192
 21
246.0803378476611
 31
0.0
  0
ARC
  5
71CF
  8
0
 10
60.897292858926789
 20
246.0803378476611
 30
0.0
 40
0.9999999999996996
 50
180.0
 51
194.66853168307929
  0
LINE
  5
71D0
  8
0
 10
62.28321727939408
 20
236.83663115062919
 30
0.0
 11
59.929885881650868
 21
245.82711118967021
 31
0.0
  0
ARC
  5
71D1
  8
0
 10
58.897292858927358
 20
235.95033784766119
 30
0.0
 40
3.499999999999829
 50
0.0
 51
14.668531683071411
  0
LINE
  5
71D2
  8
0
 10
62.397292858927131
 20
157.94033784766111
 30
0.0
 11
62.397292858927131
 21
177.94033784766111
 31
0.0
  0
LINE
  5
71D3
  8
0
 10
62.397292858927131
 20
203.2180120885057
 30
0.0
 11
62.397292858927131
 21
235.9503378476611
 31
0.0
  0
LINE
  5
71D5
  8
0
 10
59.897292858927131
 20
235.9503378476611
 30
0.0
 11
59.897292858927131
 21
203.44033784766111
 31
0.0
  0
LINE
  5
71D6
  8
0
 10
59.897292858927131
 20
177.94033784766111
 30
0.0
 11
59.897292858927131
 21
157.94033784766111
 31
0.0
  0
ARC
  5
71D7
  8
0
 10
58.897292858927692
 20
235.95033784766119
 30
0.0
 40
0.9999999999994315
 50
359.99999999999682
 51
14.668531683071411
  0
LINE
  5
71D8
  8
0
 10
57.511368438460302
 20
245.19404454469301
 30
0.0
 11
59.864699836203499
 21
236.20356450565191
 31
0.0
  0
ARC
  5
71D9
  8
0
 10
60.897292858927237
 20
246.0803378476611
 30
0.0
 40
3.5000000000000751
 50
180.0
 51
194.66853168307301
  0
LINE
  5
71DA
  8
0
 10
57.397292858927131
 20
250.9341893668302
 30
0.0
 11
57.397292858927131
 21
244.44033784766111
 31
0.0
  0
LINE
  5
71DB
  8
0
 10
59.897292858927131
 20
246.0803378476611
 30
0.0
 11
59.897292858927131
 21
252.3782201981077
 31
0.0
  0
LINE
  5
71E9
  8
0
 10
30.297292858927221
 20
145.44033784766111
 30
0.0
 11
50.197292858927199
 21
145.44033784766111
 31
0.0
  0
LINE
  5
71EA
  8
0
 10
46.297292858927328
 20
147.94033784766111
 30
0.0
 11
30.297292858927339
 21
147.94033784766111
 31
0.0
  0
LINE
  5
71EB
  8
0
 10
50.197292858927199
 20
145.44033784766111
 30
0.0
 11
50.197292858927199
 21
146.1403378476611
 31
0.0
  0
LINE
  5
71ED
  8
0
 10
59.297292858927328
 20
147.94033784766111
 30
0.0
 11
75.297292858927094
 21
147.94033784766111
 31
0.0
  0
LINE
  5
71EF
  8
0
 10
55.397292858927131
 20
145.44033784766111
 30
0.0
 11
75.297292858927094
 21
145.44033784766111
 31
0.0
  0
LINE
  5
71F1
  8
0
 10
55.397292858927131
 20
146.1403378476611
 30
0.0
 11
55.397292858927131
 21
145.44033784766111
 31
0.0
  0
LINE
  5
71F2
  8
0
 10
30.297292858927221
 20
147.94033784766111
 30
0.0
 11
30.297292858927221
 21
145.44033784766111
 31
0.0
  0
LINE
  5
71F5
  8
0
 10
75.297292858927094
 20
147.94033784766111
 30
0.0
 11
75.297292858927094
 21
145.44033784766111
 31
0.0
  0
LINE
  5
71F8
  8
0
 10
47.697292858927199
 20
173.94033784766111
 30
0.0
 11
47.697292858927199
 21
151.44033784766111
 31
0.0
  0
LINE
  5
71F9
  8
0
 10
57.897292858927131
 20
173.94033784766111
 30
0.0
 11
57.897292858927131
 21
151.44033784766111
 31
0.0
  0
LINE
  5
7208
  8
0
 10
404.31952979267322
 20
158.44033784763789
 30
0.0
 11
404.41952979272492
 21
158.54033784771809
 31
0.0
  0
LINE
  5
7209
  8
0
 10
404.41952979272492
 20
170.34033784760399
 30
0.0
 11
404.31952979267322
 21
170.4403378476843
 31
0.0
  0
LINE
  5
720A
  8
0
 10
402.6195297927249
 20
158.44033784766111
 30
0.0
 11
404.31952979267322
 21
158.44033784766111
 31
0.0
  0
LINE
  5
720B
  8
0
 10
404.31952979267322
 20
170.44033784766111
 30
0.0
 11
402.6195297927249
 21
170.44033784766111
 31
0.0
  0
LINE
  5
720C
  8
0
 10
402.6195297927249
 20
170.44033784765051
 30
0.0
 11
402.4195297927576
 21
170.24033784762631
 31
0.0
  0
LINE
  5
720D
  8
0
 10
402.4195297927576
 20
158.64033784769589
 30
0.0
 11
402.6195297927249
 21
158.44033784767171
 31
0.0
  0
LINE
  5
720E
  8
0
 10
391.96952979272493
 20
170.44033784766111
 30
0.0
 11
390.46952979273919
 21
170.44033784766111
 31
0.0
  0
LINE
  5
720F
  8
0
 10
390.46952979273919
 20
158.44033784766111
 30
0.0
 11
391.96952979272493
 21
158.44033784766111
 31
0.0
  0
LINE
  5
7210
  8
0
 10
390.46952979273919
 20
170.4403378476843
 30
0.0
 11
390.21952979274511
 21
170.19033784769019
 31
0.0
  0
LINE
  5
7211
  8
0
 10
390.21952979274511
 20
158.69033784763201
 30
0.0
 11
390.46952979273919
 21
158.44033784763789
 31
0.0
  0
LINE
  5
7212
  8
0
 10
391.96952979272493
 20
158.44033784765921
 30
0.0
 11
392.21952979269781
 21
158.69033784757511
 31
0.0
  0
LINE
  5
7213
  8
0
 10
392.21952979269781
 20
170.190337847747
 30
0.0
 11
391.96952979272493
 21
170.44033784766299
 31
0.0
  0
LINE
  5
7214
  8
0
 10
392.21952979272493
 20
194.44033784766111
 30
0.0
 11
390.85301160434187
 21
194.44033784766111
 31
0.0
  0
LINE
  5
7215
  8
0
 10
390.85301160434187
 20
186.44033784766111
 30
0.0
 11
392.21952979272493
 21
186.44033784766111
 31
0.0
  0
LINE
  5
7218
  8
0
 10
403.78604798110791
 20
194.44033784766111
 30
0.0
 11
402.4195297927248
 21
194.44033784766111
 31
0.0
  0
LINE
  5
7219
  8
0
 10
402.4195297927248
 20
186.44033784766111
 30
0.0
 11
403.78604798110791
 21
186.44033784766111
 31
0.0
  0
ARC
  5
721A
  8
0
 10
450.7195297927114
 20
190.44033784766111
 30
0.0
 40
59.999999999986557
 50
176.17744627072429
 51
179.99999999999841
  0
ARC
  5
721B
  8
0
 10
450.7195297927114
 20
190.44033784766111
 30
0.0
 40
59.999999999986557
 50
180.0
 51
183.8225537292756
  0
LINE
  5
721C
  8
0
 10
399.91952979272492
 20
193.44033784766111
 30
0.0
 11
399.8695297927099
 21
193.44033784766111
 31
0.0
  0
LINE
  5
721D
  8
0
 10
394.76952979272482
 20
193.44033784766111
 30
0.0
 11
394.71952979272493
 21
193.44033784766111
 31
0.0
  0
LINE
  5
721E
  8
0
 10
394.71952979272493
 20
187.44033784766111
 30
0.0
 11
394.76952979272482
 21
187.44033784766111
 31
0.0
  0
LINE
  5
721F
  8
0
 10
399.8695297927099
 20
187.44033784766111
 30
0.0
 11
399.91952979272492
 21
187.44033784766111
 31
0.0
  0
LINE
  5
7220
  8
0
 10
391.51952979272528
 20
151.44033784766111
 30
0.0
 11
391.51952979272528
 21
150.94033784766111
 31
0.0
  0
LINE
  5
7221
  8
0
 10
403.11952979272519
 20
150.94033784766111
 30
0.0
 11
403.11952979272519
 21
151.44033784766111
 31
0.0
  0
LINE
  5
7222
  8
0
 10
402.51952979272482
 20
218.44033784766111
 30
0.0
 11
404.2195297928119
 21
218.44033784766111
 31
0.0
  0
LINE
  5
7223
  8
0
 10
404.2195297928119
 20
230.44033784766111
 30
0.0
 11
402.51952979272482
 21
230.44033784766111
 31
0.0
  0
LINE
  5
7224
  8
0
 10
404.2195297928119
 20
218.44033784769701
 30
0.0
 11
404.41952979276169
 21
218.6403378476468
 31
0.0
  0
LINE
  5
7225
  8
0
 10
404.41952979276169
 20
230.24033784767539
 30
0.0
 11
404.2195297928119
 21
230.44033784762519
 31
0.0
  0
LINE
  5
7226
  8
0
 10
402.51952979272482
 20
230.4403378476799
 30
0.0
 11
402.3195297927773
 21
230.24033784773221
 31
0.0
  0
LINE
  5
7227
  8
0
 10
402.3195297927773
 20
218.64033784758999
 30
0.0
 11
402.51952979272482
 21
218.4403378476423
 31
0.0
  0
LINE
  5
7228
  8
0
 10
392.06952979272501
 20
230.44033784766111
 30
0.0
 11
390.56952979277088
 21
230.44033784766111
 31
0.0
  0
LINE
  5
7229
  8
0
 10
390.56952979277088
 20
218.44033784766111
 30
0.0
 11
392.06952979272501
 21
218.44033784766111
 31
0.0
  0
LINE
  5
722A
  8
0
 10
390.56952979277088
 20
230.440337847682
 30
0.0
 11
390.31952979277679
 21
230.19033784768791
 31
0.0
  0
LINE
  5
722B
  8
0
 10
390.31952979277679
 20
218.69033784763431
 30
0.0
 11
390.56952979277088
 21
218.44033784764019
 31
0.0
  0
LINE
  5
722C
  8
0
 10
392.06952979272501
 20
218.44033784768661
 30
0.0
 11
392.31952979267271
 21
218.69033784763431
 31
0.0
  0
LINE
  5
722D
  8
0
 10
392.31952979267271
 20
230.19033784768791
 30
0.0
 11
392.06952979272501
 21
230.4403378476357
 31
0.0
  0
LINE
  5
722E
  8
0
 10
399.86952979272468
 20
183.44033784766111
 30
0.0
 11
399.91952979272492
 21
183.44033784766111
 31
0.0
  0
LINE
  5
722F
  8
0
 10
402.31952979272501
 20
231.94033784766111
 30
0.0
 11
399.81952979272501
 21
231.94033784766111
 31
0.0
  0
LINE
  5
7230
  8
0
 10
394.81952979272501
 20
231.94033784766111
 30
0.0
 11
392.31952979272501
 21
231.94033784766111
 31
0.0
  0
LINE
  5
7231
  8
0
 10
394.71952979272493
 20
183.44033784766111
 30
0.0
 11
394.76952979272482
 21
183.44033784766111
 31
0.0
  0
LINE
  5
7232
  8
0
 10
392.2195297927251
 20
194.94033784766111
 30
0.0
 11
390.85301160434187
 21
194.94033784766111
 31
0.0
  0
LINE
  5
7233
  8
0
 10
403.78604798110791
 20
194.94033784766111
 30
0.0
 11
402.4195297927248
 21
194.94033784766111
 31
0.0
  0
ARC
  5
7234
  8
0
 10
448.833416846945
 20
191.03479233318291
 30
0.0
 40
58.111794653599773
 50
176.14639203812411
 51
180.08463245278429
  0
LINE
  5
7236
  8
0
 10
397.36952979272479
 20
195.44033784766111
 30
0.0
 11
397.26952979272482
 21
195.44033784766111
 31
0.0
  0
LINE
  5
7237
  8
0
 10
397.36952979272479
 20
194.94033784766111
 30
0.0
 11
397.26952979272482
 21
194.94033784766111
 31
0.0
  0
LINE
  5
7238
  8
0
 10
397.26952979272482
 20
185.94033784766111
 30
0.0
 11
397.36952979272479
 21
185.94033784766111
 31
0.0
  0
LINE
  5
7239
  8
0
 10
387.71952979272493
 20
168.44033784766111
 30
0.0
 11
386.35301160434187
 21
168.44033784766111
 31
0.0
  0
LINE
  5
723A
  8
0
 10
386.35301160434187
 20
160.44033784766111
 30
0.0
 11
387.71952979272493
 21
160.44033784766111
 31
0.0
  0
ARC
  5
723B
  8
0
 10
446.21952979271782
 20
164.44033784766111
 30
0.0
 40
59.999999999993292
 50
176.17744627072111
 51
179.99999999999841
  0
ARC
  5
723C
  8
0
 10
446.21952979271782
 20
164.44033784766111
 30
0.0
 40
59.999999999993292
 50
180.0
 51
183.82255372927889
  0
ARC
  5
723D
  8
0
 10
348.41952979267973
 20
164.44033784766111
 30
0.0
 40
60.00000000004669
 50
1.9102131717081761
 51
3.8225537292821392
  0
ARC
  5
723E
  8
0
 10
348.41952979267973
 20
164.44033784766111
 30
0.0
 40
60.000000000046683
 50
356.17744627071949
 51
358.08978682829348
  0
LINE
  5
723F
  8
0
 10
408.28604798110808
 20
168.44033784766111
 30
0.0
 11
406.91952979272492
 21
168.44033784766111
 31
0.0
  0
LINE
  5
7240
  8
0
 10
406.91952979272492
 20
160.44033784766111
 30
0.0
 11
408.28604798110808
 21
160.44033784766111
 31
0.0
  0
LINE
  5
7241
  8
0
 10
387.71952979272493
 20
228.44033784766111
 30
0.0
 11
386.35301160434187
 21
228.44033784766111
 31
0.0
  0
LINE
  5
7242
  8
0
 10
386.35301160434187
 20
220.44033784766111
 30
0.0
 11
387.71952979272493
 21
220.44033784766111
 31
0.0
  0
ARC
  5
7243
  8
0
 10
446.21952979271782
 20
224.44033784766111
 30
0.0
 40
59.999999999993292
 50
176.17744627072111
 51
179.99999999999841
  0
ARC
  5
7244
  8
0
 10
446.21952979271782
 20
224.44033784766111
 30
0.0
 40
59.999999999993292
 50
180.0
 51
183.82255372927889
  0
ARC
  5
7245
  8
0
 10
348.41952979267973
 20
224.44033784766111
 30
0.0
 40
60.00000000004669
 50
1.9102131717081761
 51
3.8225537292821392
  0
ARC
  5
7246
  8
0
 10
348.41952979267973
 20
224.44033784766111
 30
0.0
 40
60.00000000004669
 50
356.17744627071949
 51
358.08978682829348
  0
LINE
  5
7247
  8
0
 10
408.28604798110808
 20
228.44033784766111
 30
0.0
 11
406.91952979272492
 21
228.44033784766111
 31
0.0
  0
LINE
  5
7248
  8
0
 10
406.91952979272492
 20
220.44033784766111
 30
0.0
 11
408.28604798110808
 21
220.44033784766111
 31
0.0
  0
LINE
  5
7249
  8
0
 10
390.31952979277679
 20
227.44033784766111
 30
0.0
 11
390.21952979272493
 21
227.44033784766111
 31
0.0
  0
LINE
  5
724A
  8
0
 10
390.21952979272493
 20
221.44033784766111
 30
0.0
 11
390.31952979277679
 21
221.44033784766111
 31
0.0
  0
LINE
  5
724B
  8
0
 10
404.41952979272492
 20
157.94033784766111
 30
0.0
 11
406.91952979272492
 21
157.94033784766111
 31
0.0
  0
LINE
  5
724C
  8
0
 10
387.71952979272493
 20
157.94033784766111
 30
0.0
 11
390.21952979272493
 21
157.94033784766111
 31
0.0
  0
LINE
  5
7252
  8
0
 10
390.85301160434187
 20
194.94033784766111
 30
0.0
 11
390.85301160434187
 21
186.44033784766111
 31
0.0
  0
LINE
  5
7255
  8
0
 10
403.78604798110791
 20
186.44033784766111
 30
0.0
 11
403.78604798110791
 21
194.94033784766111
 31
0.0
  0
LINE
  5
7256
  8
0
 10
397.26952979272511
 20
183.44033784766111
 30
0.0
 11
397.36952979272519
 21
183.44033784766111
 31
0.0
  0
LINE
  5
7257
  8
0
 10
403.81952979272489
 20
147.94033784766111
 30
0.0
 11
403.81952979272489
 21
150.94033784766111
 31
0.0
  0
ARC
  5
7258
  8
0
 10
400.53261951910781
 20
165.78843046954361
 30
0.0
 40
19.643223505436492
 50
260.5856861616146
 51
268.21143614905208
  0
LINE
  5
7259
  8
0
 10
397.31952979272501
 20
146.40977509578909
 30
0.0
 11
397.31952979272518
 21
150.94033784766111
 31
0.0
  0
LINE
  5
725B
  8
0
 10
402.4195297927248
 20
150.94033784766111
 30
0.0
 11
403.81952979272489
 21
150.94033784766111
 31
0.0
  0
ARC
  5
725C
  8
0
 10
394.1077201711891
 20
165.78186436994159
 30
0.0
 40
19.636536453527849
 50
271.78543620176771
 51
279.41376286537383
  0
LINE
  5
725D
  8
0
 10
390.81952979272518
 20
147.94033784766111
 30
0.0
 11
390.81952979272518
 21
150.94033784766111
 31
0.0
  0
LINE
  5
725E
  8
0
 10
390.81952979272518
 20
150.94033784766111
 30
0.0
 11
392.21952979272493
 21
150.94033784766111
 31
0.0
  0
LINE
  5
725F
  8
0
 10
394.71952979272493
 20
150.94033784766111
 30
0.0
 11
399.91952979272492
 21
150.94033784766111
 31
0.0
  0
LINE
  5
7260
  8
0
 10
394.71952979272493
 20
146.1403378476611
 30
0.0
 11
399.91952979272492
 21
146.1403378476611
 31
0.0
  0
LINE
  5
7261
  8
0
 10
391.51952979272528
 20
151.44033784766111
 30
0.0
 11
392.21952979272493
 21
151.44033784766111
 31
0.0
  0
LINE
  5
7262
  8
0
 10
394.71952979272493
 20
151.44033784766111
 30
0.0
 11
399.91952979272492
 21
151.44033784766111
 31
0.0
  0
LINE
  5
7263
  8
0
 10
402.4195297927248
 20
151.44033784766111
 30
0.0
 11
403.11952979272519
 21
151.44033784766111
 31
0.0
  0
LINE
  5
7264
  8
0
 10
397.36952979272519
 20
195.67333784766109
 30
0.0
 11
397.26952979272528
 21
195.67333784766109
 31
0.0
  0
POLYLINE
  5
7265
  8
0
 66
     1
 10
0.0
 20
0.0
 30
0.0
 70
   128
  0
VERTEX
  5
7815
  8
0
 10
403.81952979272518
 20
174.52089443126189
 30
0.0
  0
VERTEX
  5
7816
  8
0
 10
403.0301665430224
 20
174.28320828417199
 30
0.0
  0
VERTEX
  5
7817
  8
0
 10
402.4195297927248
 20
174.143631174169
 30
0.0
  0
SEQEND
  5
7818
  8
0
  0
POLYLINE
  5
7266
  8
0
 66
     1
 10
0.0
 20
0.0
 30
0.0
 70
   128
  0
VERTEX
  5
7819
  8
0
 10
402.4195297927248
 20
177.73624725098611
 30
0.0
  0
VERTEX
  5
781A
  8
0
 10
403.0110666219968
 20
177.6025508172506
 30
0.0
  0
VERTEX
  5
781B
  8
0
 10
403.81952979272489
 20
177.35978127656529
 30
0.0
  0
SEQEND
  5
781C
  8
0
  0
POLYLINE
  5
7268
  8
0
 66
     1
 10
0.0
 20
0.0
 30
0.0
 70
   128
  0
VERTEX
  5
781D
  8
0
 10
392.21952979272493
 20
174.14442844453089
 30
0.0
  0
VERTEX
  5
781E
  8
0
 10
391.62799298518303
 20
174.27812487230719
 30
0.0
  0
VERTEX
  5
781F
  8
0
 10
390.81952979272518
 20
174.52089443126189
 30
0.0
  0
SEQEND
  5
7820
  8
0
  0
POLYLINE
  5
726A
  8
0
 66
     1
 10
0.0
 20
0.0
 30
0.0
 70
   128
  0
VERTEX
  5
7821
  8
0
 10
390.81952977829587
 20
177.3597812592505
 30
0.0
  0
VERTEX
  5
7822
  8
0
 10
391.6088930203029
 20
177.59746740524241
 30
0.0
  0
VERTEX
  5
7823
  8
0
 10
392.21952979272493
 20
177.73704452141271
 30
0.0
  0
SEQEND
  5
7824
  8
0
  0
LINE
  5
726B
  8
0
 10
403.81952979272359
 20
173.94033784766111
 30
0.0
 11
403.81952979272518
 21
177.94033784766111
 31
0.0
  0
LINE
  5
726D
  8
0
 10
402.4195297927248
 20
173.94033784766111
 30
0.0
 11
403.81952979272518
 21
173.94033784766111
 31
0.0
  0
LINE
  5
726F
  8
0
 10
390.81952979272518
 20
173.94033784766111
 30
0.0
 11
392.21952979272493
 21
173.94033784766111
 31
0.0
  0
LINE
  5
7270
  8
0
 10
390.81952979272518
 20
177.94033784766111
 30
0.0
 11
390.81952979272518
 21
173.94033784766111
 31
0.0
  0
LINE
  5
7276
  8
0
 10
390.31952979277679
 20
218.69033784763431
 30
0.0
 11
390.31952979277679
 21
230.19033784768791
 31
0.0
  0
LINE
  5
729E
  8
0
 10
394.81952979272501
 20
206.44033784766111
 30
0.0
 11
399.81952979272501
 21
206.44033784766111
 31
0.0
  0
LINE
  5
72A6
  8
0
 10
399.81952979272501
 20
242.94033784766111
 30
0.0
 11
394.81952979272501
 21
242.94033784766111
 31
0.0
  0
LINE
  5
72AB
  8
0
 10
399.81952979272501
 20
242.94033784766111
 30
0.0
 11
399.81952979272501
 21
203.44033784766111
 31
0.0
  0
LINE
  5
72AC
  8
0
 10
402.31952979272501
 20
198.94033784766111
 30
0.0
 11
402.31952979272501
 21
231.94033784766111
 31
0.0
  0
LINE
  5
72AF
  8
0
 10
392.31952979272501
 20
198.94033784766111
 30
0.0
 11
392.31952979272501
 21
231.94033784766111
 31
0.0
  0
LINE
  5
72B0
  8
0
 10
394.81952979272501
 20
203.44033784766111
 30
0.0
 11
394.81952979272501
 21
242.94033784766111
 31
0.0
  0
LINE
  5
72B2
  8
0
 10
399.81952979272501
 20
204.44033784766111
 30
0.0
 11
394.81952979272501
 21
204.44033784766111
 31
0.0
  0
LINE
  5
72BC
  8
0
 10
397.36952979272479
 20
203.44033784766111
 30
0.0
 11
397.36952979272479
 21
182.44033784766111
 31
0.0
  0
LINE
  5
72BD
  8
0
 10
399.86952979272468
 20
182.44033784766111
 30
0.0
 11
399.86952979272468
 21
203.44033784766111
 31
0.0
  0
LINE
  5
72BF
  8
0
 10
397.36952979272502
 20
203.44033784766111
 30
0.0
 11
399.86952979272502
 21
203.44033784766111
 31
0.0
  0
LINE
  5
72C5
  8
0
 10
397.26952979272482
 20
182.44033784766111
 30
0.0
 11
397.26952979272482
 21
203.44033784766111
 31
0.0
  0
LINE
  5
72C7
  8
0
 10
394.76952979272482
 20
203.44033784766111
 30
0.0
 11
394.76952979272482
 21
182.44033784766111
 31
0.0
  0
LINE
  5
72C8
  8
0
 10
394.76952979272482
 20
203.44033784766111
 30
0.0
 11
397.26952979272482
 21
203.44033784766111
 31
0.0
  0
LINE
  5
72CD
  8
0
 10
390.21952979272493
 20
203.44033784766111
 30
0.0
 11
392.31952979272501
 21
203.44033784766111
 31
0.0
  0
LINE
  5
72CF
  8
0
 10
402.31952979272501
 20
203.4403378476612
 30
0.0
 11
404.41952979272492
 21
203.4403378476612
 31
0.0
  0
LINE
  5
72D0
  8
0
 10
404.41952979272492
 20
182.44033784766111
 30
0.0
 11
402.41952979272509
 21
182.44033784766111
 31
0.0
  0
ARC
  5
72D1
  8
0
 10
406.74695906859432
 20
202.35490323216459
 30
0.0
 40
0.8809647786809426
 50
7.9157067011458278
 51
78.888178310548653
  0
ARC
  5
72D2
  8
0
 10
387.80537060633333
 20
202.4369252015488
 30
0.0
 40
0.7868229509215896
 50
96.059174737739994
 51
177.13694025057089
  0
POLYLINE
  5
72D3
  8
0
 66
     1
 10
0.0
 20
0.0
 30
0.0
 70
   128
  0
VERTEX
  5
7825
  8
0
 10
406.91674250341111
 20
182.3532444364813
 30
0.0
  0
VERTEX
  5
7826
  8
0
 10
407.33188587250419
 20
181.93681958676581
 30
0.0
  0
VERTEX
  5
7827
  8
0
 10
407.54160365027559
 20
181.17235351581451
 30
0.0
  0
VERTEX
  5
7828
  8
0
 10
407.60994920911202
 20
180.13978757397331
 30
0.0
  0
VERTEX
  5
7829
  8
0
 10
407.61948982328539
 20
178.88224791399011
 30
0.0
  0
VERTEX
  5
782A
  8
0
 10
407.6195297927249
 20
178.44033784766111
 30
0.0
  0
SEQEND
  5
782B
  8
0
  0
POLYLINE
  5
72D4
  8
0
 10
404.41952979272486
 20
182.19090544900064
 30
0.0
 66
     1
 70
     8
  0
VERTEX
  8
0
  5
7A3B
 10
404.420
 20
182.191
 30
0.000000
  70
    32
  0
VERTEX
  8
0
  5
7A3C
 10
404.415
 20
182.195
 30
0.000000
  70
    32
  0
VERTEX
  8
0
  5
7A3D
 10
404.410
 20
182.199
 30
0.000000
  70
    32
  0
VERTEX
  8
0
  5
7A3E
 10
404.405
 20
182.202
 30
0.000000
  70
    32
  0
VERTEX
  8
0
  5
7A3F
 10
404.400
 20
182.206
 30
0.000000
  70
    32
  0
VERTEX
  8
0
  5
7A40
 10
404.395
 20
182.210
 30
0.000000
  70
    32
  0
VERTEX
  8
0
  5
7A41
 10
404.390
 20
182.214
 30
0.000000
  70
    32
  0
VERTEX
  8
0
  5
7A42
 10
404.385
 20
182.217
 30
0.000000
  70
    32
  0
VERTEX
  8
0
  5
7A43
 10
404.381
 20
182.221
 30
0.000000
  70
    32
  0
VERTEX
  8
0
  5
7A44
 10
404.376
 20
182.224
 30
0.000000
  70
    32
  0
VERTEX
  8
0
  5
7A45
 10
404.371
 20
182.228
 30
0.000000
  70
    32
  0
VERTEX
  8
0
  5
7A46
 10
404.366
 20
182.232
 30
0.000000
  70
    32
  0
VERTEX
  8
0
  5
7A47
 10
404.361
 20
182.235
 30
0.000000
  70
    32
  0
VERTEX
  8
0
  5
7A48
 10
404.356
 20
182.239
 30
0.000000
  70
    32
  0
VERTEX
  8
0
  5
7A49
 10
404.351
 20
182.242
 30
0.000000
  70
    32
  0
VERTEX
  8
0
  5
7A4A
 10
404.346
 20
182.245
 30
0.000000
  70
    32
  0
VERTEX
  8
0
  5
7A4B
 10
404.341
 20
182.249
 30
0.000000
  70
    32
  0
VERTEX
  8
0
  5
7A4C
 10
404.336
 20
182.252
 30
0.000000
  70
    32
  0
VERTEX
  8
0
  5
7A4D
 10
404.331
 20
182.256
 30
0.000000
  70
    32
  0
VERTEX
  8
0
  5
7A4E
 10
404.327
 20
182.259
 30
0.000000
  70
    32
  0
VERTEX
  8
0
  5
7A4F
 10
404.322
 20
182.262
 30
0.000000
  70
    32
  0
VERTEX
  8
0
  5
7A50
 10
404.317
 20
182.265
 30
0.000000
  70
    32
  0
VERTEX
  8
0
  5
7A51
 10
404.312
 20
182.269
 30
0.000000
  70
    32
  0
VERTEX
  8
0
  5
7A52
 10
404.307
 20
182.272
 30
0.000000
  70
    32
  0
VERTEX
  8
0
  5
7A53
 10
404.302
 20
182.275
 30
0.000000
  70
    32
  0
VERTEX
  8
0
  5
7A54
 10
404.297
 20
182.278
 30
0.000000
  70
    32
  0
VERTEX
  8
0
  5
7A55
 10
404.292
 20
182.281
 30
0.000000
  70
    32
  0
VERTEX
  8
0
  5
7A56
 10
404.287
 20
182.284
 30
0.000000
  70
    32
  0
VERTEX
  8
0
  5
7A57
 10
404.282
 20
182.287
 30
0.000000
  70
    32
  0
VERTEX
  8
0
  5
7A58
 10
404.277
 20
182.290
 30
0.000000
  70
    32
  0
VERTEX
  8
0
  5
7A59
 10
404.272
 20
182.293
 30
0.000000
  70
    32
  0
VERTEX
  8
0
  5
7A5A
 10
404.267
 20
182.296
 30
0.000000
  70
    32
  0
VERTEX
  8
0
  5
7A5B
 10
404.262
 20
182.299
 30
0.000000
  70
    32
  0
VERTEX
  8
0
  5
7A5C
 10
404.257
 20
182.302
 30
0.000000
  70
    32
  0
VERTEX
  8
0
  5
7A5D
 10
404.252
 20
182.305
 30
0.000000
  70
    32
  0
VERTEX
  8
0
  5
7A5E
 10
404.247
 20
182.308
 30
0.000000
  70
    32
  0
VERTEX
  8
0
  5
7A5F
 10
404.242
 20
182.311
 30
0.000000
  70
    32
  0
VERTEX
  8
0
  5
7A60
 10
404.237
 20
182.314
 30
0.000000
  70
    32
  0
VERTEX
  8
0
  5
7A61
 10
404.232
 20
182.316
 30
0.000000
  70
    32
  0
VERTEX
  8
0
  5
7A62
 10
404.227
 20
182.319
 30
0.000000
  70
    32
  0
VERTEX
  8
0
  5
7A63
 10
404.222
 20
182.322
 30
0.000000
  70
    32
  0
VERTEX
  8
0
  5
7A64
 10
404.217
 20
182.324
 30
0.000000
  70
    32
  0
VERTEX
  8
0
  5
7A65
 10
404.212
 20
182.327
 30
0.000000
  70
    32
  0
VERTEX
  8
0
  5
7A66
 10
404.207
 20
182.330
 30
0.000000
  70
    32
  0
VERTEX
  8
0
  5
7A67
 10
404.202
 20
182.332
 30
0.000000
  70
    32
  0
VERTEX
  8
0
  5
7A68
 10
404.197
 20
182.335
 30
0.000000
  70
    32
  0
VERTEX
  8
0
  5
7A69
 10
404.192
 20
182.337
 30
0.000000
  70
    32
  0
VERTEX
  8
0
  5
7A6A
 10
404.187
 20
182.340
 30
0.000000
  70
    32
  0
VERTEX
  8
0
  5
7A6B
 10
404.182
 20
182.342
 30
0.000000
  70
    32
  0
VERTEX
  8
0
  5
7A6C
 10
404.177
 20
182.345
 30
0.000000
  70
    32
  0
VERTEX
  8
0
  5
7A6D
 10
404.172
 20
182.347
 30
0.000000
  70
    32
  0
VERTEX
  8
0
  5
7A6E
 10
404.166
 20
182.349
 30
0.000000
  70
    32
  0
VERTEX
  8
0
  5
7A6F
 10
404.161
 20
182.352
 30
0.000000
  70
    32
  0
VERTEX
  8
0
  5
7A70
 10
404.156
 20
182.354
 30
0.000000
  70
    32
  0
VERTEX
  8
0
  5
7A71
 10
404.151
 20
182.356
 30
0.000000
  70
    32
  0
VERTEX
  8
0
  5
7A72
 10
404.146
 20
182.359
 30
0.000000
  70
    32
  0
VERTEX
  8
0
  5
7A73
 10
404.141
 20
182.361
 30
0.000000
  70
    32
  0
VERTEX
  8
0
  5
7A74
 10
404.136
 20
182.363
 30
0.000000
  70
    32
  0
VERTEX
  8
0
  5
7A75
 10
404.131
 20
182.365
 30
0.000000
  70
    32
  0
VERTEX
  8
0
  5
7A76
 10
404.126
 20
182.367
 30
0.000000
  70
    32
  0
VERTEX
  8
0
  5
7A77
 10
404.121
 20
182.369
 30
0.000000
  70
    32
  0
VERTEX
  8
0
  5
7A78
 10
404.116
 20
182.371
 30
0.000000
  70
    32
  0
VERTEX
  8
0
  5
7A79
 10
404.111
 20
182.374
 30
0.000000
  70
    32
  0
VERTEX
  8
0
  5
7A7A
 10
404.106
 20
182.376
 30
0.000000
  70
    32
  0
VERTEX
  8
0
  5
7A7B
 10
404.101
 20
182.377
 30
0.000000
  70
    32
  0
VERTEX
  8
0
  5
7A7C
 10
404.095
 20
182.379
 30
0.000000
  70
    32
  0
VERTEX
  8
0
  5
7A7D
 10
404.090
 20
182.381
 30
0.000000
  70
    32
  0
VERTEX
  8
0
  5
7A7E
 10
404.085
 20
182.383
 30
0.000000
  70
    32
  0
VERTEX
  8
0
  5
7A7F
 10
404.080
 20
182.385
 30
0.000000
  70
    32
  0
VERTEX
  8
0
  5
7A80
 10
404.075
 20
182.387
 30
0.000000
  70
    32
  0
VERTEX
  8
0
  5
7A81
 10
404.070
 20
182.389
 30
0.000000
  70
    32
  0
VERTEX
  8
0
  5
7A82
 10
404.065
 20
182.390
 30
0.000000
  70
    32
  0
VERTEX
  8
0
  5
7A83
 10
404.060
 20
182.392
 30
0.000000
  70
    32
  0
VERTEX
  8
0
  5
7A84
 10
404.055
 20
182.394
 30
0.000000
  70
    32
  0
VERTEX
  8
0
  5
7A85
 10
404.049
 20
182.396
 30
0.000000
  70
    32
  0
VERTEX
  8
0
  5
7A86
 10
404.044
 20
182.397
 30
0.000000
  70
    32
  0
VERTEX
  8
0
  5
7A87
 10
404.039
 20
182.399
 30
0.000000
  70
    32
  0
VERTEX
  8
0
  5
7A88
 10
404.034
 20
182.400
 30
0.000000
  70
    32
  0
VERTEX
  8
0
  5
7A89
 10
404.029
 20
182.402
 30
0.000000
  70
    32
  0
VERTEX
  8
0
  5
7A8A
 10
404.024
 20
182.403
 30
0.000000
  70
    32
  0
VERTEX
  8
0
  5
7A8B
 10
404.019
 20
182.405
 30
0.000000
  70
    32
  0
VERTEX
  8
0
  5
7A8C
 10
404.014
 20
182.406
 30
0.000000
  70
    32
  0
VERTEX
  8
0
  5
7A8D
 10
404.008
 20
182.408
 30
0.000000
  70
    32
  0
VERTEX
  8
0
  5
7A8E
 10
404.003
 20
182.409
 30
0.000000
  70
    32
  0
VERTEX
  8
0
  5
7A8F
 10
403.998
 20
182.411
 30
0.000000
  70
    32
  0
VERTEX
  8
0
  5
7A90
 10
403.993
 20
182.412
 30
0.000000
  70
    32
  0
VERTEX
  8
0
  5
7A91
 10
403.988
 20
182.413
 30
0.000000
  70
    32
  0
VERTEX
  8
0
  5
7A92
 10
403.983
 20
182.415
 30
0.000000
  70
    32
  0
VERTEX
  8
0
  5
7A93
 10
403.978
 20
182.416
 30
0.000000
  70
    32
  0
VERTEX
  8
0
  5
7A94
 10
403.973
 20
182.417
 30
0.000000
  70
    32
  0
VERTEX
  8
0
  5
7A95
 10
403.967
 20
182.418
 30
0.000000
  70
    32
  0
VERTEX
  8
0
  5
7A96
 10
403.962
 20
182.419
 30
0.000000
  70
    32
  0
VERTEX
  8
0
  5
7A97
 10
403.957
 20
182.420
 30
0.000000
  70
    32
  0
VERTEX
  8
0
  5
7A98
 10
403.952
 20
182.422
 30
0.000000
  70
    32
  0
VERTEX
  8
0
  5
7A99
 10
403.947
 20
182.423
 30
0.000000
  70
    32
  0
VERTEX
  8
0
  5
7A9A
 10
403.942
 20
182.424
 30
0.000000
  70
    32
  0
VERTEX
  8
0
  5
7A9B
 10
403.936
 20
182.425
 30
0.000000
  70
    32
  0
VERTEX
  8
0
  5
7A9C
 10
403.931
 20
182.426
 30
0.000000
  70
    32
  0
VERTEX
  8
0
  5
7A9D
 10
403.926
 20
182.426
 30
0.000000
  70
    32
  0
VERTEX
  8
0
  5
7A9E
 10
403.921
 20
182.427
 30
0.000000
  70
    32
  0
VERTEX
  8
0
  5
7A9F
 10
403.916
 20
182.428
 30
0.000000
  70
    32
  0
VERTEX
  8
0
  5
7AA0
 10
403.911
 20
182.429
 30
0.000000
  70
    32
  0
VERTEX
  8
0
  5
7AA1
 10
403.906
 20
182.430
 30
0.000000
  70
    32
  0
VERTEX
  8
0
  5
7AA2
 10
403.900
 20
182.431
 30
0.000000
  70
    32
  0
VERTEX
  8
0
  5
7AA3
 10
403.895
 20
182.431
 30
0.000000
  70
    32
  0
VERTEX
  8
0
  5
7AA4
 10
403.890
 20
182.432
 30
0.000000
  70
    32
  0
VERTEX
  8
0
  5
7AA5
 10
403.885
 20
182.433
 30
0.000000
  70
    32
  0
VERTEX
  8
0
  5
7AA6
 10
403.880
 20
182.434
 30
0.000000
  70
    32
  0
VERTEX
  8
0
  5
7AA7
 10
403.875
 20
182.434
 30
0.000000
  70
    32
  0
VERTEX
  8
0
  5
7AA8
 10
403.869
 20
182.435
 30
0.000000
  70
    32
  0
VERTEX
  8
0
  5
7AA9
 10
403.864
 20
182.435
 30
0.000000
  70
    32
  0
VERTEX
  8
0
  5
7AAA
 10
403.859
 20
182.436
 30
0.000000
  70
    32
  0
VERTEX
  8
0
  5
7AAB
 10
403.854
 20
182.436
 30
0.000000
  70
    32
  0
VERTEX
  8
0
  5
7AAC
 10
403.849
 20
182.437
 30
0.000000
  70
    32
  0
VERTEX
  8
0
  5
7AAD
 10
403.844
 20
182.437
 30
0.000000
  70
    32
  0
VERTEX
  8
0
  5
7AAE
 10
403.838
 20
182.438
 30
0.000000
  70
    32
  0
VERTEX
  8
0
  5
7AAF
 10
403.833
 20
182.438
 30
0.000000
  70
    32
  0
VERTEX
  8
0
  5
7AB0
 10
403.828
 20
182.438
 30
0.000000
  70
    32
  0
VERTEX
  8
0
  5
7AB1
 10
403.823
 20
182.439
 30
0.000000
  70
    32
  0
VERTEX
  8
0
  5
7AB2
 10
403.818
 20
182.439
 30
0.000000
  70
    32
  0
VERTEX
  8
0
  5
7AB3
 10
403.813
 20
182.439
 30
0.000000
  70
    32
  0
VERTEX
  8
0
  5
7AB4
 10
403.807
 20
182.440
 30
0.000000
  70
    32
  0
VERTEX
  8
0
  5
7AB5
 10
403.802
 20
182.440
 30
0.000000
  70
    32
  0
VERTEX
  8
0
  5
7AB6
 10
403.797
 20
182.440
 30
0.000000
  70
    32
  0
VERTEX
  8
0
  5
7AB7
 10
403.792
 20
182.440
 30
0.000000
  70
    32
  0
VERTEX
  8
0
  5
7AB8
 10
403.787
 20
182.440
 30
0.000000
  70
    32
  0
VERTEX
  8
0
  5
7AB9
 10
403.781
 20
182.440
 30
0.000000
  70
    32
  0
VERTEX
  8
0
  5
7ABA
 10
403.776
 20
182.440
 30
0.000000
  70
    32
  0
VERTEX
  8
0
  5
7ABB
 10
403.771
 20
182.440
 30
0.000000
  70
    32
  0
SEQEND
  8
0
  5
7ABC
  0
POLYLINE
  5
72D5
  8
0
 66
     1
 10
0.0
 20
0.0
 30
0.0
 70
   128
  0
VERTEX
  5
782C
  8
0
 10
387.01952979272511
 20
178.44033784766111
 30
0.0
  0
VERTEX
  5
782D
  8
0
 10
387.02288580183631
 20
179.7610948050592
 30
0.0
  0
VERTEX
  5
782E
  8
0
 10
387.07038659471408
 20
180.933366390477
 30
0.0
  0
VERTEX
  5
782F
  8
0
 10
387.25028683432328
 20
181.81090753145421
 30
0.0
  0
VERTEX
  5
7830
  8
0
 10
387.62360819403563
 20
182.29977813823399
 30
0.0
  0
VERTEX
  5
7831
  8
0
 10
387.72231708203913
 20
182.3532444364813
 30
0.0
  0
SEQEND
  5
7832
  8
0
  0
POLYLINE
  5
72D6
  8
0
 10
390.8679401798654
 20
182.44033784766111
 30
0.0
 66
     1
 70
     8
  0
VERTEX
  8
0
  5
7ABD
 10
390.868
 20
182.440
 30
0.000000
  70
    32
  0
VERTEX
  8
0
  5
7ABE
 10
390.863
 20
182.440
 30
0.000000
  70
    32
  0
VERTEX
  8
0
  5
7ABF
 10
390.858
 20
182.440
 30
0.000000
  70
    32
  0
VERTEX
  8
0
  5
7AC0
 10
390.852
 20
182.440
 30
0.000000
  70
    32
  0
VERTEX
  8
0
  5
7AC1
 10
390.847
 20
182.440
 30
0.000000
  70
    32
  0
VERTEX
  8
0
  5
7AC2
 10
390.842
 20
182.440
 30
0.000000
  70
    32
  0
VERTEX
  8
0
  5
7AC3
 10
390.837
 20
182.440
 30
0.000000
  70
    32
  0
VERTEX
  8
0
  5
7AC4
 10
390.832
 20
182.440
 30
0.000000
  70
    32
  0
VERTEX
  8
0
  5
7AC5
 10
390.827
 20
182.439
 30
0.000000
  70
    32
  0
VERTEX
  8
0
  5
7AC6
 10
390.821
 20
182.439
 30
0.000000
  70
    32
  0
VERTEX
  8
0
  5
7AC7
 10
390.816
 20
182.439
 30
0.000000
  70
    32
  0
VERTEX
  8
0
  5
7AC8
 10
390.811
 20
182.438
 30
0.000000
  70
    32
  0
VERTEX
  8
0
  5
7AC9
 10
390.806
 20
182.438
 30
0.000000
  70
    32
  0
VERTEX
  8
0
  5
7ACA
 10
390.801
 20
182.438
 30
0.000000
  70
    32
  0
VERTEX
  8
0
  5
7ACB
 10
390.796
 20
182.437
 30
0.000000
  70
    32
  0
VERTEX
  8
0
  5
7ACC
 10
390.790
 20
182.437
 30
0.000000
  70
    32
  0
VERTEX
  8
0
  5
7ACD
 10
390.785
 20
182.436
 30
0.000000
  70
    32
  0
VERTEX
  8
0
  5
7ACE
 10
390.780
 20
182.436
 30
0.000000
  70
    32
  0
VERTEX
  8
0
  5
7ACF
 10
390.775
 20
182.435
 30
0.000000
  70
    32
  0
VERTEX
  8
0
  5
7AD0
 10
390.770
 20
182.435
 30
0.000000
  70
    32
  0
VERTEX
  8
0
  5
7AD1
 10
390.765
 20
182.434
 30
0.000000
  70
    32
  0
VERTEX
  8
0
  5
7AD2
 10
390.759
 20
182.434
 30
0.000000
  70
    32
  0
VERTEX
  8
0
  5
7AD3
 10
390.754
 20
182.433
 30
0.000000
  70
    32
  0
VERTEX
  8
0
  5
7AD4
 10
390.749
 20
182.432
 30
0.000000
  70
    32
  0
VERTEX
  8
0
  5
7AD5
 10
390.744
 20
182.431
 30
0.000000
  70
    32
  0
VERTEX
  8
0
  5
7AD6
 10
390.739
 20
182.431
 30
0.000000
  70
    32
  0
VERTEX
  8
0
  5
7AD7
 10
390.734
 20
182.430
 30
0.000000
  70
    32
  0
VERTEX
  8
0
  5
7AD8
 10
390.728
 20
182.429
 30
0.000000
  70
    32
  0
VERTEX
  8
0
  5
7AD9
 10
390.723
 20
182.428
 30
0.000000
  70
    32
  0
VERTEX
  8
0
  5
7ADA
 10
390.718
 20
182.427
 30
0.000000
  70
    32
  0
VERTEX
  8
0
  5
7ADB
 10
390.713
 20
182.426
 30
0.000000
  70
    32
  0
VERTEX
  8
0
  5
7ADC
 10
390.708
 20
182.426
 30
0.000000
  70
    32
  0
VERTEX
  8
0
  5
7ADD
 10
390.703
 20
182.425
 30
0.000000
  70
    32
  0
VERTEX
  8
0
  5
7ADE
 10
390.697
 20
182.424
 30
0.000000
  70
    32
  0
VERTEX
  8
0
  5
7ADF
 10
390.692
 20
182.423
 30
0.000000
  70
    32
  0
VERTEX
  8
0
  5
7AE0
 10
390.687
 20
182.422
 30
0.000000
  70
    32
  0
VERTEX
  8
0
  5
7AE1
 10
390.682
 20
182.420
 30
0.000000
  70
    32
  0
VERTEX
  8
0
  5
7AE2
 10
390.677
 20
182.419
 30
0.000000
  70
    32
  0
VERTEX
  8
0
  5
7AE3
 10
390.672
 20
182.418
 30
0.000000
  70
    32
  0
VERTEX
  8
0
  5
7AE4
 10
390.667
 20
182.417
 30
0.000000
  70
    32
  0
VERTEX
  8
0
  5
7AE5
 10
390.661
 20
182.416
 30
0.000000
  70
    32
  0
VERTEX
  8
0
  5
7AE6
 10
390.656
 20
182.415
 30
0.000000
  70
    32
  0
VERTEX
  8
0
  5
7AE7
 10
390.651
 20
182.413
 30
0.000000
  70
    32
  0
VERTEX
  8
0
  5
7AE8
 10
390.646
 20
182.412
 30
0.000000
  70
    32
  0
VERTEX
  8
0
  5
7AE9
 10
390.641
 20
182.411
 30
0.000000
  70
    32
  0
VERTEX
  8
0
  5
7AEA
 10
390.636
 20
182.409
 30
0.000000
  70
    32
  0
VERTEX
  8
0
  5
7AEB
 10
390.631
 20
182.408
 30
0.000000
  70
    32
  0
VERTEX
  8
0
  5
7AEC
 10
390.625
 20
182.406
 30
0.000000
  70
    32
  0
VERTEX
  8
0
  5
7AED
 10
390.620
 20
182.405
 30
0.000000
  70
    32
  0
VERTEX
  8
0
  5
7AEE
 10
390.615
 20
182.403
 30
0.000000
  70
    32
  0
VERTEX
  8
0
  5
7AEF
 10
390.610
 20
182.402
 30
0.000000
  70
    32
  0
VERTEX
  8
0
  5
7AF0
 10
390.605
 20
182.400
 30
0.000000
  70
    32
  0
VERTEX
  8
0
  5
7AF1
 10
390.600
 20
182.399
 30
0.000000
  70
    32
  0
VERTEX
  8
0
  5
7AF2
 10
390.595
 20
182.397
 30
0.000000
  70
    32
  0
VERTEX
  8
0
  5
7AF3
 10
390.590
 20
182.396
 30
0.000000
  70
    32
  0
VERTEX
  8
0
  5
7AF4
 10
390.584
 20
182.394
 30
0.000000
  70
    32
  0
VERTEX
  8
0
  5
7AF5
 10
390.579
 20
182.392
 30
0.000000
  70
    32
  0
VERTEX
  8
0
  5
7AF6
 10
390.574
 20
182.390
 30
0.000000
  70
    32
  0
VERTEX
  8
0
  5
7AF7
 10
390.569
 20
182.389
 30
0.000000
  70
    32
  0
VERTEX
  8
0
  5
7AF8
 10
390.564
 20
182.387
 30
0.000000
  70
    32
  0
VERTEX
  8
0
  5
7AF9
 10
390.559
 20
182.385
 30
0.000000
  70
    32
  0
VERTEX
  8
0
  5
7AFA
 10
390.554
 20
182.383
 30
0.000000
  70
    32
  0
VERTEX
  8
0
  5
7AFB
 10
390.549
 20
182.381
 30
0.000000
  70
    32
  0
VERTEX
  8
0
  5
7AFC
 10
390.544
 20
182.379
 30
0.000000
  70
    32
  0
VERTEX
  8
0
  5
7AFD
 10
390.539
 20
182.377
 30
0.000000
  70
    32
  0
VERTEX
  8
0
  5
7AFE
 10
390.533
 20
182.376
 30
0.000000
  70
    32
  0
VERTEX
  8
0
  5
7AFF
 10
390.528
 20
182.374
 30
0.000000
  70
    32
  0
VERTEX
  8
0
  5
7B00
 10
390.523
 20
182.371
 30
0.000000
  70
    32
  0
VERTEX
  8
0
  5
7B01
 10
390.518
 20
182.369
 30
0.000000
  70
    32
  0
VERTEX
  8
0
  5
7B02
 10
390.513
 20
182.367
 30
0.000000
  70
    32
  0
VERTEX
  8
0
  5
7B03
 10
390.508
 20
182.365
 30
0.000000
  70
    32
  0
VERTEX
  8
0
  5
7B04
 10
390.503
 20
182.363
 30
0.000000
  70
    32
  0
VERTEX
  8
0
  5
7B05
 10
390.498
 20
182.361
 30
0.000000
  70
    32
  0
VERTEX
  8
0
  5
7B06
 10
390.493
 20
182.359
 30
0.000000
  70
    32
  0
VERTEX
  8
0
  5
7B07
 10
390.488
 20
182.356
 30
0.000000
  70
    32
  0
VERTEX
  8
0
  5
7B08
 10
390.483
 20
182.354
 30
0.000000
  70
    32
  0
VERTEX
  8
0
  5
7B09
 10
390.478
 20
182.352
 30
0.000000
  70
    32
  0
VERTEX
  8
0
  5
7B0A
 10
390.473
 20
182.349
 30
0.000000
  70
    32
  0
VERTEX
  8
0
  5
7B0B
 10
390.468
 20
182.347
 30
0.000000
  70
    32
  0
VERTEX
  8
0
  5
7B0C
 10
390.462
 20
182.345
 30
0.000000
  70
    32
  0
VERTEX
  8
0
  5
7B0D
 10
390.457
 20
182.342
 30
0.000000
  70
    32
  0
VERTEX
  8
0
  5
7B0E
 10
390.452
 20
182.340
 30
0.000000
  70
    32
  0
VERTEX
  8
0
  5
7B0F
 10
390.447
 20
182.337
 30
0.000000
  70
    32
  0
VERTEX
  8
0
  5
7B10
 10
390.442
 20
182.335
 30
0.000000
  70
    32
  0
VERTEX
  8
0
  5
7B11
 10
390.437
 20
182.332
 30
0.000000
  70
    32
  0
VERTEX
  8
0
  5
7B12
 10
390.432
 20
182.330
 30
0.000000
  70
    32
  0
VERTEX
  8
0
  5
7B13
 10
390.427
 20
182.327
 30
0.000000
  70
    32
  0
VERTEX
  8
0
  5
7B14
 10
390.422
 20
182.324
 30
0.000000
  70
    32
  0
VERTEX
  8
0
  5
7B15
 10
390.417
 20
182.322
 30
0.000000
  70
    32
  0
VERTEX
  8
0
  5
7B16
 10
390.412
 20
182.319
 30
0.000000
  70
    32
  0
VERTEX
  8
0
  5
7B17
 10
390.407
 20
182.316
 30
0.000000
  70
    32
  0
VERTEX
  8
0
  5
7B18
 10
390.402
 20
182.314
 30
0.000000
  70
    32
  0
VERTEX
  8
0
  5
7B19
 10
390.397
 20
182.311
 30
0.000000
  70
    32
  0
VERTEX
  8
0
  5
7B1A
 10
390.392
 20
182.308
 30
0.000000
  70
    32
  0
VERTEX
  8
0
  5
7B1B
 10
390.387
 20
182.305
 30
0.000000
  70
    32
  0
VERTEX
  8
0
  5
7B1C
 10
390.382
 20
182.302
 30
0.000000
  70
    32
  0
VERTEX
  8
0
  5
7B1D
 10
390.377
 20
182.299
 30
0.000000
  70
    32
  0
VERTEX
  8
0
  5
7B1E
 10
390.372
 20
182.296
 30
0.000000
  70
    32
  0
VERTEX
  8
0
  5
7B1F
 10
390.367
 20
182.293
 30
0.000000
  70
    32
  0
VERTEX
  8
0
  5
7B20
 10
390.362
 20
182.290
 30
0.000000
  70
    32
  0
VERTEX
  8
0
  5
7B21
 10
390.357
 20
182.287
 30
0.000000
  70
    32
  0
VERTEX
  8
0
  5
7B22
 10
390.352
 20
182.284
 30
0.000000
  70
    32
  0
VERTEX
  8
0
  5
7B23
 10
390.347
 20
182.281
 30
0.000000
  70
    32
  0
VERTEX
  8
0
  5
7B24
 10
390.342
 20
182.278
 30
0.000000
  70
    32
  0
VERTEX
  8
0
  5
7B25
 10
390.337
 20
182.275
 30
0.000000
  70
    32
  0
VERTEX
  8
0
  5
7B26
 10
390.332
 20
182.272
 30
0.000000
  70
    32
  0
VERTEX
  8
0
  5
7B27
 10
390.327
 20
182.269
 30
0.000000
  70
    32
  0
VERTEX
  8
0
  5
7B28
 10
390.322
 20
182.265
 30
0.000000
  70
    32
  0
VERTEX
  8
0
  5
7B29
 10
390.317
 20
182.262
 30
0.000000
  70
    32
  0
VERTEX
  8
0
  5
7B2A
 10
390.313
 20
182.259
 30
0.000000
  70
    32
  0
VERTEX
  8
0
  5
7B2B
 10
390.308
 20
182.256
 30
0.000000
  70
    32
  0
VERTEX
  8
0
  5
7B2C
 10
390.303
 20
182.252
 30
0.000000
  70
    32
  0
VERTEX
  8
0
  5
7B2D
 10
390.298
 20
182.249
 30
0.000000
  70
    32
  0
VERTEX
  8
0
  5
7B2E
 10
390.293
 20
182.245
 30
0.000000
  70
    32
  0
VERTEX
  8
0
  5
7B2F
 10
390.288
 20
182.242
 30
0.000000
  70
    32
  0
VERTEX
  8
0
  5
7B30
 10
390.283
 20
182.239
 30
0.000000
  70
    32
  0
VERTEX
  8
0
  5
7B31
 10
390.278
 20
182.235
 30
0.000000
  70
    32
  0
VERTEX
  8
0
  5
7B32
 10
390.273
 20
182.232
 30
0.000000
  70
    32
  0
VERTEX
  8
0
  5
7B33
 10
390.268
 20
182.228
 30
0.000000
  70
    32
  0
VERTEX
  8
0
  5
7B34
 10
390.263
 20
182.224
 30
0.000000
  70
    32
  0
VERTEX
  8
0
  5
7B35
 10
390.258
 20
182.221
 30
0.000000
  70
    32
  0
VERTEX
  8
0
  5
7B36
 10
390.254
 20
182.217
 30
0.000000
  70
    32
  0
VERTEX
  8
0
  5
7B37
 10
390.249
 20
182.214
 30
0.000000
  70
    32
  0
VERTEX
  8
0
  5
7B38
 10
390.244
 20
182.210
 30
0.000000
  70
    32
  0
VERTEX
  8
0
  5
7B39
 10
390.239
 20
182.206
 30
0.000000
  70
    32
  0
VERTEX
  8
0
  5
7B3A
 10
390.234
 20
182.202
 30
0.000000
  70
    32
  0
VERTEX
  8
0
  5
7B3B
 10
390.229
 20
182.199
 30
0.000000
  70
    32
  0
VERTEX
  8
0
  5
7B3C
 10
390.224
 20
182.195
 30
0.000000
  70
    32
  0
VERTEX
  8
0
  5
7B3D
 10
390.220
 20
182.191
 30
0.000000
  70
    32
  0
SEQEND
  8
0
  5
7B3E
  0
LINE
  5
72D7
  8
0
 10
387.01952979272511
 20
177.94033784766111
 30
0.0
 11
387.01952979272511
 21
202.476226241798
 31
0.0
  0
LINE
  5
72D8
  8
0
 10
407.6195297927249
 20
177.94033784766111
 30
0.0
 11
407.6195297927249
 21
202.476226241798
 31
0.0
  0
LINE
  5
72DA
  8
0
 10
407.6195297927249
 20
177.94033784766111
 30
0.0
 11
406.91952979272492
 21
177.94033784766111
 31
0.0
  0
LINE
  5
72DB
  8
0
 10
404.41952979272492
 20
177.94033784766111
 30
0.0
 11
402.4195297927248
 21
177.94033784766111
 31
0.0
  0
LINE
  5
72DC
  8
0
 10
392.21952979272493
 20
177.94033784766111
 30
0.0
 11
390.21952979272493
 21
177.94033784766111
 31
0.0
  0
LINE
  5
72DD
  8
0
 10
387.71952979272493
 20
177.94033784766111
 30
0.0
 11
387.01952979272511
 21
177.94033784766111
 31
0.0
  0
LINE
  5
72E1
  8
0
 10
386.35301160434187
 20
168.44033784766111
 30
0.0
 11
386.35301160434187
 21
160.44033784766111
 31
0.0
  0
LINE
  5
72E2
  8
0
 10
408.38618719498618
 20
162.44033784766111
 30
0.0
 11
408.38618719498618
 21
166.44033784766111
 31
0.0
  0
LINE
  5
72E3
  8
0
 10
408.28604798110808
 20
160.44033784766111
 30
0.0
 11
408.28604798110808
 21
168.44033784766111
 31
0.0
  0
ARC
  5
72E5
  8
0
 10
453.30029190625459
 20
289.82033784766162
 30
0.0
 40
75.980762113529764
 50
164.73851957514
 51
180.00000000000321
  0
ARC
  5
72E7
  8
0
 10
341.33876767919469
 20
289.82033784766162
 30
0.0
 40
75.980762113530204
 50
359.99999999999841
 51
15.261480424860039
  0
ARC
  5
72E9
  8
0
 10
453.30029190625618
 20
289.82033784766082
 30
0.0
 40
75.980762113531284
 50
180.00000000000159
 51
195.26148042486
  0
ARC
  5
72EA
  8
0
 10
341.33876767919401
 20
289.82033784766071
 30
0.0
 40
75.980762113531
 50
344.73851957514
 51
0.0
  0
ARC
  5
72EB
  8
0
 10
417.81380841748359
 20
300.0635795920482
 30
0.0
 40
39.05319993110448
 50
141.3374977905587
 51
165.53239985528279
  0
ARC
  5
72ED
  8
0
 10
376.82525116796592
 20
300.06357959204797
 30
0.0
 40
39.053199931104487
 50
14.467600144715639
 51
38.66250220944125
  0
ARC
  5
72EE
  8
0
 10
376.8200454301986
 20
279.5796989721569
 30
0.0
 40
39.058890890359081
 50
321.33928707598642
 51
345.5306105698574
  0
LINE
  5
72F1
  8
0
 10
401.9195297927248
 20
259.92031971445363
 30
0.0
 11
404.41952979272457
 21
259.92031971445363
 31
0.0
  0
LINE
  5
72F5
  8
0
 10
390.21952979272493
 20
259.92031971445363
 30
0.0
 11
392.71952979272459
 21
259.92031971445363
 31
0.0
  0
ARC
  5
72F8
  8
0
 10
417.81901415525169
 20
279.57969897215833
 30
0.0
 40
39.058890890359912
 50
194.46938943014419
 51
218.6607129240162
  0
ARC
  5
72F9
  8
0
 10
397.69365966435038
 20
317.1125830596601
 30
0.0
 40
12.713260986576779
 50
91.686361814934642
 51
144.687209049106
  0
ARC
  5
72FA
  8
0
 10
396.9453999210989
 20
317.11258305965868
 30
0.0
 40
12.713260986577421
 50
35.312790950902993
 51
88.313638185084898
  0
ARC
  5
72FB
  8
0
 10
396.5438458339504
 20
263.27740276324499
 30
0.0
 40
13.479402128672829
 50
306.54140603241751
 51
323.07461275451442
  0
ARC
  5
72FD
  8
0
 10
396.54384583394358
 20
263.27740276333401
 30
0.0
 40
13.47940212875406
 50
284.84967881683349
 51
292.8101698901869
  0
ARC
  5
72FE
  8
0
 10
397.31952979272501
 20
246.9623480808437
 30
0.0
 40
4.2394713184166877
 50
50.810455677491191
 51
129.18954432250879
  0
ARC
  5
72FF
  8
0
 10
398.09521375149887
 20
263.27740276331429
 30
0.0
 40
13.479402128733151
 50
247.1898301098131
 51
255.1503211831799
  0
ARC
  5
7302
  8
0
 10
398.09521375147688
 20
263.27740276322231
 30
0.0
 40
13.47940212864097
 50
216.9253872454687
 51
233.4585939675998
  0
ARC
  5
730D
  8
0
 10
377.97818575695368
 20
299.80314990570611
 30
0.0
 40
0.7200000000002447
 50
94.667793875284886
 51
250.23281011957539
  0
ARC
  5
730E
  8
0
 10
377.66704260493162
 20
298.93736128313708
 30
0.0
 40
0.200000000010696
 50
353.12677817239592
 51
70.232809040990659
  0
ARC
  5
730F
  8
0
 10
377.97818575695368
 20
279.83752578961611
 30
0.0
 40
0.7200000000001016
 50
109.7671901146867
 51
265.33218990376821
  0
ARC
  5
7310
  8
0
 10
377.31952979272501
 20
289.82033784766111
 30
0.0
 40
0.7199999999999537
 50
102.21748801733639
 51
257.78251197445269
  0
ARC
  5
7311
  8
0
 10
377.12483639914439
 20
288.92117463528211
 30
0.0
 40
0.2000000000000123
 50
0.6762790498203656
 51
77.782475067173522
  0
ARC
  5
7312
  8
0
 10
377.12483639914439
 20
290.71950106004022
 30
0.0
 40
0.2000000000000123
 50
282.21752496240418
 51
359.32372095017962
  0
ARC
  5
7313
  8
0
 10
377.22983777465168
 20
293.9184501461221
 30
0.0
 40
0.2000000000104896
 50
356.91611575715422
 51
74.022504721340297
  0
ARC
  5
7314
  8
0
 10
377.48307631236571
 20
294.8029105709212
 30
0.0
 40
0.7199999999999868
 50
98.457517855683989
 51
254.0225419333585
  0
ARC
  5
7315
  8
0
 10
377.48307631236588
 20
284.83776512440107
 30
0.0
 40
0.7200000000000042
 50
105.9774742529102
 51
261.54248213807949
  0
ARC
  5
7316
  8
0
 10
397.31952979272501
 20
242.22554842218699
 30
0.0
 40
7.9298328610598352
 50
78.683510384029731
 51
101.3164896159703
  0
ARC
  5
7317
  8
0
 10
398.0005027297118
 20
262.84033735519569
 30
0.0
 40
13.03255411040805
 50
255.0607306845709
 51
260.1162634553861
  0
ARC
  5
7318
  8
0
 10
396.54384583397518
 20
263.27740276325699
 30
0.0
 40
13.47940212867125
 50
279.96145181061672
 51
285.1626979888386
  0
LINE
  5
7319
  8
0
 10
404.5695297927245
 20
252.4476899904918
 30
0.0
 11
404.41952979272492
 21
252.338121071655
 31
0.0
  0
LINE
  5
731A
  8
0
 10
401.9195297927248
 20
250.9163225628034
 30
0.0
 11
401.76952979272471
 21
250.85216598846381
 31
0.0
  0
LINE
  5
731B
  8
0
 10
392.86952979272502
 20
250.85216598846341
 30
0.0
 11
392.71952979272493
 21
250.9163225628034
 31
0.0
  0
LINE
  5
731C
  8
0
 10
390.21952979272493
 20
252.338121071655
 30
0.0
 11
390.06952979272501
 21
252.44768999049211
 31
0.0
  0
LINE
  5
731D
  8
0
 10
386.35301160434187
 20
228.44033784766279
 30
0.0
 11
386.35301160434187
 21
220.44033784765949
 31
0.0
  0
LINE
  5
731E
  8
0
 10
408.38618719498618
 20
222.4403378476575
 30
0.0
 11
408.38618719498618
 21
226.44033784766111
 31
0.0
  0
LINE
  5
7320
  8
0
 10
408.28604798110808
 20
220.44033784766111
 30
0.0
 11
408.28604798110808
 21
228.44033784766111
 31
0.0
  0
ARC
  5
7321
  8
0
 10
391.21952979272459
 20
235.95033784766119
 30
0.0
 40
3.499999999999829
 50
165.33146831692849
 51
180.00000000000159
  0
LINE
  5
7322
  8
0
 10
390.1869367700013
 20
245.82711118967021
 30
0.0
 11
387.83360537225809
 21
236.83663115062919
 31
0.0
  0
ARC
  5
7323
  8
0
 10
389.21952979272533
 20
246.0803378476611
 30
0.0
 40
0.999999999999741
 50
345.33146831692233
 51
0.0
  0
LINE
  5
7324
  8
0
 10
390.21952979272493
 20
259.92031971445363
 30
0.0
 11
390.21952979272493
 21
246.0803378476611
 31
0.0
  0
LINE
  5
7325
  8
0
 10
392.71952979272493
 20
244.44033784766111
 30
0.0
 11
392.71952979272493
 21
259.92031971445363
 31
0.0
  0
ARC
  5
7326
  8
0
 10
389.21952979272493
 20
246.0803378476611
 30
0.0
 40
3.5000000000000751
 50
345.33146831692858
 51
0.0
  0
LINE
  5
7327
  8
0
 10
390.25212281544867
 20
236.20356450565191
 30
0.0
 11
392.60545421319199
 21
245.19404454469301
 31
0.0
  0
ARC
  5
7328
  8
0
 10
391.21952979272442
 20
235.95033784766119
 30
0.0
 40
0.9999999999994884
 50
165.33146831692849
 51
180.00000000000321
  0
LINE
  5
7329
  8
0
 10
390.21952979272493
 20
157.94033784766111
 30
0.0
 11
390.21952979272493
 21
235.9503378476611
 31
0.0
  0
LINE
  5
732B
  8
0
 10
387.71952979272493
 20
235.9503378476611
 30
0.0
 11
387.71952979272493
 21
157.94033784766111
 31
0.0
  0
ARC
  5
732C
  8
0
 10
405.4195297927244
 20
246.0803378476611
 30
0.0
 40
3.4999999999996678
 50
180.0
 51
194.66853168307301
  0
LINE
  5
732D
  8
0
 10
401.9195297927248
 20
259.92031971445363
 30
0.0
 11
401.9195297927248
 21
244.44033784766111
 31
0.0
  0
LINE
  5
732E
  8
0
 10
404.41952979272492
 20
246.0803378476611
 30
0.0
 11
404.41952979272492
 21
259.92031971445363
 31
0.0
  0
ARC
  5
732F
  8
0
 10
405.4195297927244
 20
246.0803378476611
 30
0.0
 40
0.999999999999741
 50
179.99999999999841
 51
194.66853168307929
  0
LINE
  5
7330
  8
0
 10
406.80545421319169
 20
236.8366311506291
 30
0.0
 11
404.45212281544849
 21
245.82711118967021
 31
0.0
  0
ARC
  5
7331
  8
0
 10
403.41952979272531
 20
235.95033784766119
 30
0.0
 40
3.4999999999996021
 50
0.0
 51
14.668531683071411
  0
LINE
  5
7332
  8
0
 10
406.91952979272492
 20
157.94033784766111
 30
0.0
 11
406.91952979272492
 21
235.9503378476611
 31
0.0
  0
LINE
  5
7334
  8
0
 10
404.41952979272492
 20
235.9503378476611
 30
0.0
 11
404.41952979272492
 21
157.94033784766111
 31
0.0
  0
ARC
  5
7335
  8
0
 10
403.41952979272531
 20
235.95033784766119
 30
0.0
 40
0.9999999999994779
 50
359.99999999999682
 51
14.668531683071411
  0
LINE
  5
7336
  8
0
 10
402.03360537225802
 20
245.1940445446931
 30
0.0
 11
404.38693677000123
 21
236.203564505652
 31
0.0
  0
LINE
  5
733B
  8
0
 10
401.9195297927248
 20
249.44033784766111
 30
0.0
 11
392.71952979272493
 21
249.44033784766111
 31
0.0
  0
LINE
  5
733D
  8
0
 10
392.71952979272493
 20
244.44033784766111
 30
0.0
 11
401.9195297927248
 21
244.44033784766111
 31
0.0
  0
LINE
  5
7347
  8
0
 10
392.21952979272493
 20
180.44033784766111
 30
0.0
 11
402.4195297927248
 21
180.44033784766111
 31
0.0
  0
LINE
  5
7348
  8
0
 10
402.4195297927248
 20
155.44033784766111
 30
0.0
 11
392.21952979272493
 21
155.44033784766111
 31
0.0
  0
LINE
  5
7356
  8
0
 10
419.81952979272472
 20
145.44033784766111
 30
0.0
 11
399.91952979272492
 21
145.44033784766111
 31
0.0
  0
LINE
  5
7357
  8
0
 10
419.8195297927245
 20
147.94033784766111
 30
0.0
 11
402.4195297927248
 21
147.94033784766111
 31
0.0
  0
LINE
  5
7358
  8
0
 10
399.91952979272492
 20
155.44033784766111
 30
0.0
 11
399.91952979272492
 21
145.44033784766111
 31
0.0
  0
LINE
  5
735A
  8
0
 10
392.21952979272493
 20
147.94033784766111
 30
0.0
 11
374.81952979272501
 21
147.94033784766111
 31
0.0
  0
LINE
  5
735B
  8
0
 10
374.81952979272478
 20
145.44033784766111
 30
0.0
 11
394.71952979272493
 21
145.44033784766111
 31
0.0
  0
LINE
  5
735E
  8
0
 10
394.71952979272493
 20
145.44033784766111
 30
0.0
 11
394.71952979272493
 21
155.44033784766111
 31
0.0
  0
LINE
  5
735F
  8
0
 10
419.81952979272472
 20
145.44033784766111
 30
0.0
 11
419.81952979272472
 21
147.94033784766111
 31
0.0
  0
LINE
  5
7363
  8
0
 10
402.4195297927248
 20
198.94033784766111
 30
0.0
 11
399.91952979272492
 21
198.94033784766111
 31
0.0
  0
LINE
  5
7364
  8
0
 10
399.91952979272492
 20
198.94033784766111
 30
0.0
 11
399.91952979272492
 21
180.44033784766111
 31
0.0
  0
LINE
  5
7365
  8
0
 10
402.4195297927248
 20
147.94033784766111
 30
0.0
 11
402.4195297927248
 21
198.94033784766111
 31
0.0
  0
LINE
  5
7368
  8
0
 10
392.21952979272493
 20
198.94033784766111
 30
0.0
 11
394.71952979272493
 21
198.94033784766111
 31
0.0
  0
LINE
  5
736A
  8
0
 10
392.21952979272493
 20
147.94033784766111
 30
0.0
 11
392.21952979272493
 21
198.94033784766111
 31
0.0
  0
LINE
  5
736B
  8
0
 10
394.71952979272493
 20
180.44033784766111
 30
0.0
 11
394.71952979272493
 21
198.94033784766111
 31
0.0
  0
LINE
  5
736E
  8
0
 10
374.81952979272501
 20
147.94033784766111
 30
0.0
 11
374.81952979272501
 21
145.44033784766111
 31
0.0
  0
LINE
  5
7375
  8
0
 10
237.28954130775381
 20
68.526747770894502
 30
0.0
 11
237.28954130775381
 21
73.726747770894491
 31
0.0
  0
LINE
  5
7376
  8
0
 10
228.28954130775381
 20
73.726747770894491
 30
0.0
 11
228.28954130775381
 21
68.526747770894502
 31
0.0
  0
LINE
  5
7377
  8
0
 10
259.28954130775378
 20
68.526747770894502
 30
0.0
 11
259.28954130775378
 21
68.576747770894372
 31
0.0
  0
LINE
  5
7378
  8
0
 10
259.28954130775378
 20
73.676747770894366
 30
0.0
 11
259.28954130775378
 21
73.726747770894491
 31
0.0
  0
LINE
  5
7379
  8
0
 10
253.28954130775381
 20
73.726747770894491
 30
0.0
 11
253.28954130775381
 21
73.676747770894366
 31
0.0
  0
LINE
  5
737A
  8
0
 10
253.28954130775381
 20
68.576747770894372
 30
0.0
 11
253.28954130775381
 21
68.526747770894502
 31
0.0
  0
LINE
  5
737B
  8
0
 10
218.48954130775371
 20
73.626747770894184
 30
0.0
 11
218.4895413077538
 21
68.626747770894212
 31
0.0
  0
LINE
  5
737E
  8
0
 10
260.78954130775378
 20
71.076747770894372
 30
0.0
 11
260.78954130775378
 21
71.176747770894366
 31
0.0
  0
LINE
  5
737F
  8
0
 10
251.78954130775381
 20
71.176747770894366
 30
0.0
 11
251.78954130775381
 21
71.076747770894372
 31
0.0
  0
LINE
  5
7380
  8
0
 10
215.69859248709281
 20
91.126747770893985
 30
0.0
 11
215.69859248709281
 21
77.814340221217691
 31
0.0
  0
LINE
  5
7381
  8
0
 10
215.69859248709281
 20
75.055856590048819
 30
0.0
 11
215.69859248709281
 21
67.19763895173989
 31
0.0
  0
LINE
  5
7382
  8
0
 10
215.69859248709281
 20
64.439155320571047
 30
0.0
 11
215.69859248709281
 21
51.126747770893992
 31
0.0
  0
LINE
  5
7383
  8
0
 10
215.69859248709281
 20
51.126747770893992
 30
0.0
 11
225.9395413077539
 21
51.126747770893992
 31
0.0
  0
LINE
  5
7384
  8
0
 10
244.69059124599721
 20
68.526747770894502
 30
0.0
 11
244.69059124599721
 21
68.576747770894372
 31
0.0
  0
LINE
  5
7385
  8
0
 10
244.69059124599721
 20
71.076747770894372
 30
0.0
 11
244.69059124599721
 21
71.176747770894366
 31
0.0
  0
LINE
  5
7386
  8
0
 10
244.69059124599721
 20
73.676747770894366
 30
0.0
 11
244.69059124599721
 21
73.726747770894491
 31
0.0
  0
LINE
  5
7387
  8
0
 10
225.9395413077539
 20
91.126747770893985
 30
0.0
 11
215.69859248709281
 21
91.126747770893985
 31
0.0
  0
LINE
  5
7388
  8
0
 10
225.9395413077539
 20
51.065403735122828
 30
0.0
 11
226.46079109068179
 21
51.065403735122828
 31
0.0
  0
LINE
  5
7389
  8
0
 10
226.4607910906812
 20
91.188091806665227
 30
0.0
 11
225.9395413077539
 21
91.188091806665227
 31
0.0
  0
LINE
  5
738A
  8
0
 10
226.8685476228809
 20
91.683201251253095
 30
0.0
 11
225.9395413077539
 21
91.683201251253095
 31
0.0
  0
LINE
  5
738B
  8
0
 10
225.9395413077539
 20
50.570294290534918
 30
0.0
 11
226.86854762288181
 21
50.570294290534918
 31
0.0
  0
LINE
  5
738C
  8
0
 10
225.9395413077539
 20
50.406747770893993
 30
0.0
 11
227.0243801150209
 21
50.406747770893993
 31
0.0
  0
LINE
  5
738D
  8
0
 10
227.02438011501971
 20
91.846747770894012
 30
0.0
 11
225.9395413077539
 21
91.846747770894012
 31
0.0
  0
ARC
  5
738E
  8
0
 10
171.28954130775381
 20
71.126747770894383
 30
0.0
 40
8.4226497308103756
 50
161.7721023834726
 51
198.22789761652891
  0
ARC
  5
738F
  8
0
 10
171.28954130775381
 20
71.126747770894383
 30
0.0
 40
8.4226497308103756
 50
330.87066515554147
 51
29.129334844459489
  0
ARC
  5
7390
  8
0
 10
171.28954130775381
 20
71.126747770894355
 30
0.0
 40
9.0000000000000036
 50
332.89931465176011
 51
27.1006853482411
  0
ARC
  5
7391
  8
0
 10
171.28954130775381
 20
71.126747770894355
 30
0.0
 40
9.0000000000000036
 50
152.7339555492685
 51
207.26604445073289
  0
LINE
  5
7398
  8
0
 10
167.53676455802119
 20
64.626747770894497
 30
0.0
 11
175.04231805748631
 21
64.626747770894497
 31
0.0
  0
LINE
  5
739A
  8
0
 10
175.0423180574864
 20
64.626747770894497
 30
0.0
 11
178.79509480721879
 21
71.126747770894497
 31
0.0
  0
LINE
  5
739C
  8
0
 10
178.7950948072189
 20
71.126747770894497
 30
0.0
 11
175.04231805748651
 21
77.626747770894497
 31
0.0
  0
LINE
  5
739F
  8
0
 10
163.7839878082886
 20
71.126747770894497
 30
0.0
 11
167.53676455802139
 21
64.626747770894497
 31
0.0
  0
LINE
  5
73A0
  8
0
 10
175.04231805748631
 20
77.626747770894497
 30
0.0
 11
167.5367645580211
 21
77.626747770894497
 31
0.0
  0
LINE
  5
73A3
  8
0
 10
167.53676455802119
 20
77.626747770894497
 30
0.0
 11
163.78398780828871
 21
71.126747770894411
 31
0.0
  0
LINE
  5
73AD
  8
0
 10
218.4895413077538
 20
68.626747770894212
 30
0.0
 11
218.763084697674
 21
68.626747770894212
 31
0.0
  0
LINE
  5
73B6
  8
0
 10
218.4895413077538
 20
73.626747770894212
 30
0.0
 11
218.7630846976746
 21
73.626747770894212
 31
0.0
  0
LINE
  5
73B8
  8
0
 10
225.9895413077538
 20
68.526747770894502
 30
0.0
 11
225.9895413077538
 21
68.576747770894372
 31
0.0
  0
LINE
  5
73BB
  8
0
 10
225.9895413077538
 20
73.726747770894491
 30
0.0
 11
225.9895413077538
 21
73.676747770894366
 31
0.0
  0
LINE
  5
73BC
  8
0
 10
220.4895413077538
 20
72.821624377585394
 30
0.0
 11
220.4895413077538
 21
69.431871164203301
 31
0.0
  0
ARC
  5
73BD
  8
0
 10
223.4895413077538
 20
73.126747770894255
 30
0.0
 40
3.0000000000000009
 50
93.822553729270865
 51
136.4254038013336
  0
LINE
  5
73BE
  8
0
 10
222.9895413077538
 20
70.577740557635423
 30
0.0
 11
222.9895413077538
 21
71.675754984153286
 31
0.0
  0
ARC
  5
73BF
  8
0
 10
223.4895413077538
 20
69.126747770894298
 30
0.0
 40
2.9999999999999978
 50
223.57459619866401
 51
266.17744627072261
  0
LINE
  5
73C3
  8
0
 10
206.28954130775381
 20
60.826747770894372
 30
0.0
 11
206.28954130775381
 21
81.426747770894394
 31
0.0
  0
LINE
  5
73C4
  8
0
 10
163.28954130775381
 20
60.826747770894372
 30
0.0
 11
206.28954130775381
 21
60.826747770894372
 31
0.0
  0
LINE
  5
73C5
  8
0
 10
163.28954130775381
 20
81.426747770894394
 30
0.0
 11
163.28954130775381
 21
60.826747770894372
 31
0.0
  0
LINE
  5
73C6
  8
0
 10
206.28954130775381
 20
81.426747770894394
 30
0.0
 11
163.28954130775381
 21
81.426747770894394
 31
0.0
  0
LINE
  5
73C7
  8
0
 10
210.28954130775381
 20
77.578337383754132
 30
0.0
 11
208.4027694192973
 21
78.458222911351641
 31
0.0
  0
ARC
  5
73C8
  8
0
 10
206.28954130775369
 20
73.926747770893911
 30
0.0
 40
5.0000000000004663
 50
64.99827028286974
 51
89.999999999993491
  0
ARC
  5
73C9
  8
0
 10
206.28954130775369
 20
73.926747770893769
 30
0.0
 40
7.5000000000006262
 50
64.998270282870422
 51
90.0
  0
LINE
  5
73CA
  8
0
 10
209.45938347506899
 20
80.723960481580306
 30
0.0
 11
210.28954130775381
 21
80.336821014922975
 31
0.0
  0
LINE
  5
73CC
  8
0
 10
208.4027694192973
 20
63.795272630437069
 30
0.0
 11
210.28954130775381
 21
64.675158158034577
 31
0.0
  0
LINE
  5
73CE
  8
0
 10
210.28954130775381
 20
61.916674526865727
 30
0.0
 11
209.45938347506899
 21
61.529535060208417
 31
0.0
  0
ARC
  5
73CF
  8
0
 10
206.28954130775571
 20
68.326747770886044
 30
0.0
 40
7.4999999999916849
 50
269.99999999998698
 51
295.00172971714483
  0
ARC
  5
73D0
  8
0
 10
206.2895413077535
 20
68.326747770895736
 30
0.0
 40
5.0000000000014007
 50
270.0
 51
295.00172971712948
  0
LINE
  5
73D2
  8
0
 10
225.67954130775391
 20
68.576747770894372
 30
0.0
 11
228.28954130775381
 21
68.576747770894372
 31
0.0
  0
ARC
  5
73D4
  8
0
 10
225.67954130775379
 20
63.576747770894769
 30
0.0
 40
4.9999999999996092
 50
90.0
 51
98.109614455996066
  0
ARC
  5
73D5
  8
0
 10
225.6795413077536
 20
63.576747770894741
 30
0.0
 40
7.4999999999996172
 50
90.0
 51
115.0017297171302
  0
LINE
  5
73D7
  8
0
 10
228.28954130775389
 20
71.076747770894372
 30
0.0
 11
225.67954130775379
 21
71.076747770894372
 31
0.0
  0
LINE
  5
73D8
  8
0
 10
210.28954130775381
 20
61.916674526865727
 30
0.0
 11
223.28954130775381
 21
67.979151887669019
 31
0.0
  0
LINE
  5
73D9
  8
0
 10
222.5096991404387
 20
70.373960481580283
 30
0.0
 11
210.28954130775381
 21
64.675158158034577
 31
0.0
  0
LINE
  5
73DA
  8
0
 10
264.28954130775378
 20
71.076747770894343
 30
0.0
 11
237.28954130775381
 21
71.076747770894414
 31
0.0
  0
LINE
  5
73DB
  8
0
 10
264.28954130775378
 20
68.576747770894343
 30
0.0
 11
264.28954130775378
 21
71.076747770894343
 31
0.0
  0
LINE
  5
73DC
  8
0
 10
237.28954130775381
 20
68.576747770894485
 30
0.0
 11
264.28954130775378
 21
68.576747770894343
 31
0.0
  0
ARC
  5
73DD
  8
0
 10
225.6795413077536
 20
78.676747770893371
 30
0.0
 40
4.9999999999989964
 50
261.890385544004
 51
270.0
  0
LINE
  5
73DF
  8
0
 10
228.28954130775381
 20
73.676747770894366
 30
0.0
 11
225.6795413077536
 21
73.676747770894366
 31
0.0
  0
LINE
  5
73E1
  8
0
 10
225.6795413077536
 20
71.176747770894366
 30
0.0
 11
228.28954130775381
 21
71.176747770894366
 31
0.0
  0
ARC
  5
73E3
  8
0
 10
225.6795413077536
 20
78.676747770893996
 30
0.0
 40
7.4999999999996492
 50
244.99827028287041
 51
270.0
  0
LINE
  5
73E4
  8
0
 10
223.28954130775381
 20
74.274343654119718
 30
0.0
 11
210.28954130775381
 21
80.336821014922975
 31
0.0
  0
LINE
  5
73E5
  8
0
 10
210.28954130775381
 20
77.578337383754132
 30
0.0
 11
222.5096991404387
 21
71.879535060208411
 31
0.0
  0
LINE
  5
73E6
  8
0
 10
264.28954130775378
 20
71.176747770894323
 30
0.0
 11
264.28954130775378
 21
73.676747770894323
 31
0.0
  0
LINE
  5
73E7
  8
0
 10
264.28954130775378
 20
73.676747770894323
 30
0.0
 11
237.28954130775381
 21
73.676747770894465
 31
0.0
  0
LINE
  5
73E8
  8
0
 10
237.28954130775381
 20
71.176747770894451
 30
0.0
 11
264.28954130775378
 21
71.176747770894323
 31
0.0
  0
ARC
  5
73E9
  8
0
 10
256.52391566915179
 20
99.355832589171627
 30
0.0
 40
39.090058384935752
 50
207.7966924046938
 51
216.2768243439458
  0
ARC
  5
73EA
  8
0
 10
256.52391566911319
 20
42.897662952641433
 30
0.0
 40
39.090058384889943
 50
143.72317565604629
 51
152.20330759531501
  0
ARC
  5
73F2
  8
0
 10
648.53905176120384
 20
352.62277357674787
 30
0.0
 40
505.66092233570049
 50
211.4958022588763
 51
212.47375343880859
  0
ARC
  5
73F3
  8
0
 10
648.53905176049534
 20
-210.3692780345329
 30
0.0
 40
505.66092233487342
 50
147.5262465611865
 51
148.5041977411237
  0
ARC
  5
73F7
  8
0
 10
282.6573355217547
 20
131.10159022216649
 30
0.0
 40
77.983663992076316
 50
210.851091484893
 51
213.1590470537314
  0
ARC
  5
73F8
  8
0
 10
280.25262110368158
 20
12.67559666066742
 30
0.0
 40
75.13714882028043
 50
146.8106583436589
 51
149.21978595865841
  0
LINE
  5
73F9
  8
0
 10
215.69954130775329
 20
51.126747770893992
 30
0.0
 11
215.7078064131363
 21
51.142110889054521
 31
0.0
  0
LINE
  5
73FA
  8
0
 10
225.9395413077539
 20
50.406747770893993
 30
0.0
 11
225.9395413077539
 21
51.908477879704748
 31
0.0
  0
LINE
  5
73FB
  8
0
 10
233.4395413077539
 20
51.834711926618183
 30
0.0
 11
233.4395413077539
 21
51.908477879704748
 31
0.0
  0
LINE
  5
73FC
  8
0
 10
225.9395413077539
 20
90.345017662083308
 30
0.0
 11
225.9395413077537
 21
91.846747770894012
 31
0.0
  0
LINE
  5
73FD
  8
0
 10
233.4395413077539
 20
90.41878361517081
 30
0.0
 11
233.4395413077539
 21
90.345017662083308
 31
0.0
  0
ARC
  5
7404
  8
0
 10
234.28954130775381
 20
55.126747770894497
 30
0.0
 40
3.3999999999999981
 50
90.0
 51
270.0
  0
LINE
  5
7405
  8
0
 10
235.28954130775381
 20
51.726747770894491
 30
0.0
 11
234.28954130775381
 21
51.726747770894491
 31
0.0
  0
ARC
  5
7406
  8
0
 10
235.28954130775381
 20
55.126747770894497
 30
0.0
 40
3.3999999999999981
 50
270.0
 51
90.0
  0
LINE
  5
7407
  8
0
 10
234.28954130775381
 20
58.526747770894467
 30
0.0
 11
235.28954130775381
 21
58.526747770894467
 31
0.0
  0
ARC
  5
7408
  8
0
 10
254.28954130775381
 20
55.126747770894497
 30
0.0
 40
3.3999999999999981
 50
90.0
 51
270.0
  0
LINE
  5
7409
  8
0
 10
255.28954130775381
 20
51.726747770894491
 30
0.0
 11
254.28954130775381
 21
51.726747770894491
 31
0.0
  0
ARC
  5
740A
  8
0
 10
255.28954130775381
 20
55.126747770894497
 30
0.0
 40
3.3999999999999981
 50
270.0
 51
90.0
  0
LINE
  5
740B
  8
0
 10
254.28954130775381
 20
58.526747770894467
 30
0.0
 11
255.28954130775381
 21
58.526747770894467
 31
0.0
  0
LINE
  5
740C
  8
0
 10
231.28954130775401
 20
48.62674777089449
 30
0.0
 11
258.28954130775378
 21
48.62674777089449
 31
0.0
  0
ARC
  5
740D
  8
0
 10
231.28954130775401
 20
54.626747770894497
 30
0.0
 40
6.000000000000056
 50
180.0
 51
270.0
  0
LINE
  5
740E
  8
0
 10
225.28954130775381
 20
54.626747770894497
 30
0.0
 11
225.28954130775381
 21
68.526747770894502
 31
0.0
  0
LINE
  5
7410
  8
0
 10
264.28954130775378
 20
54.626747770894497
 30
0.0
 11
264.28954130775378
 21
68.526747770894502
 31
0.0
  0
ARC
  5
7411
  8
0
 10
258.28954130775378
 20
54.626747770894497
 30
0.0
 40
6.0
 50
270.0
 51
0.0
  0
ARC
  5
7412
  8
0
 10
234.28954130775381
 20
87.126747770894497
 30
0.0
 40
3.4000000000000048
 50
90.0
 51
270.0
  0
LINE
  5
7413
  8
0
 10
235.28954130775381
 20
83.726747770894477
 30
0.0
 11
234.28954130775381
 21
83.726747770894477
 31
0.0
  0
ARC
  5
7414
  8
0
 10
235.28954130775381
 20
87.126747770894497
 30
0.0
 40
3.4000000000000048
 50
270.0
 51
90.0
  0
LINE
  5
7415
  8
0
 10
234.28954130775381
 20
90.526747770894474
 30
0.0
 11
235.28954130775381
 21
90.526747770894474
 31
0.0
  0
ARC
  5
7416
  8
0
 10
254.28954130775381
 20
87.126747770894497
 30
0.0
 40
3.4000000000000048
 50
90.0
 51
270.0
  0
LINE
  5
7417
  8
0
 10
255.28954130775381
 20
83.726747770894477
 30
0.0
 11
254.28954130775381
 21
83.726747770894477
 31
0.0
  0
ARC
  5
7418
  8
0
 10
255.28954130775381
 20
87.126747770894497
 30
0.0
 40
3.4000000000000048
 50
270.0
 51
90.0
  0
LINE
  5
7419
  8
0
 10
254.28954130775381
 20
90.526747770894474
 30
0.0
 11
255.28954130775381
 21
90.526747770894474
 31
0.0
  0
LINE
  5
741A
  8
0
 10
258.28954130775378
 20
93.626747770894497
 30
0.0
 11
231.28954130775381
 21
93.626747770894497
 31
0.0
  0
ARC
  5
741B
  8
0
 10
258.28954130775378
 20
87.626747770894497
 30
0.0
 40
6.0
 50
0.0
 51
90.0
  0
LINE
  5
741C
  8
0
 10
225.28954130775381
 20
73.726747770894491
 30
0.0
 11
225.28954130775381
 21
87.626747770894497
 31
0.0
  0
ARC
  5
741D
  8
0
 10
231.28954130775381
 20
87.626747770894497
 30
0.0
 40
6.0
 50
90.0
 51
180.0
  0
LINE
  5
741F
  8
0
 10
264.28954130775378
 20
87.626747770894497
 30
0.0
 11
264.28954130775378
 21
73.726747770894491
 31
0.0
  0
LINE
  5
7421
  8
0
 10
225.28954130775381
 20
66.026747770894474
 30
0.0
 11
223.28954130775381
 21
66.026747770894474
 31
0.0
  0
LINE
  5
7424
  8
0
 10
223.28954130775381
 20
76.226747770894463
 30
0.0
 11
225.28954130775381
 21
76.226747770894463
 31
0.0
  0
LINE
  5
7427
  8
0
 10
266.28954130775378
 20
66.026747770894474
 30
0.0
 11
264.28954130775378
 21
66.026747770894474
 31
0.0
  0
LINE
  5
7428
  8
0
 10
266.28954130775378
 20
68.526747770894474
 30
0.0
 11
223.28954130775381
 21
68.526747770894474
 31
0.0
  0
LINE
  5
742A
  8
0
 10
264.28954130775378
 20
76.226747770894463
 30
0.0
 11
266.28954130775378
 21
76.226747770894463
 31
0.0
  0
LINE
  5
742B
  8
0
 10
266.28954130775378
 20
73.726747770894463
 30
0.0
 11
223.28954130775381
 21
73.726747770894463
 31
0.0
  0
LINE
  5
742C
  8
0
 10
267.78954130775378
 20
72.226747770894463
 30
0.0
 11
267.78954130775378
 21
70.026747770894474
 31
0.0
  0
ARC
  5
742D
  8
0
 10
266.28954130775378
 20
72.226747770894463
 30
0.0
 40
1.500000000000014
 50
0.0
 51
90.0
  0
ARC
  5
742E
  8
0
 10
266.28954130775378
 20
72.226747770894491
 30
0.0
 40
4.0
 50
0.0
 51
90.0
  0
LINE
  5
742F
  8
0
 10
270.28954130775378
 20
70.026747770894474
 30
0.0
 11
270.28954130775378
 21
72.226747770894463
 31
0.0
  0
ARC
  5
7430
  8
0
 10
266.28954130775378
 20
70.026747770894474
 30
0.0
 40
4.0
 50
270.0
 51
0.0
  0
ARC
  5
7431
  8
0
 10
266.28954130775378
 20
70.026747770894474
 30
0.0
 40
1.5
 50
270.0
 51
0.0
  0
LINE
  5
7432
  8
0
 10
223.28954130775381
 20
66.026747770894445
 30
0.0
 11
223.28954130775381
 21
68.526747770894445
 31
0.0
  0
LINE
  5
7435
  8
0
 10
223.28954130775381
 20
76.226747770894463
 30
0.0
 11
223.28954130775381
 21
73.726747770894463
 31
0.0
  0
LINE
  5
7438
  8
0
 10
226.6326870582615
 20
71.176747770894366
 30
0.0
 11
226.6326870582615
 21
71.076747770894372
 31
0.0
  0
LINE
  5
7442
  8
0
 10
225.9395413077539
 20
51.908477879704748
 30
0.0
 11
225.940615359617
 21
51.908477879704748
 31
0.0
  0
LINE
  5
7443
  8
0
 10
233.1928467707649
 20
51.908477879704748
 30
0.0
 11
233.4395413077539
 21
51.908477879704748
 31
0.0
  0
LINE
  5
7444
  8
0
 10
233.4395413077539
 20
90.345017662083308
 30
0.0
 11
233.19284677076209
 21
90.345017662083308
 31
0.0
  0
LINE
  5
7445
  8
0
 10
225.9406153596164
 20
90.345017662083308
 30
0.0
 11
225.9395413077539
 21
90.345017662083308
 31
0.0
  0
LINE
  5
7446
  8
0
 10
226.0368877491737
 20
51.7268114623636
 30
0.0
 11
225.9395413077539
 21
51.726811366113338
 31
0.0
  0
LINE
  5
7447
  8
0
 10
225.9395413077539
 20
90.526684373540036
 30
0.0
 11
226.03688796765209
 21
90.52668447515515
 31
0.0
  0
ARC
  5
7448
  8
0
 10
377.9033176209557
 20
300.72009861664412
 30
0.0
 40
0.200000000010696
 50
274.66780275346139
 51
351.77383362206081
  0
ARC
  5
7449
  8
0
 10
377.34776620730207
 20
295.71290572227463
 30
0.0
 40
0.2000000000104896
 50
278.45755506770149
 51
355.56394403188438
  0
ARC
  5
744A
  8
0
 10
377.2298377746086
 20
285.72222554919352
 30
0.0
 40
0.2000000000104896
 50
285.97749527805661
 51
3.0838842422391441
  0
ARC
  5
744B
  8
0
 10
377.34776620723977
 20
283.92776997303957
 30
0.0
 40
0.2000000000104896
 50
4.4360559675113871
 51
81.542444931699237
  0
ARC
  5
7453
  8
0
 10
377.6670426049447
 20
280.70331441218661
 30
0.0
 40
0.200000000010696
 50
289.7671909590922
 51
6.8732218276881181
  0
ARC
  5
7454
  8
0
 10
377.90331762097139
 20
278.92057707868003
 30
0.0
 40
0.200000000010696
 50
8.2261663780216665
 51
85.332197246616929
  0
ARC
  5
7455
  8
0
 10
416.66087382848991
 20
299.80314990570611
 30
0.0
 40
0.7200000000002447
 50
289.76718988042461
 51
85.332206124708492
  0
ARC
  5
7456
  8
0
 10
416.97201698051202
 20
298.93736128313708
 30
0.0
 40
0.200000000010696
 50
109.7671909590093
 51
186.8732218276057
  0
ARC
  5
7457
  8
0
 10
416.66087382848991
 20
279.83752578961611
 30
0.0
 40
0.7200000000001016
 50
274.66781009623179
 51
70.232809885319426
  0
ARC
  5
7458
  8
0
 10
417.31952979271858
 20
289.82033784766111
 30
0.0
 40
0.7199999999999537
 50
282.2174880255406
 51
77.782511982670314
  0
ARC
  5
7459
  8
0
 10
417.5142231862992
 20
288.92117463528211
 30
0.0
 40
0.2000000000000123
 50
102.2175249328332
 51
179.32372095017959
  0
ARC
  5
745A
  8
0
 10
417.5142231862992
 20
290.71950106004022
 30
0.0
 40
0.2000000000000123
 50
180.67627904982029
 51
257.78247503760213
  0
ARC
  5
745B
  8
0
 10
417.40922181079191
 20
293.9184501461221
 30
0.0
 40
0.2000000000104896
 50
105.9774952786462
 51
183.08388424284411
  0
ARC
  5
745C
  8
0
 10
417.15598327307788
 20
294.8029105709212
 30
0.0
 40
0.7199999999999868
 50
285.97745806665438
 51
81.542482144309346
  0
ARC
  5
745D
  8
0
 10
417.15598327307771
 20
284.83776512440107
 30
0.0
 40
0.7200000000000042
 50
278.45751786193358
 51
74.022525747103202
  0
ARC
  5
745E
  8
0
 10
416.73574196448789
 20
300.72009861664412
 30
0.0
 40
0.200000000010696
 50
188.22616637793919
 51
265.3321972465319
  0
ARC
  5
745F
  8
0
 10
417.29129337814152
 20
295.71290572227463
 30
0.0
 40
0.2000000000104896
 50
184.4360559681156
 51
261.54244493229203
  0
ARC
  5
7460
  8
0
 10
417.40922181083499
 20
285.72222554919352
 30
0.0
 40
0.2000000000104896
 50
176.9161157577592
 51
254.0225047219501
  0
ARC
  5
7461
  8
0
 10
417.29129337820382
 20
283.92776997303957
 30
0.0
 40
0.2000000000104896
 50
98.457555068313894
 51
175.56394403249021
  0
ARC
  5
7462
  8
0
 10
416.97201698049878
 20
280.70331441218661
 30
0.0
 40
0.200000000010696
 50
173.1267781723119
 51
250.23280904090771
  0
ARC
  5
7463
  8
0
 10
416.7357419644722
 20
278.92057707868003
 30
0.0
 40
0.200000000010696
 50
94.667802753389708
 51
171.77383362197671
  0
CIRCLE
  5
7478
  8
0
 10
171.28954130775381
 20
387.25851083709631
 30
0.0
 40
4.0
  0
CIRCLE
  5
7479
  8
3
 10
171.28954130775381
 20
387.25851083709631
 30
0.0
 40
3.3235000000000001
  0
LINE
  5
747D
  8
3
 10
174.61304130775369
 20
196.3498361293785
 30
0.0
 11
174.61304130775369
 21
195.24033893246559
 31
0.0
  0
LINE
  5
747E
  8
3
 10
167.96604130775381
 20
196.34983520550631
 30
0.0
 11
167.96604130775381
 21
195.24033893246559
 31
0.0
  0
LINE
  5
7480
  8
3
 10
167.96604130775381
 20
173.94033786256219
 30
0.0
 11
167.96604130775381
 21
151.44033789981509
 31
0.0
  0
LINE
  5
7481
  8
3
 10
174.61304130775369
 20
173.94033786256219
 30
0.0
 11
174.61304130775369
 21
151.44033789981509
 31
0.0
  0
LINE
  5
7490
  8
1
 10
255.28954130775381
 20
407.6585108370964
 30
0.0
 11
255.28954130775381
 21
398.8585108370965
 31
0.0
  0
LINE
  5
7491
  8
1
 10
254.28954130775381
 20
407.6585108370964
 30
0.0
 11
254.28954130775381
 21
398.8585108370965
 31
0.0
  0
LINE
  5
7492
  8
1
 10
198.28954130775369
 20
380.20851083709618
 30
0.0
 11
198.28954130775369
 21
394.30851083709638
 31
0.0
  0
LINE
  5
7493
  8
1
 10
171.28954130775381
 20
397.9085108370964
 30
0.0
 11
171.28954130775381
 21
376.60851083709628
 31
0.0
  0
LINE
  5
7494
  8
1
 10
275.28954130775378
 20
387.25851083709631
 30
0.0
 11
157.28954130775381
 21
387.25851083709631
 31
0.0
  0
LINE
  5
7495
  8
1
 10
259.6895413077537
 20
403.25851083709642
 30
0.0
 11
249.88954130775389
 21
403.25851083709642
 31
0.0
  0
LINE
  5
749E
  8
1
 10
255.28954130775381
 20
366.85851083709622
 30
0.0
 11
255.28954130775381
 21
375.65851083709612
 31
0.0
  0
LINE
  5
749F
  8
1
 10
254.28954130775381
 20
366.85851083709622
 30
0.0
 11
254.28954130775381
 21
375.65851083709612
 31
0.0
  0
LINE
  5
74A0
  8
1
 10
259.6895413077537
 20
371.25851083709608
 30
0.0
 11
249.88954130775389
 21
371.25851083709608
 31
0.0
  0
CIRCLE
  5
74AF
  8
0
 10
171.28954130775381
 20
71.126747770894497
 30
0.0
 40
6.5
  0
LINE
  5
74BB
  8
1
 10
255.28954130775381
 20
91.526747770894573
 30
0.0
 11
255.28954130775381
 21
82.726747770894633
 31
0.0
  0
LINE
  5
74BC
  8
1
 10
254.28954130775381
 20
91.526747770894573
 30
0.0
 11
254.28954130775381
 21
82.726747770894633
 31
0.0
  0
LINE
  5
74BD
  8
1
 10
198.28954130775369
 20
64.076747770894428
 30
0.0
 11
198.28954130775369
 21
78.176747770894451
 31
0.0
  0
LINE
  5
74BE
  8
1
 10
171.28954130775381
 20
80.626747770894497
 30
0.0
 11
171.28954130775381
 21
61.626747770894461
 31
0.0
  0
LINE
  5
74BF
  8
1
 10
275.28954130775378
 20
71.12674777089444
 30
0.0
 11
157.28954130775381
 21
71.12674777089444
 31
0.0
  0
LINE
  5
74C0
  8
1
 10
259.6895413077537
 20
87.12674777089461
 30
0.0
 11
249.88954130775389
 21
87.12674777089461
 31
0.0
  0
LINE
  5
74C1
  8
1
 10
255.28954130775381
 20
50.726747770894292
 30
0.0
 11
255.28954130775381
 21
59.526747770894239
 31
0.0
  0
LINE
  5
74C2
  8
1
 10
254.28954130775381
 20
50.726747770894292
 30
0.0
 11
254.28954130775381
 21
59.526747770894239
 31
0.0
  0
LINE
  5
74C3
  8
1
 10
259.6895413077537
 20
55.126747770894269
 30
0.0
 11
249.88954130775389
 21
55.126747770894269
 31
0.0
  0
LINE
  5
74C7
  8
1
 10
235.28954130775381
 20
91.526747770894872
 30
0.0
 11
235.28954130775381
 21
82.726747770894903
 31
0.0
  0
LINE
  5
74C8
  8
1
 10
234.28954130775381
 20
91.526747770894872
 30
0.0
 11
234.28954130775381
 21
82.726747770894903
 31
0.0
  0
LINE
  5
74C9
  8
1
 10
239.68954130775359
 20
87.126747770894895
 30
0.0
 11
229.88954130775389
 21
87.126747770894895
 31
0.0
  0
LINE
  5
74CA
  8
1
 10
235.28954130775381
 20
50.726747770894569
 30
0.0
 11
235.28954130775381
 21
59.526747770894531
 31
0.0
  0
LINE
  5
74CB
  8
1
 10
234.28954130775381
 20
50.726747770894569
 30
0.0
 11
234.28954130775381
 21
59.526747770894531
 31
0.0
  0
LINE
  5
74CC
  8
1
 10
239.68954130775359
 20
55.126747770894553
 30
0.0
 11
229.88954130775389
 21
55.126747770894553
 31
0.0
  0
ARC
  5
74F0
  8
0
 10
33.455948823160732
 20
299.80314990570611
 30
0.0
 40
0.7200000000002447
 50
94.667793875284886
 51
250.23281011957539
  0
ARC
  5
74F1
  8
0
 10
33.144805671138563
 20
298.93736128313708
 30
0.0
 40
0.200000000010696
 50
353.12677817239592
 51
70.232809040990659
  0
ARC
  5
74F2
  8
0
 10
33.455948823160732
 20
279.837525789616
 30
0.0
 40
0.7200000000001016
 50
109.7671901146867
 51
265.33218990376821
  0
ARC
  5
74F3
  8
0
 10
32.797292858932003
 20
289.82033784766111
 30
0.0
 40
0.7199999999999537
 50
102.21748801733
 51
257.78251197445269
  0
ARC
  5
74F4
  8
0
 10
32.602599465351432
 20
288.92117463528211
 30
0.0
 40
0.2000000000000123
 50
0.6762790498203656
 51
77.782475067173522
  0
ARC
  5
74F5
  8
0
 10
32.602599465351432
 20
290.7195010600401
 30
0.0
 40
0.2000000000000123
 50
282.21752496240418
 51
359.32372095017962
  0
ARC
  5
74F6
  8
0
 10
32.707600840858731
 20
293.9184501461221
 30
0.0
 40
0.2000000000104896
 50
356.91611575715422
 51
74.022504721340297
  0
ARC
  5
74F7
  8
0
 10
32.9608393785727
 20
294.80291057092109
 30
0.0
 40
0.7199999999999868
 50
98.457517855683989
 51
254.0225419333523
  0
ARC
  5
74F8
  8
0
 10
32.960839378572928
 20
284.83776512440107
 30
0.0
 40
0.7200000000000042
 50
105.9774742529102
 51
261.54248213807949
  0
ARC
  5
74F9
  8
0
 10
33.381080687162701
 20
300.72009861664412
 30
0.0
 40
0.200000000010696
 50
274.66780275346798
 51
351.77383362206081
  0
ARC
  5
74FA
  8
0
 10
32.825529273509119
 20
295.71290572227463
 30
0.0
 40
0.2000000000104896
 50
278.45755506769513
 51
355.56394403188438
  0
ARC
  5
74FB
  8
0
 10
32.70760084081553
 20
285.72222554919341
 30
0.0
 40
0.2000000000104896
 50
285.97749527805661
 51
3.0838842422407691
  0
ARC
  5
74FC
  8
0
 10
32.825529273446818
 20
283.92776997303957
 30
0.0
 40
0.2000000000104896
 50
4.4360559675097644
 51
81.542444931699237
  0
ARC
  5
74FD
  8
0
 10
33.144805671151737
 20
280.70331441218661
 30
0.0
 40
0.200000000010696
 50
289.7671909590922
 51
6.8732218276881181
  0
ARC
  5
74FE
  8
0
 10
33.38108068717839
 20
278.92057707867991
 30
0.0
 40
0.200000000010696
 50
8.2261663780216665
 51
85.332197246616929
  0
ARC
  5
74FF
  8
0
 10
72.138636894696901
 20
299.80314990570611
 30
0.0
 40
0.7200000000002447
 50
289.76718988042461
 51
85.332206124708492
  0
ARC
  5
7500
  8
0
 10
72.44978004671907
 20
298.93736128313708
 30
0.0
 40
0.200000000010696
 50
109.7671909590093
 51
186.8732218276057
  0
ARC
  5
7501
  8
0
 10
72.138636894696901
 20
279.837525789616
 30
0.0
 40
0.7200000000001016
 50
274.66781009623179
 51
70.232809885319426
  0
ARC
  5
7502
  8
0
 10
72.79729285892563
 20
289.82033784766111
 30
0.0
 40
0.7199999999999537
 50
282.2174880255406
 51
77.782511982670314
  0
ARC
  5
7503
  8
0
 10
72.991986252506194
 20
288.92117463528211
 30
0.0
 40
0.2000000000000123
 50
102.2175249328332
 51
179.32372095017959
  0
ARC
  5
7504
  8
0
 10
72.991986252506194
 20
290.7195010600401
 30
0.0
 40
0.2000000000000123
 50
180.67627904982029
 51
257.78247503760213
  0
ARC
  5
7505
  8
0
 10
72.886984876998895
 20
293.9184501461221
 30
0.0
 40
0.2000000000104896
 50
105.9774952786462
 51
183.08388424284411
  0
ARC
  5
7506
  8
0
 10
72.633746339284926
 20
294.80291057092109
 30
0.0
 40
0.7199999999999868
 50
285.97745806665438
 51
81.542482144309346
  0
ARC
  5
7507
  8
0
 10
72.633746339284698
 20
284.83776512440107
 30
0.0
 40
0.7200000000000042
 50
278.45751786193358
 51
74.022525747103671
  0
ARC
  5
7508
  8
0
 10
72.213505030694932
 20
300.72009861664412
 30
0.0
 40
0.200000000010696
 50
188.22616637793919
 51
265.3321972465319
  0
ARC
  5
7509
  8
0
 10
72.769056444348507
 20
295.71290572227463
 30
0.0
 40
0.2000000000104896
 50
184.4360559681156
 51
261.54244493229203
  0
ARC
  5
750A
  8
0
 10
72.886984877042096
 20
285.72222554919341
 30
0.0
 40
0.2000000000104896
 50
176.9161157577592
 51
254.0225047219501
  0
ARC
  5
750B
  8
0
 10
72.769056444410808
 20
283.92776997303957
 30
0.0
 40
0.2000000000104896
 50
98.457555068313894
 51
175.56394403249021
  0
ARC
  5
750C
  8
0
 10
72.449780046705882
 20
280.70331441218661
 30
0.0
 40
0.200000000010696
 50
173.1267781723119
 51
250.23280904090771
  0
ARC
  5
750D
  8
0
 10
72.213505030679244
 20
278.92057707867991
 30
0.0
 40
0.200000000010696
 50
94.667802753389708
 51
171.77383362197671
  0
LINE
  5
751C
  8
3
 10
56.120792396991192
 20
196.34983708309741
 30
0.0
 11
56.120792396991192
 21
195.2403398861845
 31
0.0
  0
LINE
  5
751D
  8
3
 10
56.120792396991192
 20
173.9403388162811
 30
0.0
 11
56.120792396991192
 21
151.440338853534
 31
0.0
  0
LINE
  5
751E
  8
3
 10
49.473792396991257
 20
196.34983615922519
 30
0.0
 11
49.473792396991257
 21
195.2403398861845
 31
0.0
  0
LINE
  5
751F
  8
3
 10
49.473792396991257
 20
173.9403388162811
 30
0.0
 11
49.473792396991257
 21
151.440338853534
 31
0.0
  0
LINE
  5
7527
  8
1
 10
52.797292858927449
 20
334.8218931000734
 30
0.0
 11
52.797292858927449
 21
141.1403378476611
 31
0.0
  0
LINE
  5
755D
  8
1
 10
171.28954130775361
 20
199.4403368939868
 30
0.0
 11
171.28954130775361
 21
143.1403378227017
 31
0.0
  0
LINE
  5
7569
  8
1
 10
237.7895413077556
 20
224.44033784766111
 30
0.0
 11
227.7895413077523
 21
224.44033784766111
 31
0.0
  0
LINE
  5
756A
  8
1
 10
232.78954130775421
 20
229.44033784766279
 30
0.0
 11
232.78954130775421
 21
219.44033784765941
 31
0.0
  0
LINE
  5
756C
  8
1
 10
237.7895413077554
 20
164.44033784766111
 30
0.0
 11
227.7895413077521
 21
164.44033784766111
 31
0.0
  0
LINE
  5
756D
  8
1
 10
232.78954130775401
 20
169.44033784766279
 30
0.0
 11
232.78954130775401
 21
159.44033784765941
 31
0.0
  0
LINE
  5
756E
  8
1
 10
261.28954130775543
 20
190.44033784766111
 30
0.0
 11
251.28954130775219
 21
190.44033784766111
 31
0.0
  0
LINE
  5
756F
  8
1
 10
256.28954130775401
 20
195.44033784766279
 30
0.0
 11
256.28954130775401
 21
185.44033784765941
 31
0.0
  0
LINE
  5
7570
  8
1
 10
253.14251905637141
 20
178.58166526076499
 30
0.0
 11
246.14251905637141
 21
178.58166526076499
 31
0.0
  0
LINE
  5
7571
  8
1
 10
249.64251905637141
 20
182.08166526076491
 30
0.0
 11
249.64251905637141
 21
175.08166526076499
 31
0.0
  0
LINE
  5
7573
  8
1
 10
256.6148910230022
 20
172.85937335969311
 30
0.0
 11
249.6148910230022
 21
172.85937335969311
 31
0.0
  0
LINE
  5
7574
  8
1
 10
253.1148910230022
 20
176.359373359693
 30
0.0
 11
253.1148910230022
 21
169.35937335969311
 31
0.0
  0
LINE
  5
7575
  8
1
 10
258.2058246657723
 20
166.3577641881096
 30
0.0
 11
251.2058246657723
 21
166.3577641881096
 31
0.0
  0
LINE
  5
7576
  8
1
 10
254.7058246657723
 20
169.85776418810951
 30
0.0
 11
254.7058246657723
 21
162.8577641881096
 31
0.0
  0
LINE
  5
7584
  8
0
 10
392.21952979272459
 20
182.44033784766111
 30
0.0
 11
390.21952979272493
 21
182.44033784766111
 31
0.0
  0
LINE
  5
7585
  8
0
 10
399.91952979272492
 20
182.44033784766111
 30
0.0
 11
394.71952979272493
 21
182.44033784766111
 31
0.0
  0
ARC
  5
7587
  8
0
 10
343.9195297927381
 20
190.44033784766111
 30
0.0
 40
59.999999999986557
 50
0.0000000000016284
 51
3.8225537292740159
  0
ARC
  5
7588
  8
0
 10
343.9195297927381
 20
190.44033784766111
 30
0.0
 40
59.999999999986557
 50
356.17744627072437
 51
359.99999999999841
  0
ARC
  5
7589
  8
0
 10
345.8056427385045
 20
191.03479233318291
 30
0.0
 40
58.111794653599773
 50
359.91536754721562
 51
3.8536079618759032
  0
LINE
  5
75C1
  8
1
 10
397.31952979272501
 20
334.82189252157059
 30
0.0
 11
397.31952979272501
 21
141.1403378476611
 31
0.0
  0
LINE
  5
75CB
  8
1
 10
234.28954130775381
 20
144.44033784766111
 30
0.0
 11
234.28954130775381
 21
148.9403377917817
 31
0.0
  0
LINE
  5
75CC
  8
1
 10
235.28954130775381
 20
144.44033784766111
 30
0.0
 11
235.28954130775381
 21
148.9403377917817
 31
0.0
  0
LINE
  5
75CD
  8
1
 10
255.28954130775381
 20
144.44033784766111
 30
0.0
 11
255.28954130775381
 21
148.9403377917817
 31
0.0
  0
LINE
  5
75CE
  8
1
 10
254.28954130775381
 20
144.44033784766111
 30
0.0
 11
254.28954130775381
 21
148.9403377917817
 31
0.0
  0
LINE
  5
7649
  8
1
 10
36.797292858927328
 20
148.94033784766111
 30
0.0
 11
36.797292858927328
 21
144.44033784766111
 31
0.0
  0
LINE
  5
764A
  8
1
 10
68.797292858927676
 20
148.94033784766111
 30
0.0
 11
68.797292858927776
 21
144.44033784766111
 31
0.0
  0
LINE
  5
7671
  8
0
 10
399.81952979272501
 20
239.44033784766111
 30
0.0
 11
394.81952979272501
 21
239.44033784766111
 31
0.0
  0
LINE
  5
767D
  8
1
 10
381.31952979272489
 20
148.94033784766111
 30
0.0
 11
381.31952979272489
 21
144.44033784766111
 31
0.0
  0
LINE
  5
767E
  8
1
 10
413.31952979272518
 20
148.94033784766111
 30
0.0
 11
413.31952979272529
 21
144.44033784766111
 31
0.0
  0
LINE
  5
7696
  8
0
 10
179.30140750733551
 20
391.35851083709639
 30
0.0
 11
198.28954130775369
 21
391.35851083709639
 31
0.0
  0
LINE
  5
7697
  8
0
 10
198.28954130775369
 20
383.15851083709629
 30
0.0
 11
179.30140750733551
 21
383.15851083709629
 31
0.0
  0
ARC
  5
7698
  8
0
 10
198.28954130775369
 20
387.25851083709631
 30
0.0
 40
4.100000000000068
 50
270.0
 51
90.0
  0
LINE
  5
769C
  8
0
 10
176.42795870354149
 20
75.226747770894491
 30
0.0
 11
198.28954130775369
 21
75.226747770894448
 31
0.0
  0
LINE
  5
769D
  8
0
 10
198.28954130775369
 20
67.026747770894431
 30
0.0
 11
176.42795870354141
 21
67.026747770894403
 31
0.0
  0
ARC
  5
769E
  8
0
 10
198.28954130775369
 20
71.12674777089444
 30
0.0
 40
4.1000000000000112
 50
270.0
 51
90.0
  0
TEXT
  5
7718
  8
0
 62
     3
 10
0.0
 20
0.0
 30
0.0
 40
10.0
  1
TCDVF08190
  7
STANDARD1
  0
ENDSEC
  0
EOF
