  0
SECTION
  2
HEADER
  9
$ACADVER
  1
AC1009
  9
$INSBASE
 10
0.0
 20
0.0
 30
0.0
  9
$EXTMIN
 10
0.0
 20
-2.960436562073669
 30
0.0
  9
$EXTMAX
 10
130.7779077823109048
 20
103.3686038165771066
 30
0.0
  9
$LIMMIN
 10
0.0
 20
0.0
  9
$LIMMAX
 10
375.0
 20
270.0
  9
$ORTHOMODE
 70
     1
  9
$REGENMODE
 70
     1
  9
$FILLMODE
 70
     1
  9
$QTEXTMODE
 70
     0
  9
$MIRRTEXT
 70
     0
  9
$DRAGMODE
 70
     2
  9
$LTSCALE
 40
10.0
  9
$OSMODE
 70
    37
  9
$ATTMODE
 70
     1
  9
$TEXTSIZE
 40
0.2
  9
$TRACEWID
 40
0.05
  9
$TEXTSTYLE
  7
STANDARD
  9
$CLAYER
  8
0
  9
$CELTYPE
  6
BYLAYER
  9
$CECOLOR
 62
   256
  9
$DIMSCALE
 40
1.0
  9
$DIMASZ
 40
3.0
  9
$DIMEXO
 40
2.0
  9
$DIMDLI
 40
0.38
  9
$DIMRND
 40
0.0
  9
$DIMDLE
 40
0.0
  9
$DIMEXE
 40
2.0
  9
$DIMTP
 40
0.0
  9
$DIMTM
 40
0.0
  9
$DIMTXT
 40
3.2000000000000002
  9
$DIMCEN
 40
0.0
  9
$DIMTSZ
 40
0.0
  9
$DIMTOL
 70
     0
  9
$DIMLIM
 70
     0
  9
$DIMTIH
 70
     0
  9
$DIMTOH
 70
     0
  9
$DIMSE1
 70
     0
  9
$DIMSE2
 70
     0
  9
$DIMTAD
 70
     1
  9
$DIMZIN
 70
     0
  9
$DIMBLK
  1

  9
$DIMASO
 70
     0
  9
$DIMSHO
 70
     0
  9
$DIMPOST
  1

  9
$DIMAPOST
  1

  9
$DIMALT
 70
     0
  9
$DIMALTD
 70
     2
  9
$DIMALTF
 40
25.3999999999999986
  9
$DIMLFAC
 40
1.0
  9
$DIMTOFL
 70
     1
  9
$DIMTVP
 40
1.6000000000000001
  9
$DIMTIX
 70
     1
  9
$DIMSOXD
 70
     0
  9
$DIMSAH
 70
     0
  9
$DIMBLK1
  1

  9
$DIMBLK2
  1

  9
$DIMSTYLE
  2
STANDARD
  9
$DIMCLRD
 70
     0
  9
$DIMCLRE
 70
     0
  9
$DIMCLRT
 70
     0
  9
$DIMTFAC
 40
1.0
  9
$DIMGAP
 40
0.09
  9
$LUNITS
 70
     2
  9
$LUPREC
 70
     1
  9
$SKETCHINC
 40
0.1
  9
$FILLETRAD
 40
0.0
  9
$AUNITS
 70
     0
  9
$AUPREC
 70
     1
  9
$MENU
  1
E:\r13\win\SUPPORT\ACAD
  9
$ELEVATION
 40
0.0
  9
$PELEVATION
 40
0.0
  9
$THICKNESS
 40
0.0
  9
$LIMCHECK
 70
     0
  9
$BLIPMODE
 70
     0
  9
$CHAMFERA
 40
0.0
  9
$CHAMFERB
 40
0.0
  9
$SKPOLY
 70
     0
  9
$TDCREATE
 40
2449840.6474999999627471
  9
$TDUPDATE
 40
2460203.4108101851306856
  9
$TDINDWG
 40
0.0920822917
  9
$TDUSRTIMER
 40
0.0920822917
  9
$USRTIMER
 70
     1
  9
$ANGBASE
 50
0.0
  9
$ANGDIR
 70
     0
  9
$PDMODE
 70
     0
  9
$PDSIZE
 40
0.0
  9
$PLINEWID
 40
0.0
  9
$COORDS
 70
     1
  9
$SPLFRAME
 70
     0
  9
$SPLINETYPE
 70
     6
  9
$SPLINESEGS
 70
     8
  9
$ATTDIA
 70
     1
  9
$ATTREQ
 70
     1
  9
$HANDLING
 70
     1
  9
$HANDSEED
  5
A70
  9
$SURFTAB1
 70
     6
  9
$SURFTAB2
 70
     6
  9
$SURFTYPE
 70
     6
  9
$SURFU
 70
     6
  9
$SURFV
 70
     6
  9
$UCSNAME
  2

  9
$UCSORG
 10
0.0
 20
0.0
 30
0.0
  9
$UCSXDIR
 10
1.0
 20
0.0
 30
0.0
  9
$UCSYDIR
 10
0.0
 20
1.0
 30
0.0
  9
$PUCSNAME
  2

  9
$PUCSORG
 10
0.0
 20
0.0
 30
0.0
  9
$PUCSXDIR
 10
1.0
 20
0.0
 30
0.0
  9
$PUCSYDIR
 10
0.0
 20
1.0
 30
0.0
  9
$USERI1
 70
     0
  9
$USERI2
 70
     1
  9
$USERI3
 70
     0
  9
$USERI4
 70
     0
  9
$USERI5
 70
     0
  9
$USERR1
 40
0.0
  9
$USERR2
 40
0.0
  9
$USERR3
 40
0.0
  9
$USERR4
 40
0.0
  9
$USERR5
 40
0.0
  9
$WORLDVIEW
 70
     1
  9
$SHADEDGE
 70
     3
  9
$SHADEDIF
 70
    70
  9
$TILEMODE
 70
     1
  9
$MAXACTVP
 70
    16
  9
$PLIMCHECK
 70
     0
  9
$PEXTMIN
 10
1.0000000000000000E+20
 20
1.0000000000000000E+20
 30
1.0000000000000000E+20
  9
$PEXTMAX
 10
-1.0000000000000000E+20
 20
-1.0000000000000000E+20
 30
-1.0000000000000000E+20
  9
$PLIMMIN
 10
0.0
 20
0.0
  9
$PLIMMAX
 10
12.0
 20
9.0
  9
$UNITMODE
 70
     0
  9
$VISRETAIN
 70
     0
  9
$PLINEGEN
 70
     0
  9
$PSLTSCALE
 70
     0
  0
ENDSEC
  0
SECTION
  2
TABLES
  0
TABLE
  2
VPORT
 70
     1
  0
VPORT
  2
*ACTIVE
 70
     0
 10
0.0
 20
0.0
 11
1.0
 21
1.0
 12
234.8522167487685124
 22
100.0
 13
0.0
 23
0.0
 14
10.0
 24
10.0
 15
10.0
 25
10.0
 16
0.0
 26
0.0
 36
1.0
 17
0.0
 27
0.0
 37
0.0
 40
200.0
 41
2.3485221674876842
 42
50.0
 43
0.0
 44
0.0
 50
0.0
 51
0.0
 71
     0
 72
   500
 73
     1
 74
     0
 75
     0
 76
     0
 77
     0
 78
     2
  0
ENDTAB
  0
TABLE
  2
LTYPE
 70
    11
  0
LTYPE
  2
CONTINUOUS
 70
     0
  3
Solid Line
 72
    65
 73
     0
 40
0.0
  0
LTYPE
  2
CENTER
 70
     0
  3
____ _ ____ _ ____ _ ____ _ ____ _ ____ _ ____
 72
    65
 73
     4
 40
2.0
 49
1.25
 49
-0.25
 49
0.25
 49
-0.25
  0
LTYPE
  2
HIDDEN
 70
     0
  3
_ _ _ _ _ _ _ _ _ _ _ _ _ _ _ _ _ _ _ _ _ _ _
 72
    65
 73
     2
 40
0.375
 49
0.25
 49
-0.125
  0
LTYPE
  2
PHANTOM2
 70
     0
  3
Phantom (.5x) ___ _ _ ___ _ _ ___ _ _ ___ _ _
 72
    65
 73
     6
 40
1.25
 49
0.625
 49
-0.125
 49
0.125
 49
-0.125
 49
0.125
 49
-0.125
  0
LTYPE
  2
CENTER2
 70
     0
  3
Center (.5x) ___ _ ___ _ ___ _ ___ _ ___ _ ___
 72
    65
 73
     4
 40
1.125
 49
0.75
 49
-0.125
 49
0.125
 49
-0.125
  0
LTYPE
  2
HIDDEN2
 70
     0
  3
Hidden (.5x) _ _ _ _ _ _ _ _ _ _ _ _ _ _ _ _ _
 72
    65
 73
     2
 40
0.1875
 49
0.125
 49
-0.0625
  0
LTYPE
  2
ACANSTGB
 70
     0
  3
__ . . __ . .
 72
    65
 73
     6
 40
0.35433070866
 49
0.15748031496
 49
-0.03937007874
 49
0.03937007874
 49
-0.03937007874
 49
0.03937007874
 49
-0.03937007874
  0
LTYPE
  2
ACANSTGL
 70
     0
  3
_ _ _ _ _
 72
    65
 73
     2
 40
0.11811023622
 49
0.07874015748
 49
-0.03937007874
  0
LTYPE
  2
ACISOWELD
 70
     0
  3
_ _ _ _ _
 72
    65
 73
     2
 40
2.0
 49
2.0
 49
-1.0
  0
LTYPE
  2
ACISOTGL
 70
     0
  3
_ _ _ _ _
 72
    65
 73
     2
 40
3.0
 49
2.0
 49
-1.0
  0
LTYPE
  2
ACISOTGB
 70
     0
  3
__ . . __ . .
 72
    65
 73
     6
 40
9.0
 49
4.0
 49
-1.0
 49
1.0
 49
-1.0
 49
1.0
 49
-1.0
  0
ENDTAB
  0
TABLE
  2
LAYER
 70
     4
  0
LAYER
  2
0
 70
     0
 62
     7
  6
CONTINUOUS
  0
LAYER
  2
1
 70
     0
 62
     1
  6
CENTER
  0
LAYER
  2
2
 70
     0
 62
     2
  6
HIDDEN
  0
LAYER
  2
DEFPOINTS
 70
     0
 62
     7
  6
CONTINUOUS
  0
ENDTAB
  0
TABLE
  2
STYLE
 70
     4
  0
STYLE
  2
STANDARD
 70
     0
 40
0.0
 41
1.0
 50
0.0
 71
     0
 42
0.2
  3
TXT
  4
BIGFONT
  0
STYLE
  2
STANDARD1
 70
     0
 40
0.0
 41
1.0
 50
0.0
 71
     0
 42
3.0
  3
txt
  4

  0
STYLE
  2
ACANSGDT
 70
     0
 40
0.0
 41
1.0
 50
0.0
 71
     0
 42
0.2
  3
amgdt.shx
  4

  0
STYLE
  2
ACISOGDT
 70
     0
 40
0.0
 41
1.0
 50
0.0
 71
     0
 42
2.5
  3
amgdt.shx
  4

  0
ENDTAB
  0
TABLE
  2
VIEW
 70
     1
  0
VIEW
  2
ALL
 70
     0
 40
270.0
 10
220.9915966386554942
 20
135.0
 41
0.0
 11
0.0
 21
0.0
 31
1.0
 12
0.0
 22
0.0
 32
0.0
 42
0.0
 43
0.0
 44
0.0
 50
0.0
 71
     0
  0
ENDTAB
  0
TABLE
  2
UCS
 70
     0
  0
ENDTAB
  0
TABLE
  2
APPID
 70
    11
  0
APPID
  2
ACAD
 70
     0
  0
APPID
  2
ACAD_EXEMPT_FROM_CAD_STANDARDS
 70
     0
  0
APPID
  2
ACAD_MLEADERVER
 70
     0
  0
APPID
  2
MCAD_NO_VIS
 70
     0
  0
APPID
  2
ACAD_TEMP_GRAPHIC
 70
     0
  0
APPID
  2
ACATTRIBSERVICES
 70
     0
  0
APPID
  2
DESIGNERASSEMBLIES
 70
     0
  0
APPID
  2
ACAD_DSTYLE_DIMJAG
 70
     0
  0
APPID
  2
ACAD_DSTYLE_DIMBREAK
 70
     0
  0
APPID
  2
ACAD_NAV_VCDISPLAY
 70
     0
  0
APPID
  2
ACAD_DSTYLE_DIMTALN
 70
     0
  0
ENDTAB
  0
TABLE
  2
DIMSTYLE
 70
    14
  0
DIMSTYLE
  2
STANDARD
 70
     0
  3

  4

  5

  6

  7

 40
1.0
 41
0.18
 42
0.0625
 43
0.38
 44
0.18
 45
0.0
 46
0.0
 47
0.0
 48
0.0
140
0.18
141
0.09
142
0.0
143
25.3999999999999986
144
1.0
145
0.0
146
1.0
147
0.09
 71
     0
 72
     0
 73
     1
 74
     1
 75
     0
 76
     0
 77
     0
 78
     0
170
     0
171
     2
172
     0
173
     0
174
     0
175
     0
176
     0
177
     0
178
     0
  0
DIMSTYLE
  2
AM_ANSI
 70
     0
  3

  4
mm
  5

  6

  7

 40
1.0
 41
0.12
 42
0.05
 43
0.5
 44
0.1
 45
0.0
 46
0.0
 47
0.1
 48
0.1
140
0.12
141
0.0
142
0.0
143
25.3999999999999986
144
1.0
145
0.0
146
0.71
147
0.06
 71
     0
 72
     0
 73
     1
 74
     1
 75
     0
 76
     0
 77
     0
 78
     7
170
     0
171
     2
172
     0
173
     0
174
     0
175
     0
176
   256
177
   256
178
     2
  0
DIMSTYLE
  2
AM_ANSI$3
 70
     0
  3

  4
mm
  5

  6

  7

 40
1.0
 41
0.12
 42
0.05
 43
0.5
 44
0.1
 45
0.0
 46
0.0
 47
0.1
 48
0.1
140
0.12
141
0.0
142
0.0
143
25.3999999999999986
144
1.0
145
0.0
146
0.71
147
0.06
 71
     0
 72
     0
 73
     1
 74
     1
 75
     0
 76
     0
 77
     0
 78
     7
170
     0
171
     2
172
     0
173
     0
174
     0
175
     0
176
   256
177
   256
178
     2
  0
DIMSTYLE
  2
AM_ANSI$4
 70
     0
  3

  4
mm
  5

  6

  7

 40
1.0
 41
0.12
 42
0.05
 43
0.5
 44
0.1
 45
0.0
 46
0.0
 47
0.1
 48
0.1
140
0.12
141
0.0
142
0.0
143
25.3999999999999986
144
1.0
145
0.0
146
0.71
147
0.06
 71
     0
 72
     0
 73
     1
 74
     1
 75
     0
 76
     0
 77
     0
 78
     7
170
     0
171
     2
172
     0
173
     0
174
     0
175
     0
176
   256
177
   256
178
     2
  0
DIMSTYLE
  2
AM_ANSI$7
 70
     0
  3

  4
mm
  5

  6

  7

 40
1.0
 41
0.12
 42
0.05
 43
0.5
 44
0.1
 45
0.0
 46
0.0
 47
0.1
 48
0.1
140
0.12
141
0.0
142
0.0
143
25.3999999999999986
144
1.0
145
0.0
146
0.71
147
0.06
 71
     0
 72
     0
 73
     1
 74
     1
 75
     0
 76
     0
 77
     0
 78
     7
170
     0
171
     2
172
     0
173
     0
174
     0
175
     0
176
   256
177
   256
178
     2
  0
DIMSTYLE
  2
AM_ANSI$SF
 70
     0
  3

  4
mm
  5

  6

  7

 40
1.0
 41
0.12
 42
0.05
 43
0.5
 44
0.1
 45
0.0
 46
0.0
 47
0.1
 48
0.1
140
0.12
141
0.0
142
0.0
143
25.3999999999999986
144
1.0
145
0.0
146
0.71
147
0.06
 71
     0
 72
     0
 73
     1
 74
     1
 75
     1
 76
     1
 77
     0
 78
     7
170
     0
171
     2
172
     0
173
     0
174
     0
175
     0
176
   256
177
   256
178
     2
  0
DIMSTYLE
  2
AM_ANSI$SH
 70
     0
  3

  4
mm
  5

  6
GENAXEH
  7

 40
1.0
 41
0.12
 42
0.05
 43
0.5
 44
0.1
 45
0.0
 46
0.0
 47
0.1
 48
0.1
140
0.12
141
0.0
142
0.0
143
25.3999999999999986
144
1.0
145
0.0
146
0.71
147
0.06
 71
     0
 72
     0
 73
     1
 74
     1
 75
     1
 76
     1
 77
     0
 78
     7
170
     0
171
     2
172
     0
173
     1
174
     0
175
     0
176
   256
177
   256
178
     2
  0
DIMSTYLE
  2
AM_ISO
 70
     0
  3

  4
"
  5

  6

  7

 40
1.0
 41
3.5
 42
1.0
 43
10.0
 44
1.0
 45
0.0
 46
0.0
 47
0.1
 48
0.1
140
3.5
141
0.0
142
0.0
143
0.0393701
144
1.0
145
0.0
146
0.71
147
1.5
 71
     0
 72
     0
 73
     0
 74
     0
 75
     0
 76
     0
 77
     1
 78
     8
170
     0
171
     2
172
     1
173
     0
174
     0
175
     0
176
   256
177
   256
178
     2
  0
DIMSTYLE
  2
AM_ISO$3
 70
     0
  3

  4
"
  5

  6

  7

 40
1.0
 41
3.5
 42
1.0
 43
10.0
 44
1.0
 45
0.0
 46
0.0
 47
0.1
 48
0.1
140
3.5
141
0.0
142
0.0
143
0.0393701
144
1.0
145
0.0
146
0.71
147
1.5
 71
     0
 72
     0
 73
     0
 74
     1
 75
     0
 76
     0
 77
     1
 78
     8
170
     0
171
     2
172
     0
173
     0
174
     0
175
     0
176
   256
177
   256
178
     2
  0
DIMSTYLE
  2
AM_ISO$4
 70
     0
  3

  4
"
  5

  6

  7

 40
1.0
 41
3.5
 42
1.0
 43
10.0
 44
1.0
 45
0.0
 46
0.0
 47
0.1
 48
0.1
140
3.5
141
0.0
142
0.0
143
0.0393701
144
1.0
145
0.0
146
0.71
147
1.5
 71
     0
 72
     0
 73
     0
 74
     1
 75
     0
 76
     0
 77
     1
 78
     8
170
     0
171
     2
172
     0
173
     0
174
     0
175
     0
176
   256
177
   256
178
     2
  0
DIMSTYLE
  2
AM_ISO$6
 70
     0
  3

  4
"
  5

  6

  7

 40
1.0
 41
3.5
 42
1.0
 43
10.0
 44
1.0
 45
0.0
 46
0.0
 47
0.1
 48
0.1
140
3.5
141
0.0
142
0.0
143
0.0393701
144
1.0
145
0.0
146
0.71
147
1.5
 71
     0
 72
     0
 73
     0
 74
     0
 75
     0
 76
     0
 77
     0
 78
     8
170
     0
171
     2
172
     1
173
     0
174
     0
175
     0
176
   256
177
   256
178
     2
  0
DIMSTYLE
  2
AM_ISO$7
 70
     0
  3

  4
"
  5

  6

  7

 40
1.0
 41
3.5
 42
1.0
 43
10.0
 44
1.0
 45
0.0
 46
0.0
 47
0.1
 48
0.1
140
3.5
141
0.0
142
0.0
143
0.0393701
144
1.0
145
0.0
146
0.71
147
1.5
 71
     0
 72
     0
 73
     0
 74
     0
 75
     0
 76
     0
 77
     1
 78
     8
170
     0
171
     2
172
     1
173
     0
174
     0
175
     0
176
   256
177
   256
178
     2
  0
DIMSTYLE
  2
AM_ISO$SF
 70
     0
  3

  4
"
  5

  6

  7

 40
1.0
 41
3.5
 42
1.0
 43
10.0
 44
1.0
 45
0.0
 46
0.0
 47
0.1
 48
0.1
140
3.5
141
0.0
142
0.0
143
0.0393701
144
1.0
145
0.0
146
0.71
147
1.5
 71
     0
 72
     0
 73
     0
 74
     0
 75
     1
 76
     1
 77
     1
 78
     8
170
     0
171
     2
172
     1
173
     0
174
     0
175
     0
176
   256
177
   256
178
     2
  0
DIMSTYLE
  2
AM_ISO$SH
 70
     0
  3

  4
"
  5

  6
GENAXEH
  7

 40
1.0
 41
3.5
 42
1.0
 43
10.0
 44
1.0
 45
0.0
 46
0.0
 47
0.1
 48
0.1
140
3.5
141
0.0
142
0.0
143
0.0393701
144
2.0
145
0.0
146
0.71
147
1.5
 71
     0
 72
     0
 73
     0
 74
     0
 75
     1
 76
     1
 77
     1
 78
     8
170
     0
171
     2
172
     1
173
     1
174
     0
175
     0
176
   256
177
   256
178
     2
  0
ENDTAB
  0
ENDSEC
  0
SECTION
  2
BLOCKS
  0
BLOCK
  8
0
  2
$MODEL_SPACE
 70
     0
 10
0.0
 20
0.0
 30
0.0
  3
$MODEL_SPACE
  1

  0
ENDBLK
  5
AA
  8
0
  0
BLOCK
 67
     1
  8
0
  2
$PAPER_SPACE
 70
     0
 10
0.0
 20
0.0
 30
0.0
  3
$PAPER_SPACE
  1

  0
ENDBLK
  5
A8
 67
     1
  8
0
  0
BLOCK
  8
0
  2
*U0
 70
     1
 10
0.0
 20
0.0
 30
0.0
  3
*U0
  1

  0
ENDBLK
  5
20F
  8
0
  0
BLOCK
  8
0
  2
GENAXEH
 70
     0
 10
0.0
 20
0.0
 30
0.0
  3
GENAXEH
  1

  0
LINE
  5
239
  8
0
 10
-1.0
 20
0.0
 30
0.0
 11
1.0
 21
0.0
 31
0.0
  0
ENDBLK
  5
23B
  8
0
  0
ENDSEC
  0
SECTION
  2
ENTITIES
  0
LINE
  5
39
  8
1
 10
65.7779077823108764
 20
33.3686038165771421
 30
0.0
 11
10.7779077823108693
 21
33.3686038165771492
 31
0.0
  0
LINE
  5
5F
  8
1
 10
130.7779077823109048
 20
33.3686038165771635
 30
0.0
 11
90.7779077823108764
 21
33.3686038165771492
 31
0.0
  0
LINE
  5
60
  8
1
 10
110.7779077823108054
 20
13.3686038165771208
 30
0.0
 11
110.7779077823108054
 21
53.3686038165771208
 31
0.0
  0
TEXT
  5
1CC
  8
0
 62
     3
 10
0.0
 20
0.0
 30
0.0
 40
10.0
  1
TCC30-Q20-G
  7
STANDARD1
  0
LINE
  5
404
  8
1
 10
65.7779077823108764
 20
88.368603816577135
 30
0.0
 11
10.77790778231088
 21
88.368603816577135
 31
0.0
  0
ARC
  5
874
  8
2
 10
110.7779077823108054
 20
33.3686038165764174
 30
0.0
 40
15.0000000000006892
 50
79.4360224109418738
 51
100.5639775890580978
  0
LINE
  5
875
  8
0
 10
109.2779077823109048
 20
19.3686038165774796
 30
0.0
 11
112.2779077823109048
 21
19.3686038165774796
 31
0.0
  0
LINE
  5
876
  8
0
 10
113.5279077823108054
 20
48.1143659196357518
 30
0.0
 11
113.5279077823108054
 21
49.1186038165771208
 31
0.0
  0
LINE
  5
877
  8
0
 10
113.5279077823108054
 20
49.1186038165771208
 30
0.0
 11
108.0279077823109048
 21
49.1186038165771208
 31
0.0
  0
LINE
  5
878
  8
0
 10
108.0279077823109048
 20
49.1186038165771208
 30
0.0
 11
108.0279077823109048
 21
48.1143659196357589
 31
0.0
  0
ARC
  5
879
  8
0
 10
110.7779077823108054
 20
33.3686038165771208
 30
0.0
 40
15.0
 50
100.5639775890585952
 51
79.4359970324337468
  0
LINE
  5
87A
  8
0
 10
109.2779077823109048
 20
18.4437922599778084
 30
0.0
 11
109.2779077823109048
 21
23.3686038165771208
 31
0.0
  0
LINE
  5
87B
  8
0
 10
120.7779077823109048
 20
23.3686038165771208
 30
0.0
 11
112.2779077823109048
 21
23.3686038165771208
 31
0.0
  0
LINE
  5
87C
  8
0
 10
100.7779077823109048
 20
23.3686038165771208
 30
0.0
 11
100.7779077823109048
 21
43.3686038165771208
 31
0.0
  0
LINE
  5
87D
  8
0
 10
100.7779077823109048
 20
43.3686038165771208
 30
0.0
 11
120.7779077823109048
 21
43.3686038165771208
 31
0.0
  0
LINE
  5
87E
  8
0
 10
120.7779077823109048
 20
43.3686038165771208
 30
0.0
 11
120.7779077823109048
 21
23.3686038165771208
 31
0.0
  0
LINE
  5
87F
  8
0
 10
112.2779077823109048
 20
23.3686038165771208
 30
0.0
 11
112.2779077823109048
 21
18.443792259977819
 31
0.0
  0
LINE
  5
8C4
  8
2
 10
56.2779077823108693
 20
18.443792259977819
 30
0.0
 11
56.2779077823108622
 21
19.443792259977819
 31
0.0
  0
LINE
  5
8C5
  8
2
 10
54.0279077823108693
 20
19.443792259977819
 30
0.0
 11
56.2779077823108693
 21
19.443792259977819
 31
0.0
  0
LINE
  5
8C6
  8
2
 10
54.0279077823108693
 20
18.443792259977819
 30
0.0
 11
54.0279077823108622
 21
19.443792259977819
 31
0.0
  0
LINE
  5
8C7
  8
0
 10
60.7779077823108693
 20
18.443792259977819
 30
0.0
 11
60.7779077823108693
 21
49.1186038165771208
 31
0.0
  0
LINE
  5
8C8
  8
0
 10
41.6529077823108835
 20
48.1143659196357376
 30
0.0
 11
41.6529077823108693
 21
49.1186038165771208
 31
0.0
  0
LINE
  5
8C9
  8
0
 10
41.6529077823108693
 20
49.1186038165771208
 30
0.0
 11
60.7779077823108693
 21
49.1186038165771208
 31
0.0
  0
LINE
  5
8CA
  8
2
 10
20.2779077823108693
 20
18.443792259977819
 30
0.0
 11
20.2779077823108693
 21
19.443792259977819
 31
0.0
  0
LINE
  5
8CB
  8
2
 10
18.0279077823108693
 20
18.443792259977819
 30
0.0
 11
18.0279077823108693
 21
19.443792259977819
 31
0.0
  0
LINE
  5
8CC
  8
2
 10
18.0279077823108693
 20
19.443792259977819
 30
0.0
 11
20.2779077823108693
 21
19.443792259977819
 31
0.0
  0
LINE
  5
8CD
  8
0
 10
15.7779077823108693
 20
18.443792259977819
 30
0.0
 11
15.7779077823108693
 21
49.1186038165771208
 31
0.0
  0
LINE
  5
8CE
  8
0
 10
34.9029077823108835
 20
48.1143659196357376
 30
0.0
 11
34.9029077823108835
 21
49.1186038165771208
 31
0.0
  0
LINE
  5
8CF
  8
0
 10
15.7779077823108693
 20
49.1186038165771208
 30
0.0
 11
34.9029077823108835
 21
49.1186038165771208
 31
0.0
  0
LINE
  5
8D0
  8
2
 10
15.7779077823108693
 20
43.3686038165771208
 30
0.0
 11
60.7779077823108693
 21
43.3686038165771208
 31
0.0
  0
LINE
  5
8D1
  8
2
 10
15.7779077823108693
 20
23.3686038165771208
 30
0.0
 11
60.7779077823108693
 21
23.3686038165771208
 31
0.0
  0
LINE
  5
8D2
  8
0
 10
41.6529077823108835
 20
48.1143659196357376
 30
0.0
 11
60.7779077823108693
 21
48.1143659196357518
 31
0.0
  0
LINE
  5
8D3
  8
0
 10
15.7779077823108693
 20
48.1143659196357518
 30
0.0
 11
34.9029077823108835
 21
48.1143659196357376
 31
0.0
  0
LINE
  5
8D4
  8
0
 10
15.7779077823108693
 20
18.443792259977819
 30
0.0
 11
60.7779077823108693
 21
18.443792259977819
 31
0.0
  0
LINE
  5
8D5
  8
0
 10
41.6529077823108622
 20
48.3686038165771208
 30
0.0
 11
34.9029077823108693
 21
48.3686038165771208
 31
0.0
  0
LINE
  5
900
  8
2
 10
60.7779077823108693
 20
98.368603816577135
 30
0.0
 11
15.7779077823108693
 21
98.368603816577135
 31
0.0
  0
LINE
  5
901
  8
2
 10
60.7779077823108693
 20
78.368603816577135
 30
0.0
 11
15.7779077823108693
 21
78.368603816577135
 31
0.0
  0
LINE
  5
902
  8
0
 10
60.7779077823108693
 20
103.3686038165771066
 30
0.0
 11
15.7779077823108995
 21
103.3686038165771066
 31
0.0
  0
LINE
  5
903
  8
0
 10
15.7779077823108995
 20
73.368603816577135
 30
0.0
 11
60.7779077823108693
 21
73.368603816577135
 31
0.0
  0
LINE
  5
904
  8
0
 10
15.7779077823108693
 20
103.3686038165771066
 30
0.0
 11
15.7779077823108693
 21
73.368603816577135
 31
0.0
  0
LINE
  5
905
  8
0
 10
60.7779077823108693
 20
103.3686038165771066
 30
0.0
 11
60.7779077823108693
 21
73.368603816577135
 31
0.0
  0
LINE
  5
906
  8
0
 10
60.7779077823108693
 20
85.6186038165771208
 30
0.0
 11
41.6529077823108835
 21
85.6186038165771208
 31
0.0
  0
LINE
  5
907
  8
0
 10
41.6529077823108835
 20
91.1186038165771066
 30
0.0
 11
41.6529077823108835
 21
85.6186038165771208
 31
0.0
  0
LINE
  5
908
  8
0
 10
60.7779077823108693
 20
91.1186038165771066
 30
0.0
 11
41.6529077823108835
 21
91.1186038165771066
 31
0.0
  0
LINE
  5
909
  8
0
 10
34.9029077823108835
 20
85.6186038165771208
 30
0.0
 11
15.7779077823108693
 21
85.6186038165771208
 31
0.0
  0
LINE
  5
90A
  8
0
 10
34.9029077823108835
 20
91.1186038165771066
 30
0.0
 11
15.7779077823108693
 21
91.1186038165771066
 31
0.0
  0
LINE
  5
90B
  8
0
 10
34.9029077823108835
 20
91.1186038165771066
 30
0.0
 11
34.9029077823108835
 21
85.6186038165771208
 31
0.0
  0
LINE
  5
9F0
  8
0
 10
109.2779077823109048
 20
23.3686038165771208
 30
0.0
 11
100.7779077823109048
 21
23.3686038165771208
 31
0.0
  0
ENDSEC
  0
EOF
