  0
SECTION
  2
HEADER
  9
$ACADVER
  1
AC1009
  9
$INSBASE
 10
0.0
 20
0.0
 30
0.0
  9
$EXTMIN
 10
0.0
 20
-2.960436562073669
 30
0.0
  9
$EXTMAX
 10
195.9000000000000057
 20
305.0000000000002842
 30
0.0
  9
$LIMMIN
 10
0.0
 20
0.0
  9
$LIMMAX
 10
375.0
 20
270.0
  9
$ORTHOMODE
 70
     1
  9
$REGENMODE
 70
     1
  9
$FILLMODE
 70
     1
  9
$QTEXTMODE
 70
     0
  9
$MIRRTEXT
 70
     0
  9
$DRAGMODE
 70
     2
  9
$LTSCALE
 40
10.0
  9
$OSMODE
 70
    37
  9
$ATTMODE
 70
     1
  9
$TEXTSIZE
 40
0.2
  9
$TRACEWID
 40
0.05
  9
$TEXTSTYLE
  7
STANDARD
  9
$CLAYER
  8
0
  9
$CELTYPE
  6
BYLAYER
  9
$CECOLOR
 62
   256
  9
$DIMSCALE
 40
1.0
  9
$DIMASZ
 40
3.0
  9
$DIMEXO
 40
2.0
  9
$DIMDLI
 40
0.38
  9
$DIMRND
 40
0.0
  9
$DIMDLE
 40
0.0
  9
$DIMEXE
 40
2.0
  9
$DIMTP
 40
0.0
  9
$DIMTM
 40
0.0
  9
$DIMTXT
 40
3.2000000000000002
  9
$DIMCEN
 40
0.0
  9
$DIMTSZ
 40
0.0
  9
$DIMTOL
 70
     0
  9
$DIMLIM
 70
     0
  9
$DIMTIH
 70
     0
  9
$DIMTOH
 70
     0
  9
$DIMSE1
 70
     0
  9
$DIMSE2
 70
     0
  9
$DIMTAD
 70
     1
  9
$DIMZIN
 70
     8
  9
$DIMBLK
  1

  9
$DIMASO
 70
     0
  9
$DIMSHO
 70
     0
  9
$DIMPOST
  1

  9
$DIMAPOST
  1

  9
$DIMALT
 70
     0
  9
$DIMALTD
 70
     2
  9
$DIMALTF
 40
25.3999999999999986
  9
$DIMLFAC
 40
1.0
  9
$DIMTOFL
 70
     1
  9
$DIMTVP
 40
1.6000000000000001
  9
$DIMTIX
 70
     1
  9
$DIMSOXD
 70
     0
  9
$DIMSAH
 70
     0
  9
$DIMBLK1
  1

  9
$DIMBLK2
  1

  9
$DIMSTYLE
  2
STANDARD
  9
$DIMCLRD
 70
     0
  9
$DIMCLRE
 70
     0
  9
$DIMCLRT
 70
     0
  9
$DIMTFAC
 40
1.0
  9
$DIMGAP
 40
0.09
  9
$LUNITS
 70
     2
  9
$LUPREC
 70
     1
  9
$SKETCHINC
 40
0.1
  9
$FILLETRAD
 40
0.0
  9
$AUNITS
 70
     0
  9
$AUPREC
 70
     1
  9
$MENU
  1
E:\r13\win\SUPPORT\ACAD
  9
$ELEVATION
 40
0.0
  9
$PELEVATION
 40
0.0
  9
$THICKNESS
 40
0.0
  9
$LIMCHECK
 70
     0
  9
$BLIPMODE
 70
     0
  9
$CHAMFERA
 40
0.0
  9
$CHAMFERB
 40
0.0
  9
$SKPOLY
 70
     0
  9
$TDCREATE
 40
2449840.6474999999627471
  9
$TDUPDATE
 40
2460203.4984490741044283
  9
$TDINDWG
 40
1.2735622800999999
  9
$TDUSRTIMER
 40
1.2735622800999999
  9
$USRTIMER
 70
     1
  9
$ANGBASE
 50
0.0
  9
$ANGDIR
 70
     0
  9
$PDMODE
 70
     0
  9
$PDSIZE
 40
0.0
  9
$PLINEWID
 40
0.0
  9
$COORDS
 70
     1
  9
$SPLFRAME
 70
     0
  9
$SPLINETYPE
 70
     6
  9
$SPLINESEGS
 70
     8
  9
$ATTDIA
 70
     1
  9
$ATTREQ
 70
     1
  9
$HANDLING
 70
     1
  9
$HANDSEED
  5
3B30
  9
$SURFTAB1
 70
     6
  9
$SURFTAB2
 70
     6
  9
$SURFTYPE
 70
     6
  9
$SURFU
 70
     6
  9
$SURFV
 70
     6
  9
$UCSNAME
  2

  9
$UCSORG
 10
0.0
 20
0.0
 30
0.0
  9
$UCSXDIR
 10
1.0
 20
0.0
 30
0.0
  9
$UCSYDIR
 10
0.0
 20
1.0
 30
0.0
  9
$PUCSNAME
  2

  9
$PUCSORG
 10
0.0
 20
0.0
 30
0.0
  9
$PUCSXDIR
 10
1.0
 20
0.0
 30
0.0
  9
$PUCSYDIR
 10
0.0
 20
1.0
 30
0.0
  9
$USERI1
 70
     0
  9
$USERI2
 70
     1
  9
$USERI3
 70
     0
  9
$USERI4
 70
     0
  9
$USERI5
 70
     0
  9
$USERR1
 40
0.0
  9
$USERR2
 40
0.0
  9
$USERR3
 40
0.0
  9
$USERR4
 40
0.0
  9
$USERR5
 40
0.0
  9
$WORLDVIEW
 70
     1
  9
$SHADEDGE
 70
     3
  9
$SHADEDIF
 70
    70
  9
$TILEMODE
 70
     1
  9
$MAXACTVP
 70
    16
  9
$PLIMCHECK
 70
     0
  9
$PEXTMIN
 10
1.0000000000000000E+20
 20
1.0000000000000000E+20
 30
1.0000000000000000E+20
  9
$PEXTMAX
 10
-1.0000000000000000E+20
 20
-1.0000000000000000E+20
 30
-1.0000000000000000E+20
  9
$PLIMMIN
 10
0.0
 20
0.0
  9
$PLIMMAX
 10
12.0
 20
9.0
  9
$UNITMODE
 70
     0
  9
$VISRETAIN
 70
     0
  9
$PLINEGEN
 70
     0
  9
$PSLTSCALE
 70
     0
  0
ENDSEC
  0
SECTION
  2
TABLES
  0
TABLE
  2
VPORT
 70
     1
  0
VPORT
  2
*ACTIVE
 70
     0
 10
0.0
 20
0.0
 11
1.0
 21
1.0
 12
485.8598726114648798
 22
200.0
 13
0.0
 23
0.0
 14
10.0
 24
10.0
 15
10.0
 25
10.0
 16
0.0
 26
0.0
 36
1.0
 17
0.0
 27
0.0
 37
0.0
 40
400.0
 41
2.4292993630573241
 42
50.0
 43
0.0
 44
0.0
 50
0.0
 51
0.0
 71
     0
 72
   500
 73
     1
 74
     0
 75
     0
 76
     0
 77
     0
 78
     2
  0
ENDTAB
  0
TABLE
  2
LTYPE
 70
    11
  0
LTYPE
  2
CONTINUOUS
 70
     0
  3
Solid Line
 72
    65
 73
     0
 40
0.0
  0
LTYPE
  2
CENTER
 70
     0
  3
____ _ ____ _ ____ _ ____ _ ____ _ ____ _ ____
 72
    65
 73
     4
 40
2.0
 49
1.25
 49
-0.25
 49
0.25
 49
-0.25
  0
LTYPE
  2
HIDDEN
 70
     0
  3
_ _ _ _ _ _ _ _ _ _ _ _ _ _ _ _ _ _ _ _ _ _ _
 72
    65
 73
     2
 40
0.375
 49
0.25
 49
-0.125
  0
LTYPE
  2
PHANTOM2
 70
     0
  3
Phantom (.5x) ___ _ _ ___ _ _ ___ _ _ ___ _ _
 72
    65
 73
     6
 40
1.25
 49
0.625
 49
-0.125
 49
0.125
 49
-0.125
 49
0.125
 49
-0.125
  0
LTYPE
  2
CENTER2
 70
     0
  3
Center (.5x) ___ _ ___ _ ___ _ ___ _ ___ _ ___
 72
    65
 73
     4
 40
1.125
 49
0.75
 49
-0.125
 49
0.125
 49
-0.125
  0
LTYPE
  2
HIDDEN2
 70
     0
  3
Hidden (.5x) _ _ _ _ _ _ _ _ _ _ _ _ _ _ _ _ _
 72
    65
 73
     2
 40
0.1875
 49
0.125
 49
-0.0625
  0
LTYPE
  2
ACANSTGB
 70
     0
  3
__ . . __ . .
 72
    65
 73
     6
 40
0.35433070866
 49
0.15748031496
 49
-0.03937007874
 49
0.03937007874
 49
-0.03937007874
 49
0.03937007874
 49
-0.03937007874
  0
LTYPE
  2
ACANSTGL
 70
     0
  3
_ _ _ _ _
 72
    65
 73
     2
 40
0.11811023622
 49
0.07874015748
 49
-0.03937007874
  0
LTYPE
  2
ACISOWELD
 70
     0
  3
_ _ _ _ _
 72
    65
 73
     2
 40
2.0
 49
2.0
 49
-1.0
  0
LTYPE
  2
ACISOTGL
 70
     0
  3
_ _ _ _ _
 72
    65
 73
     2
 40
3.0
 49
2.0
 49
-1.0
  0
LTYPE
  2
ACISOTGB
 70
     0
  3
__ . . __ . .
 72
    65
 73
     6
 40
9.0
 49
4.0
 49
-1.0
 49
1.0
 49
-1.0
 49
1.0
 49
-1.0
  0
ENDTAB
  0
TABLE
  2
LAYER
 70
     5
  0
LAYER
  2
0
 70
     0
 62
     7
  6
CONTINUOUS
  0
LAYER
  2
1
 70
     0
 62
     1
  6
CENTER
  0
LAYER
  2
DEFPOINTS
 70
     0
 62
     7
  6
CONTINUOUS
  0
LAYER
  2
3
 70
     0
 62
     3
  6
CONTINUOUS
  0
LAYER
  2
2
 70
     0
 62
     2
  6
HIDDEN
  0
ENDTAB
  0
TABLE
  2
STYLE
 70
     4
  0
STYLE
  2
STANDARD
 70
     0
 40
0.0
 41
1.0
 50
0.0
 71
     0
 42
0.2
  3
TXT
  4
BIGFONT
  0
STYLE
  2
STANDARD1
 70
     0
 40
0.0
 41
1.0
 50
0.0
 71
     0
 42
3.0
  3
txt
  4

  0
STYLE
  2
ACANSGDT
 70
     0
 40
0.0
 41
1.0
 50
0.0
 71
     0
 42
0.2
  3
amgdt.shx
  4

  0
STYLE
  2
ACISOGDT
 70
     0
 40
0.0
 41
1.0
 50
0.0
 71
     0
 42
2.5
  3
amgdt.shx
  4

  0
ENDTAB
  0
TABLE
  2
VIEW
 70
     1
  0
VIEW
  2
ALL
 70
     0
 40
270.0
 10
220.9915966386554942
 20
135.0
 41
0.0
 11
0.0
 21
0.0
 31
1.0
 12
0.0
 22
0.0
 32
0.0
 42
0.0
 43
0.0
 44
0.0
 50
0.0
 71
     0
  0
ENDTAB
  0
TABLE
  2
UCS
 70
     0
  0
ENDTAB
  0
TABLE
  2
APPID
 70
    26
  0
APPID
  2
ACAD
 70
     0
  0
APPID
  2
ACAD_EXEMPT_FROM_CAD_STANDARDS
 70
     0
  0
APPID
  2
ACAD_MLEADERVER
 70
     0
  0
APPID
  2
MCAD_NO_VIS
 70
     0
  0
APPID
  2
ACAD_TEMP_GRAPHIC
 70
     0
  0
APPID
  2
ACATTRIBSERVICES
 70
     0
  0
APPID
  2
DESIGNERASSEMBLIES
 70
     0
  0
APPID
  2
ACAD_DSTYLE_DIMJAG
 70
     0
  0
APPID
  2
ACAD_DSTYLE_DIMBREAK
 70
     0
  0
APPID
  2
ACAD_NAV_VCDISPLAY
 70
     0
  0
APPID
  2
ACAECLAYERSTANDARD
 70
     0
  0
APPID
  2
GENIUS_GENODEF_13
 70
     0
  0
APPID
  2
GENIUS_GENOBJ-N-CEN_13
 70
     0
  0
APPID
  2
GENIUS_GENCEN_19
 70
     0
  0
APPID
  2
GENIUS_GENDTOL_13
 70
     0
  0
APPID
  2
ACAD_DSTYLE_DIMINSPECT
 70
     0
  0
APPID
  2
ACADANNOMONITORALERTICONDI
 70
     0
  0
APPID
  2
ACAD_DSTYLE_DIMRADIAL_EXTENSION
 70
     0
  0
APPID
  2
GENIUS_GENREC_14
 70
     0
  0
APPID
  2
GENIUS_GENOBJ-N-REC_13
 70
     0
  0
APPID
  2
GENIUS_GENOBJ-N-FIL_13
 70
     0
  0
APPID
  2
ACAD_DSTYLE_DIMTALN
 70
     0
  0
APPID
  2
ACAD_DSTYLE_DIMARC_LENGTH_
 70
     0
  0
APPID
  2
ACAD_DSTYLE_DIM_LINETYPE
 70
     0
  0
APPID
  2
ACAD_DSTYLE_DIM_EXT1_LINETYPE
 70
     0
  0
APPID
  2
ACAD_DSTYLE_DIM_EXT2_LINETYPE
 70
     0
  0
ENDTAB
  0
TABLE
  2
DIMSTYLE
 70
    14
  0
DIMSTYLE
  2
STANDARD
 70
     0
  3

  4

  5

  6

  7

 40
1.0
 41
0.18
 42
0.0625
 43
0.38
 44
0.18
 45
0.0
 46
0.0
 47
0.0
 48
0.0
140
0.18
141
0.09
142
0.0
143
25.3999999999999986
144
1.0
145
0.0
146
1.0
147
0.09
 71
     0
 72
     0
 73
     1
 74
     1
 75
     0
 76
     0
 77
     0
 78
     0
170
     0
171
     2
172
     0
173
     0
174
     0
175
     0
176
     0
177
     0
178
     0
  0
DIMSTYLE
  2
AM_ANSI
 70
     0
  3

  4
mm
  5

  6

  7

 40
1.0
 41
0.12
 42
0.05
 43
0.5
 44
0.1
 45
0.0
 46
0.0
 47
0.1
 48
0.1
140
0.12
141
0.0
142
0.0
143
25.3999999999999986
144
1.0
145
0.0
146
0.71
147
0.06
 71
     0
 72
     0
 73
     1
 74
     1
 75
     0
 76
     0
 77
     0
 78
     7
170
     0
171
     2
172
     0
173
     0
174
     0
175
     0
176
   256
177
   256
178
     2
  0
DIMSTYLE
  2
AM_ANSI$3
 70
     0
  3

  4
mm
  5

  6

  7

 40
1.0
 41
0.12
 42
0.05
 43
0.5
 44
0.1
 45
0.0
 46
0.0
 47
0.1
 48
0.1
140
0.12
141
0.0
142
0.0
143
25.3999999999999986
144
1.0
145
0.0
146
0.71
147
0.06
 71
     0
 72
     0
 73
     1
 74
     1
 75
     0
 76
     0
 77
     0
 78
     7
170
     0
171
     2
172
     0
173
     0
174
     0
175
     0
176
   256
177
   256
178
     2
  0
DIMSTYLE
  2
AM_ANSI$4
 70
     0
  3

  4
mm
  5

  6

  7

 40
1.0
 41
0.12
 42
0.05
 43
0.5
 44
0.1
 45
0.0
 46
0.0
 47
0.1
 48
0.1
140
0.12
141
0.0
142
0.0
143
25.3999999999999986
144
1.0
145
0.0
146
0.71
147
0.06
 71
     0
 72
     0
 73
     1
 74
     1
 75
     0
 76
     0
 77
     0
 78
     7
170
     0
171
     2
172
     0
173
     0
174
     0
175
     0
176
   256
177
   256
178
     2
  0
DIMSTYLE
  2
AM_ANSI$7
 70
     0
  3

  4
mm
  5

  6

  7

 40
1.0
 41
0.12
 42
0.05
 43
0.5
 44
0.1
 45
0.0
 46
0.0
 47
0.1
 48
0.1
140
0.12
141
0.0
142
0.0
143
25.3999999999999986
144
1.0
145
0.0
146
0.71
147
0.06
 71
     0
 72
     0
 73
     1
 74
     1
 75
     0
 76
     0
 77
     0
 78
     7
170
     0
171
     2
172
     0
173
     0
174
     0
175
     0
176
   256
177
   256
178
     2
  0
DIMSTYLE
  2
AM_ANSI$SF
 70
     0
  3

  4
mm
  5

  6

  7

 40
1.0
 41
0.12
 42
0.05
 43
0.5
 44
0.1
 45
0.0
 46
0.0
 47
0.1
 48
0.1
140
0.12
141
0.0
142
0.0
143
25.3999999999999986
144
1.0
145
0.0
146
0.71
147
0.06
 71
     0
 72
     0
 73
     1
 74
     1
 75
     1
 76
     1
 77
     0
 78
     7
170
     0
171
     2
172
     0
173
     0
174
     0
175
     0
176
   256
177
   256
178
     2
  0
DIMSTYLE
  2
AM_ANSI$SH
 70
     0
  3

  4
mm
  5

  6
GENAXEH
  7

 40
1.0
 41
0.12
 42
0.05
 43
0.5
 44
0.1
 45
0.0
 46
0.0
 47
0.1
 48
0.1
140
0.12
141
0.0
142
0.0
143
25.3999999999999986
144
1.0
145
0.0
146
0.71
147
0.06
 71
     0
 72
     0
 73
     1
 74
     1
 75
     1
 76
     1
 77
     0
 78
     7
170
     0
171
     2
172
     0
173
     1
174
     0
175
     0
176
   256
177
   256
178
     2
  0
DIMSTYLE
  2
AM_ISO
 70
     0
  3

  4
"
  5

  6

  7

 40
1.0
 41
3.5
 42
1.0
 43
10.0
 44
1.0
 45
0.0
 46
0.0
 47
0.1
 48
0.1
140
3.5
141
0.0
142
0.0
143
0.0393701
144
1.0
145
0.0
146
0.71
147
1.5
 71
     0
 72
     0
 73
     0
 74
     0
 75
     0
 76
     0
 77
     1
 78
     8
170
     0
171
     2
172
     1
173
     0
174
     0
175
     0
176
   256
177
   256
178
     2
  0
DIMSTYLE
  2
AM_ISO$3
 70
     0
  3

  4
"
  5

  6

  7

 40
1.0
 41
3.5
 42
1.0
 43
10.0
 44
1.0
 45
0.0
 46
0.0
 47
0.1
 48
0.1
140
3.5
141
0.0
142
0.0
143
0.0393701
144
1.0
145
0.0
146
0.71
147
1.5
 71
     0
 72
     0
 73
     0
 74
     1
 75
     0
 76
     0
 77
     1
 78
     8
170
     0
171
     2
172
     0
173
     0
174
     0
175
     0
176
   256
177
   256
178
     2
  0
DIMSTYLE
  2
AM_ISO$4
 70
     0
  3

  4
"
  5

  6

  7

 40
1.0
 41
3.5
 42
1.0
 43
10.0
 44
1.0
 45
0.0
 46
0.0
 47
0.1
 48
0.1
140
3.5
141
0.0
142
0.0
143
0.0393701
144
1.0
145
0.0
146
0.71
147
1.5
 71
     0
 72
     0
 73
     0
 74
     1
 75
     0
 76
     0
 77
     1
 78
     8
170
     0
171
     2
172
     0
173
     0
174
     0
175
     0
176
   256
177
   256
178
     2
  0
DIMSTYLE
  2
AM_ISO$6
 70
     0
  3

  4
"
  5

  6

  7

 40
1.0
 41
3.5
 42
1.0
 43
10.0
 44
1.0
 45
0.0
 46
0.0
 47
0.1
 48
0.1
140
3.5
141
0.0
142
0.0
143
0.0393701
144
1.0
145
0.0
146
0.71
147
1.5
 71
     0
 72
     0
 73
     0
 74
     0
 75
     0
 76
     0
 77
     0
 78
     8
170
     0
171
     2
172
     1
173
     0
174
     0
175
     0
176
   256
177
   256
178
     2
  0
DIMSTYLE
  2
AM_ISO$7
 70
     0
  3

  4
"
  5

  6

  7

 40
1.0
 41
3.5
 42
1.0
 43
10.0
 44
1.0
 45
0.0
 46
0.0
 47
0.1
 48
0.1
140
3.5
141
0.0
142
0.0
143
0.0393701
144
1.0
145
0.0
146
0.71
147
1.5
 71
     0
 72
     0
 73
     0
 74
     0
 75
     0
 76
     0
 77
     1
 78
     8
170
     0
171
     2
172
     1
173
     0
174
     0
175
     0
176
   256
177
   256
178
     2
  0
DIMSTYLE
  2
AM_ISO$SF
 70
     0
  3

  4
"
  5

  6

  7

 40
1.0
 41
3.5
 42
1.0
 43
10.0
 44
1.0
 45
0.0
 46
0.0
 47
0.1
 48
0.1
140
3.5
141
0.0
142
0.0
143
0.0393701
144
1.0
145
0.0
146
0.71
147
1.5
 71
     0
 72
     0
 73
     0
 74
     0
 75
     1
 76
     1
 77
     1
 78
     8
170
     0
171
     2
172
     1
173
     0
174
     0
175
     0
176
   256
177
   256
178
     2
  0
DIMSTYLE
  2
AM_ISO$SH
 70
     0
  3

  4
"
  5

  6
GENAXEH
  7

 40
1.0
 41
3.5
 42
1.0
 43
10.0
 44
1.0
 45
0.0
 46
0.0
 47
0.1
 48
0.1
140
3.5
141
0.0
142
0.0
143
0.0393701
144
2.0
145
0.0
146
0.71
147
1.5
 71
     0
 72
     0
 73
     0
 74
     0
 75
     1
 76
     1
 77
     1
 78
     8
170
     0
171
     2
172
     1
173
     1
174
     0
175
     0
176
   256
177
   256
178
     2
  0
ENDTAB
  0
ENDSEC
  0
SECTION
  2
BLOCKS
  0
BLOCK
  8
0
  2
$MODEL_SPACE
 70
     0
 10
0.0
 20
0.0
 30
0.0
  3
$MODEL_SPACE
  1

  0
ENDBLK
  5
AA
  8
0
  0
BLOCK
 67
     1
  8
0
  2
$PAPER_SPACE
 70
     0
 10
0.0
 20
0.0
 30
0.0
  3
$PAPER_SPACE
  1

  0
ENDBLK
  5
A8
 67
     1
  8
0
  0
BLOCK
  8
0
  2
*U0
 70
     1
 10
0.0
 20
0.0
 30
0.0
  3
*U0
  1

  0
ENDBLK
  5
20F
  8
0
  0
BLOCK
  8
0
  2
GENAXEH
 70
     0
 10
0.0
 20
0.0
 30
0.0
  3
GENAXEH
  1

  0
LINE
  5
239
  8
0
 10
-1.0
 20
0.0
 30
0.0
 11
1.0
 21
0.0
 31
0.0
  0
ENDBLK
  5
23B
  8
0
  0
ENDSEC
  0
SECTION
  2
ENTITIES
  0
TEXT
  5
1CC
  8
0
 62
     3
 10
0.0
 20
0.0
 30
0.0
 40
10.0
  1
TCC30-PBF-E-B
  7
STANDARD1
  0
CIRCLE
  5
369D
  8
0
 10
50.0
 20
83.0000000000000711
 30
0.0
 40
3.2330000000000041
  0
CIRCLE
  5
36A5
  8
3
 10
50.0000000000004619
 20
83.000000000000199
 30
0.0
 40
4.0
  0
ARC
  5
36B3
  8
0
 10
85.5000000000002558
 20
55.4999999999999005
 30
0.0
 40
2.000000000000028
 50
359.999999999986585
 51
90.0
  0
LINE
  5
36B6
  8
0
 10
12.50000000000027
 20
50.0000000000001492
 30
0.0
 11
87.5000000000002842
 21
49.9999999999994031
 31
0.0
  0
LINE
  5
36B7
  8
0
 10
12.50000000000027
 20
50.0000000000001492
 30
0.0
 11
12.50000000000027
 21
55.5000000000001421
 31
0.0
  0
LINE
  5
36BF
  8
0
 10
87.5000000000002842
 20
49.9999999999998934
 30
0.0
 11
87.5000000000002842
 21
55.4999999999998934
 31
0.0
  0
ARC
  5
36C0
  8
0
 10
14.50000000000027
 20
55.5000000000001421
 30
0.0
 40
2.0000000000000071
 50
90.0
 51
179.9999999999826912
  0
LINE
  5
36C1
  8
0
 10
14.50000000000027
 20
57.5000000000001492
 30
0.0
 11
85.5000000000002842
 21
57.4999999999992966
 31
0.0
  0
LINE
  5
36C4
  8
0
 10
61.0000000000002771
 20
84.5000000000002558
 30
0.0
 11
61.0000000000002771
 21
83.0000000000002274
 31
0.0
  0
LINE
  5
36C6
  8
0
 10
70.0000000000002558
 20
57.5000000000001705
 30
0.0
 11
70.0000000000002558
 21
83.0000000000002274
 31
0.0
  0
LINE
  5
36C7
  8
0
 10
30.00000000000027
 20
57.5000000000003908
 30
0.0
 11
30.00000000000027
 21
83.0000000000002274
 31
0.0
  0
LINE
  5
36C9
  8
0
 10
39.0000000000002913
 20
83.0000000000002558
 30
0.0
 11
39.0000000000002913
 21
84.5000000000002558
 31
0.0
  0
LINE
  5
36D2
  8
0
 10
39.0000000000002913
 20
84.5000000000002558
 30
0.0
 11
39.0000000000002913
 21
101.2032930884902981
 31
0.0
  0
ARC
  5
36D3
  8
0
 10
50.0000000000002487
 20
84.5000000000002558
 30
0.0
 40
20.0000000000000213
 50
56.6329870307683692
 51
123.3670129692315953
  0
LINE
  5
36D4
  8
0
 10
61.0000000000002771
 20
101.2032930884902981
 30
0.0
 11
61.0000000000002771
 21
84.5000000000002558
 31
0.0
  0
ARC
  5
36D6
  8
0
 10
50.0000000000002487
 20
83.0000000000002558
 30
0.0
 40
19.9999999999999787
 50
123.3670129692315953
 51
180.0000000000007958
  0
ARC
  5
36D7
  8
0
 10
50.0000000000002487
 20
83.0000000000002558
 30
0.0
 40
20.0000000000000107
 50
0.0000000000004071
 51
56.6329870307683692
  0
ARC
  5
36D8
  8
0
 10
192.2500000000001137
 20
88.8500000000003354
 30
0.0
 40
0.6499999999998494
 50
359.9999999999881766
 51
90.000000000014623
  0
ARC
  5
36D9
  8
0
 10
192.250000000000199
 20
77.1500000000000341
 30
0.0
 40
0.6499999999998636
 50
269.9999999999852776
 51
0.0000000000132311
  0
LINE
  5
36DA
  8
0
 10
192.2499999999998863
 20
89.5000000000001847
 30
0.0
 11
184.899999999999892
 21
89.5000000000001279
 31
0.0
  0
LINE
  5
36DB
  8
0
 10
184.9000000000000057
 20
76.5000000000001421
 30
0.0
 11
192.25
 21
76.5000000000001847
 31
0.0
  0
LINE
  5
36DC
  8
0
 10
184.9000000000000057
 20
87.0000000000001279
 30
0.0
 11
176.9999999999998863
 21
87.0000000000000853
 31
0.0
  0
LINE
  5
36DD
  8
0
 10
176.9999999999998863
 20
79.0000000000000853
 30
0.0
 11
184.9000000000000057
 21
79.0000000000001421
 31
0.0
  0
LINE
  5
36DE
  8
0
 10
155.0
 20
84.5000000000001563
 30
0.0
 11
155.0
 21
49.9999999999998934
 31
0.0
  0
LINE
  5
36DF
  8
0
 10
175.0000000000001137
 20
64.7500000000001421
 30
0.0
 11
177.0
 21
64.7500000000001421
 31
0.0
  0
LINE
  5
36E0
  8
0
 10
177.0
 20
101.2500000000000995
 30
0.0
 11
175.0000000000001137
 21
101.2500000000000995
 31
0.0
  0
ARC
  5
36E1
  8
0
 10
175.0
 20
84.5000000000001563
 30
0.0
 40
20.0000000000000284
 50
90.0
 51
180.0
  0
LINE
  5
36E3
  8
0
 10
192.899999999999892
 20
88.8500000000001933
 30
0.0
 11
192.9000000000000057
 21
77.1500000000000341
 31
0.0
  0
LINE
  5
36E4
  8
0
 10
184.899999999999892
 20
89.5000000000001563
 30
0.0
 11
184.9000000000000057
 21
76.5000000000001137
 31
0.0
  0
LINE
  5
36F8
  8
0
 10
175.0000000000003126
 20
57.4999999999997087
 30
0.0
 11
175.0
 21
104.5000000000000995
 31
0.0
  0
LINE
  5
36FA
  8
0
 10
158.2967069115098866
 20
84.5000000000001563
 30
0.0
 11
158.2967069115098866
 21
83.0000000000001279
 31
0.0
  0
LINE
  5
36FE
  8
0
 10
177.0
 20
101.2500000000000995
 30
0.0
 11
177.0
 21
64.7500000000001137
 31
0.0
  0
ARC
  5
3700
  8
0
 10
175.0
 20
84.5000000000001563
 30
0.0
 40
16.7032930884901099
 50
90.0
 51
180.0
  0
ARC
  5
3705
  8
0
 10
44.1499999999998209
 20
192.2500000000001137
 30
0.0
 40
0.6499999999998636
 50
89.9999999999853344
 51
180.0000000000131877
  0
ARC
  5
3706
  8
0
 10
55.8500000000001222
 20
192.2500000000001137
 30
0.0
 40
0.6499999999998636
 50
359.9999999999881766
 51
90.0000000000121929
  0
LINE
  5
3707
  8
0
 10
43.4999999999999574
 20
192.25
 30
0.0
 11
43.4999999999999574
 21
184.9000000000000057
 31
0.0
  0
LINE
  5
3708
  8
0
 10
56.4999999999999787
 20
184.9000000000000057
 30
0.0
 11
56.4999999999999787
 21
192.25
 31
0.0
  0
LINE
  5
3709
  8
0
 10
45.9999999999999574
 20
184.9000000000000057
 30
0.0
 11
45.9999999999999574
 21
177.0
 31
0.0
  0
LINE
  5
370A
  8
0
 10
53.9999999999999787
 20
177.0
 30
0.0
 11
53.9999999999999787
 21
184.9000000000000057
 31
0.0
  0
LINE
  5
370B
  8
0
 10
68.25000000000027
 20
175.0000000000001137
 30
0.0
 11
68.25000000000027
 21
177.0
 31
0.0
  0
LINE
  5
370C
  8
0
 10
31.75000000000027
 20
177.0
 30
0.0
 11
31.75000000000027
 21
175.0000000000001137
 31
0.0
  0
LINE
  5
370D
  8
0
 10
44.1500000210918486
 20
192.9000000000000057
 30
0.0
 11
55.8499999999999801
 21
192.9000000000000057
 31
0.0
  0
LINE
  5
370E
  8
0
 10
43.4999999999999574
 20
184.9000000000000057
 30
0.0
 11
56.4999999999999787
 21
184.9000000000000057
 31
0.0
  0
LINE
  5
3713
  8
0
 10
39.00000000000027
 20
158.2967069115098866
 30
0.0
 11
39.00000000000027
 21
175.0
 31
0.0
  0
LINE
  5
3714
  8
0
 10
61.00000000000027
 20
175.0000000000001137
 30
0.0
 11
61.00000000000027
 21
158.2967069115098866
 31
0.0
  0
LINE
  5
3718
  8
0
 10
31.75000000000027
 20
177.0
 30
0.0
 11
68.25000000000027
 21
177.0
 31
0.0
  0
LINE
  5
371D
  8
0
 10
70.0000000000002416
 20
175.000000000000199
 30
0.0
 11
30.0000000000002309
 21
175.0
 31
0.0
  0
ARC
  5
3723
  8
0
 10
17.4999999999993605
 20
190.0000000000009095
 30
0.0
 40
4.9999999999991038
 50
89.9999999999894129
 51
180.0000000000109992
  0
CIRCLE
  5
3727
  8
0
 10
80.0000000000002416
 20
175.0
 30
0.0
 40
3.25
  0
CIRCLE
  5
3728
  8
0
 10
20.0000000000002593
 20
175.0
 30
0.0
 40
3.25
  0
LINE
  5
3730
  8
0
 10
17.5000000000002487
 20
195.0
 30
0.0
 11
82.5000000000002416
 21
195.0
 31
0.0
  0
LINE
  5
3732
  8
0
 10
12.5000000000002398
 20
160.0000000000001137
 30
0.0
 11
12.5000000000002505
 21
190.0000000000001137
 31
0.0
  0
ARC
  5
3734
  8
0
 10
82.5000000000011937
 20
190.0000000000009095
 30
0.0
 40
4.9999999999990896
 50
359.9999999999906208
 51
90.0000000000106013
  0
LINE
  5
3736
  8
0
 10
87.5000000000002558
 20
190.0000000000001137
 30
0.0
 11
87.5000000000002558
 21
160.0000000000001137
 31
0.0
  0
ARC
  5
3738
  8
0
 10
17.4999999999993392
 20
159.9999999999990905
 30
0.0
 40
4.9999999999991038
 50
179.9999999999893987
 51
270.0000000000056843
  0
LINE
  5
373A
  8
0
 10
82.5000000000006963
 20
155.0
 30
0.0
 11
17.4999999999997797
 21
155.0
 31
0.0
  0
ARC
  5
373C
  8
0
 10
82.5000000000011653
 20
159.9999999999990905
 30
0.0
 40
4.9999999999990896
 50
269.9999999999951115
 51
0.0000000000105849
  0
CIRCLE
  5
3745
  8
0
 10
49.9999999999997371
 20
267.0000000000002274
 30
0.0
 40
6.5000000000000284
  0
LINE
  5
3746
  8
0
 10
87.5000000000000284
 20
300.0000000000002274
 30
0.0
 11
87.5000000000000284
 21
294.5000000000002274
 31
0.0
  0
LINE
  5
374C
  8
0
 10
12.5000000000000107
 20
300.0
 30
0.0
 11
12.5000000000000107
 21
294.4999999999998863
 31
0.0
  0
LINE
  5
374D
  8
0
 10
87.5000000000000284
 20
300.0000000000002274
 30
0.0
 11
12.5000000000000107
 21
300.0
 31
0.0
  0
LINE
  5
3750
  8
0
 10
85.5
 20
292.5000000000002274
 30
0.0
 11
14.5000000000000107
 21
292.4999999999998863
 31
0.0
  0
ARC
  5
3751
  8
0
 10
14.5000000000000107
 20
294.4999999999998863
 30
0.0
 40
2.0
 50
179.9999999999857039
 51
270.0000000000007958
  0
ARC
  5
3755
  8
0
 10
85.5
 20
294.5000000000002274
 30
0.0
 40
2.000000000000028
 50
270.0000000000007958
 51
0.0000000000099742
  0
CIRCLE
  5
375C
  8
0
 10
50.0
 20
267.0000000000002842
 30
0.0
 40
18.2499999999999716
  0
LINE
  5
3760
  8
0
 10
70.0
 20
292.5000000000003979
 30
0.0
 11
70.0
 21
267.0000000000002842
 31
0.0
  0
LINE
  5
3761
  8
0
 10
30.0000000000000107
 20
292.5000000000002274
 30
0.0
 11
30.0000000000000107
 21
267.0000000000002842
 31
0.0
  0
LINE
  5
3762
  8
0
 10
39.0000000000000213
 20
250.2967069115101992
 30
0.0
 11
39.0000000000000213
 21
248.7967069115103129
 31
0.0
  0
ARC
  5
3763
  8
0
 10
50.0
 20
267.0000000000002842
 30
0.0
 40
19.9999999999999787
 50
180.0
 51
236.6329870307694136
  0
ARC
  5
3764
  8
0
 10
50.0
 20
267.0000000000002842
 30
0.0
 40
20.0000000000000107
 50
303.3670129692325759
 51
0.0000000000004071
  0
LINE
  5
3765
  8
0
 10
61.0000000000000213
 20
248.7967069115103129
 30
0.0
 11
61.0000000000000213
 21
250.2967069115101992
 31
0.0
  0
ARC
  5
3766
  8
0
 10
50.0
 20
265.5000000000002842
 30
0.0
 40
20.0000000000000107
 50
236.6329870307694136
 51
303.3670129692325759
  0
ARC
  5
3767
  8
0
 10
50.0
 20
267.0000000000002842
 30
0.0
 40
8.9999999999999059
 50
34.780191847202012
 51
85.2198081528060243
  0
LINE
  5
3768
  8
0
 10
57.3921181914526386
 20
272.1338668315020186
 30
0.0
 11
59.7800480057947183
 21
273.5125387526182976
 31
0.0
  0
ARC
  5
3769
  8
0
 10
50.0
 20
267.0000000000002842
 30
0.0
 40
11.7500000000000302
 50
33.6596653506490995
 51
86.3403346493571746
  0
LINE
  5
376A
  8
0
 10
50.7499999999991118
 20
278.7260393995589993
 30
0.0
 11
50.7499999999991118
 21
275.9686955573263276
 31
0.0
  0
ARC
  5
376B
  8
0
 10
50.0
 20
267.0000000000002842
 30
0.0
 40
8.9999999999998863
 50
94.780191847202147
 51
145.2198081528063938
  0
LINE
  5
376C
  8
0
 10
49.2499999999995879
 20
275.9686955573262139
 30
0.0
 11
49.2499999999995666
 21
278.7260393995588856
 31
0.0
  0
ARC
  5
376D
  8
0
 10
50.0
 20
267.0000000000002842
 30
0.0
 40
11.7500000000000195
 50
93.659665350649334
 51
146.340334649357402
  0
LINE
  5
376E
  8
0
 10
40.2199519942045498
 20
273.5125387526172176
 30
0.0
 11
42.6078818085466295
 21
272.1338668315008817
 31
0.0
  0
ARC
  5
376F
  8
0
 10
50.0
 20
267.0000000000002842
 30
0.0
 40
8.9999999999998597
 50
214.7801918472025022
 51
265.2198081528076159
  0
LINE
  5
3770
  8
0
 10
42.6078818085473685
 20
261.8661331684986067
 30
0.0
 11
40.2199519942053527
 21
260.4874612473823277
 31
0.0
  0
ARC
  5
3771
  8
0
 10
50.0
 20
267.0000000000002842
 30
0.0
 40
11.7499999999999893
 50
213.6596653506503003
 51
266.3403346493587946
  0
LINE
  5
3772
  8
0
 10
49.2500000000009308
 20
255.2739606004417112
 30
0.0
 11
49.2500000000009308
 21
258.0313044426742977
 31
0.0
  0
ARC
  5
3773
  8
0
 10
50.0
 20
267.0000000000002842
 30
0.0
 40
8.9999999999998632
 50
154.7801918472019054
 51
205.2198081528073033
  0
LINE
  5
3774
  8
0
 10
41.8578818085469422
 20
270.8348287258245932
 30
0.0
 11
39.4699519942048411
 21
272.2135006469408722
 31
0.0
  0
ARC
  5
3775
  8
0
 10
50.0
 20
267.0000000000002842
 30
0.0
 40
11.75
 50
153.6596653506491919
 51
206.3403346493581125
  0
LINE
  5
3776
  8
0
 10
39.4699519942054735
 20
261.7864993530586162
 30
0.0
 11
41.8578818085475106
 21
263.1651712741748952
 31
0.0
  0
ARC
  5
3777
  8
0
 10
50.0
 20
267.0000000000002842
 30
0.0
 40
8.9999999999998632
 50
334.7801918472029001
 51
25.2198081528066389
  0
LINE
  5
3778
  8
0
 10
58.142118191453072
 20
263.1651712741760889
 30
0.0
 11
60.5300480057951518
 21
261.7864993530598099
 31
0.0
  0
ARC
  5
3779
  8
0
 10
50.0
 20
267.0000000000002842
 30
0.0
 40
11.7500000000000302
 50
333.6596653506499024
 51
26.34033464935737
  0
LINE
  5
377A
  8
0
 10
60.5300480057945833
 20
272.2135006469421228
 30
0.0
 11
58.1421181914524681
 21
270.8348287258257869
 31
0.0
  0
ARC
  5
377B
  8
0
 10
50.0
 20
267.0000000000002842
 30
0.0
 40
11.7500000000000195
 50
273.6596653506500729
 51
326.3403346493582262
  0
LINE
  5
377C
  8
0
 10
59.7800480057954573
 20
260.4874612473834077
 30
0.0
 11
57.3921181914534131
 21
261.8661331684998004
 31
0.0
  0
ARC
  5
377D
  8
0
 10
50.0
 20
267.0000000000002842
 30
0.0
 40
8.9999999999998881
 50
274.7801918472029001
 51
325.2198081528076727
  0
LINE
  5
377E
  8
0
 10
50.7500000000004476
 20
258.031304442674525
 30
0.0
 11
50.7500000000004476
 21
255.2739606004417965
 31
0.0
  0
CIRCLE
  5
3788
  8
0
 10
50.0000000000004619
 20
83.000000000000199
 30
0.0
 40
6.5
  0
ARC
  5
378A
  8
0
 10
193.000000000000199
 20
55.4999999999997797
 30
0.0
 40
2.000000000000028
 50
359.999999999986585
 51
90.0
  0
LINE
  5
378B
  8
0
 10
155.0
 20
49.9999999999998934
 30
0.0
 11
195.0000000000003126
 21
49.9999999999992824
 31
0.0
  0
LINE
  5
378D
  8
0
 10
195.0000000000003126
 20
49.9999999999997726
 30
0.0
 11
195.0000000000003126
 21
55.4999999999997726
 31
0.0
  0
ARC
  5
378E
  8
0
 10
157.0000000000003126
 20
55.4999999999998792
 30
0.0
 40
2.0000000000000071
 50
90.0
 51
179.9999999999826912
  0
LINE
  5
378F
  8
0
 10
157.0000000000003126
 20
57.4999999999998934
 30
0.0
 11
193.0000000000003126
 21
57.49999999999919
 31
0.0
  0
CIRCLE
  5
3791
  8
0
 10
49.9999999999997371
 20
267.0000000000002274
 30
0.0
 40
13.25
  0
ARC
  5
3792
  8
0
 10
50.0000000000002416
 20
175.0
 30
0.0
 40
20.0
 50
180.0000000000001137
 51
359.9999999999998863
  0
LINE
  5
3798
  8
1
 10
13.7500000000002505
 20
175.0
 30
0.0
 11
26.2500000000002593
 21
175.0
 31
0.0
  0
LINE
  5
3799
  8
1
 10
20.0000000000002593
 20
181.25
 30
0.0
 11
20.0000000000002593
 21
168.75
 31
0.0
  0
LINE
  5
379A
  8
1
 10
73.7500000000002416
 20
175.0
 30
0.0
 11
86.2500000000002416
 21
175.0
 31
0.0
  0
LINE
  5
379B
  8
1
 10
80.0000000000002416
 20
181.25
 30
0.0
 11
80.0000000000002416
 21
168.75
 31
0.0
  0
LINE
  5
379E
  8
1
 10
50.0000000000002416
 20
195.9000000000000057
 30
0.0
 11
50.0000000000002416
 21
152.0
 31
0.0
  0
LINE
  5
37A2
  8
1
 10
20.0000000000002416
 20
60.5000000000000782
 30
0.0
 11
20.0000000000002416
 21
47.0
 31
0.0
  0
LINE
  5
37A4
  8
1
 10
79.9999999999997584
 20
60.5000000000000782
 30
0.0
 11
79.9999999999997584
 21
47.0
 31
0.0
  0
LINE
  5
37A7
  8
1
 10
50.0000000000002274
 20
44.9999999999997726
 30
0.0
 11
50.0000000000002487
 21
109.5000000000002984
 31
0.0
  0
LINE
  5
37AB
  8
1
 10
40.5000000000004619
 20
83.000000000000199
 30
0.0
 11
59.5000000000004476
 21
83.000000000000199
 31
0.0
  0
LINE
  5
37AC
  8
1
 10
20.0000000000002416
 20
289.5
 30
0.0
 11
20.0000000000002416
 21
303.0000000000001137
 31
0.0
  0
LINE
  5
37AD
  8
1
 10
79.9999999999997584
 20
289.5
 30
0.0
 11
79.9999999999997584
 21
303.0000000000001137
 31
0.0
  0
LINE
  5
37AE
  8
1
 10
50.0000000000002274
 20
305.0000000000002842
 30
0.0
 11
50.0000000000002487
 21
240.499999999999801
 31
0.0
  0
LINE
  5
37AF
  8
1
 10
40.5000000000004619
 20
266.9999999999998863
 30
0.0
 11
59.5000000000004476
 21
266.9999999999998863
 31
0.0
  0
LINE
  5
37B0
  8
1
 10
152.0
 20
83.0000000000001137
 30
0.0
 11
195.9000000000000057
 21
83.0000000000001137
 31
0.0
  0
LINE
  5
3803
  8
1
 10
175.0000000000001137
 20
60.500000000000199
 30
0.0
 11
175.0000000000001137
 21
47.0000000000001066
 31
0.0
  0
LINE
  5
3837
  8
0
 10
43.4999999999998579
 20
79.2472232502679503
 30
0.0
 11
49.9999999999998508
 21
75.4944465005353891
 31
0.0
  0
LINE
  5
3838
  8
0
 10
49.9999999999998508
 20
75.4944465005353891
 30
0.0
 11
56.4999999999998579
 21
79.2472232502679503
 31
0.0
  0
LINE
  5
3839
  8
0
 10
56.4999999999998579
 20
79.2472232502679503
 30
0.0
 11
56.4999999999998579
 21
86.7527767497330871
 31
0.0
  0
LINE
  5
383A
  8
0
 10
56.4999999999998579
 20
86.7527767497330871
 30
0.0
 11
49.9999999999998721
 21
90.5055534994656625
 31
0.0
  0
LINE
  5
383B
  8
0
 10
49.9999999999998721
 20
90.5055534994656625
 30
0.0
 11
43.4999999999998579
 21
86.7527767497331013
 31
0.0
  0
LINE
  5
383C
  8
0
 10
43.4999999999998579
 20
86.7527767497331013
 30
0.0
 11
43.4999999999998579
 21
79.2472232502679503
 31
0.0
  0
LINE
  5
3A89
  8
3
 10
46.7669999999999888
 20
180.9000000000000057
 30
0.0
 11
46.7669999999999888
 21
177.0
 31
0.0
  0
LINE
  5
3A8A
  8
3
 10
53.2329999999999899
 20
180.9000000000000057
 30
0.0
 11
53.232999999999997
 21
177.0
 31
0.0
  0
LINE
  5
3A8B
  8
3
 10
180.899999999999892
 20
86.2330000000000751
 30
0.0
 11
177.0
 21
86.2330000000000751
 31
0.0
  0
LINE
  5
3A8C
  8
3
 10
180.9000000000000057
 20
79.767000000000067
 30
0.0
 11
177.0
 21
79.767000000000067
 31
0.0
  0
LINE
  5
3AAB
  8
0
 10
45.9999999999999574
 20
180.9000000000000057
 30
0.0
 11
53.9999999999999787
 21
180.9000000000000057
 31
0.0
  0
LINE
  5
3AAC
  8
0
 10
180.899999999999892
 20
87.0000000000001137
 30
0.0
 11
180.9000000000000057
 21
79.0000000000001137
 31
0.0
  0
LINE
  5
3AB3
  8
3
 10
53.9999999999999787
 20
182.2284829694052917
 30
0.0
 11
53.232999999999997
 21
180.9000000000000057
 31
0.0
  0
LINE
  5
3AB4
  8
3
 10
46.0000000000005471
 20
182.2284829694052064
 30
0.0
 11
46.7670000000005786
 21
180.899999999999892
 31
0.0
  0
LINE
  5
3AB5
  8
3
 10
182.2284829694052917
 20
79.0000000000003695
 30
0.0
 11
180.899999999999892
 21
79.767000000000337
 31
0.0
  0
LINE
  5
3AB6
  8
3
 10
182.2284829694052064
 20
86.9999999999997868
 30
0.0
 11
180.899999999999892
 21
86.2329999999997483
 31
0.0
  0
LINE
  5
3ABF
  8
2
 10
16.7500000000002487
 20
50.0000000000000995
 30
0.0
 11
16.7500000000002487
 21
57.5000000000001208
 31
0.0
  0
LINE
  5
3AC0
  8
2
 10
23.2500000000002487
 20
50.0000000000000284
 30
0.0
 11
23.2500000000002593
 21
57.5000000000000497
 31
0.0
  0
LINE
  5
3AC1
  8
2
 10
76.7500000000002416
 20
49.9999999999995026
 30
0.0
 11
76.7500000000002558
 21
57.4999999999994174
 31
0.0
  0
LINE
  5
3AC2
  8
2
 10
83.2500000000002416
 20
49.9999999999994316
 30
0.0
 11
83.2500000000002416
 21
57.4999999999993179
 31
0.0
  0
LINE
  5
3AC4
  8
2
 10
83.2500000000002416
 20
292.5000000000002274
 30
0.0
 11
83.2500000000002416
 21
300.0000000000002274
 31
0.0
  0
LINE
  5
3AC5
  8
2
 10
76.7500000000002558
 20
292.5000000000002274
 30
0.0
 11
76.7500000000002416
 21
300.0000000000002274
 31
0.0
  0
LINE
  5
3AC6
  8
2
 10
23.2500000000002593
 20
292.4999999999998863
 30
0.0
 11
23.2500000000002487
 21
300.0
 31
0.0
  0
LINE
  5
3AC7
  8
2
 10
16.7500000000002487
 20
292.4999999999998863
 30
0.0
 11
16.7500000000002487
 21
300.0
 31
0.0
  0
LINE
  5
3AC8
  8
2
 10
171.7500000000005969
 20
49.9999999999996092
 30
0.0
 11
171.7500000000007105
 21
57.499999999999531
 31
0.0
  0
LINE
  5
3AC9
  8
2
 10
178.2500000000005969
 20
49.9999999999995381
 30
0.0
 11
178.2500000000005969
 21
57.4999999999994387
 31
0.0
  0
LINE
  5
3ACD
  8
0
 10
47.0000000000004476
 20
268.7320508075687826
 30
0.0
 11
47.0000000000004476
 21
265.2679491924311037
 31
0.0
  0
LINE
  5
3ACE
  8
0
 10
47.0000000000004476
 20
265.2679491924311037
 30
0.0
 11
50.0000000000004619
 21
263.5358983848622074
 31
0.0
  0
LINE
  5
3ACF
  8
0
 10
50.0000000000004619
 20
263.5358983848622074
 30
0.0
 11
53.0000000000004619
 21
265.2679491924311037
 31
0.0
  0
LINE
  5
3AD0
  8
0
 10
53.0000000000004619
 20
265.2679491924311037
 30
0.0
 11
53.0000000000004619
 21
268.7320508075687826
 31
0.0
  0
LINE
  5
3AD1
  8
0
 10
53.0000000000004619
 20
268.7320508075687826
 30
0.0
 11
50.000000000000469
 21
270.4641016151376789
 31
0.0
  0
LINE
  5
3AD2
  8
0
 10
50.000000000000469
 20
270.4641016151376789
 30
0.0
 11
47.0000000000004476
 21
268.7320508075687826
 31
0.0
  0
ENDSEC
  0
EOF
