  0
SECTION
  2
HEADER
  9
$ACADVER
  1
AC1009
  9
$INSBASE
 10
0.0
 20
0.0
 30
0.0
  9
$EXTMIN
 10
0.0
 20
-2.960436562073669
 30
0.0
  9
$EXTMAX
 10
377.25
 20
175.2500000000001137
 30
0.0
  9
$LIMMIN
 10
0.0
 20
0.0
  9
$LIMMAX
 10
375.0
 20
270.0
  9
$ORTHOMODE
 70
     0
  9
$REGENMODE
 70
     1
  9
$FILLMODE
 70
     1
  9
$QTEXTMODE
 70
     0
  9
$MIRRTEXT
 70
     0
  9
$DRAGMODE
 70
     2
  9
$LTSCALE
 40
10.0
  9
$OSMODE
 70
    37
  9
$ATTMODE
 70
     1
  9
$TEXTSIZE
 40
0.2
  9
$TRACEWID
 40
0.05
  9
$TEXTSTYLE
  7
STANDARD
  9
$CLAYER
  8
0
  9
$CELTYPE
  6
BYLAYER
  9
$CECOLOR
 62
   256
  9
$DIMSCALE
 40
1.0
  9
$DIMASZ
 40
3.0
  9
$DIMEXO
 40
2.0
  9
$DIMDLI
 40
0.38
  9
$DIMRND
 40
0.0
  9
$DIMDLE
 40
0.0
  9
$DIMEXE
 40
2.0
  9
$DIMTP
 40
0.0
  9
$DIMTM
 40
0.0
  9
$DIMTXT
 40
3.2000000000000002
  9
$DIMCEN
 40
0.0
  9
$DIMTSZ
 40
0.0
  9
$DIMTOL
 70
     0
  9
$DIMLIM
 70
     0
  9
$DIMTIH
 70
     0
  9
$DIMTOH
 70
     0
  9
$DIMSE1
 70
     0
  9
$DIMSE2
 70
     0
  9
$DIMTAD
 70
     1
  9
$DIMZIN
 70
     0
  9
$DIMBLK
  1

  9
$DIMASO
 70
     0
  9
$DIMSHO
 70
     0
  9
$DIMPOST
  1

  9
$DIMAPOST
  1

  9
$DIMALT
 70
     0
  9
$DIMALTD
 70
     2
  9
$DIMALTF
 40
25.3999999999999986
  9
$DIMLFAC
 40
1.0
  9
$DIMTOFL
 70
     1
  9
$DIMTVP
 40
1.6000000000000001
  9
$DIMTIX
 70
     1
  9
$DIMSOXD
 70
     0
  9
$DIMSAH
 70
     0
  9
$DIMBLK1
  1

  9
$DIMBLK2
  1

  9
$DIMSTYLE
  2
STANDARD
  9
$DIMCLRD
 70
     0
  9
$DIMCLRE
 70
     0
  9
$DIMCLRT
 70
     0
  9
$DIMTFAC
 40
1.0
  9
$DIMGAP
 40
0.09
  9
$LUNITS
 70
     2
  9
$LUPREC
 70
     1
  9
$SKETCHINC
 40
0.1
  9
$FILLETRAD
 40
0.0
  9
$AUNITS
 70
     0
  9
$AUPREC
 70
     1
  9
$MENU
  1
E:\r13\win\SUPPORT\ACAD
  9
$ELEVATION
 40
0.0
  9
$PELEVATION
 40
0.0
  9
$THICKNESS
 40
0.0
  9
$LIMCHECK
 70
     0
  9
$BLIPMODE
 70
     0
  9
$CHAMFERA
 40
0.0
  9
$CHAMFERB
 40
0.0
  9
$SKPOLY
 70
     0
  9
$TDCREATE
 40
2449840.6474999999627471
  9
$TDUPDATE
 40
2460203.6565740751102567
  9
$TDINDWG
 40
1.2748713194000001
  9
$TDUSRTIMER
 40
1.2748713194000001
  9
$USRTIMER
 70
     1
  9
$ANGBASE
 50
0.0
  9
$ANGDIR
 70
     0
  9
$PDMODE
 70
     0
  9
$PDSIZE
 40
0.0
  9
$PLINEWID
 40
0.0
  9
$COORDS
 70
     1
  9
$SPLFRAME
 70
     0
  9
$SPLINETYPE
 70
     6
  9
$SPLINESEGS
 70
     8
  9
$ATTDIA
 70
     1
  9
$ATTREQ
 70
     1
  9
$HANDLING
 70
     1
  9
$HANDSEED
  5
388A
  9
$SURFTAB1
 70
     6
  9
$SURFTAB2
 70
     6
  9
$SURFTYPE
 70
     6
  9
$SURFU
 70
     6
  9
$SURFV
 70
     6
  9
$UCSNAME
  2

  9
$UCSORG
 10
0.0
 20
0.0
 30
0.0
  9
$UCSXDIR
 10
1.0
 20
0.0
 30
0.0
  9
$UCSYDIR
 10
0.0
 20
1.0
 30
0.0
  9
$PUCSNAME
  2

  9
$PUCSORG
 10
0.0
 20
0.0
 30
0.0
  9
$PUCSXDIR
 10
1.0
 20
0.0
 30
0.0
  9
$PUCSYDIR
 10
0.0
 20
1.0
 30
0.0
  9
$USERI1
 70
     0
  9
$USERI2
 70
     1
  9
$USERI3
 70
     0
  9
$USERI4
 70
     0
  9
$USERI5
 70
     0
  9
$USERR1
 40
0.0
  9
$USERR2
 40
0.0
  9
$USERR3
 40
0.0
  9
$USERR4
 40
0.0
  9
$USERR5
 40
0.0
  9
$WORLDVIEW
 70
     1
  9
$SHADEDGE
 70
     3
  9
$SHADEDIF
 70
    70
  9
$TILEMODE
 70
     1
  9
$MAXACTVP
 70
    16
  9
$PLIMCHECK
 70
     0
  9
$PEXTMIN
 10
1.0000000000000000E+20
 20
1.0000000000000000E+20
 30
1.0000000000000000E+20
  9
$PEXTMAX
 10
-1.0000000000000000E+20
 20
-1.0000000000000000E+20
 30
-1.0000000000000000E+20
  9
$PLIMMIN
 10
0.0
 20
0.0
  9
$PLIMMAX
 10
12.0
 20
9.0
  9
$UNITMODE
 70
     0
  9
$VISRETAIN
 70
     0
  9
$PLINEGEN
 70
     0
  9
$PSLTSCALE
 70
     0
  0
ENDSEC
  0
SECTION
  2
TABLES
  0
TABLE
  2
VPORT
 70
     1
  0
VPORT
  2
*ACTIVE
 70
     0
 10
0.0
 20
0.0
 11
1.0
 21
1.0
 12
469.7044334975369111
 22
200.0
 13
0.0
 23
0.0
 14
10.0
 24
10.0
 15
10.0
 25
10.0
 16
0.0
 26
0.0
 36
1.0
 17
0.0
 27
0.0
 37
0.0
 40
400.0
 41
2.3485221674876842
 42
50.0
 43
0.0
 44
0.0
 50
0.0
 51
0.0
 71
     0
 72
   500
 73
     1
 74
     0
 75
     0
 76
     0
 77
     0
 78
     2
  0
ENDTAB
  0
TABLE
  2
LTYPE
 70
    11
  0
LTYPE
  2
CONTINUOUS
 70
     0
  3
Solid Line
 72
    65
 73
     0
 40
0.0
  0
LTYPE
  2
CENTER
 70
     0
  3
____ _ ____ _ ____ _ ____ _ ____ _ ____ _ ____
 72
    65
 73
     4
 40
2.0
 49
1.25
 49
-0.25
 49
0.25
 49
-0.25
  0
LTYPE
  2
HIDDEN
 70
     0
  3
_ _ _ _ _ _ _ _ _ _ _ _ _ _ _ _ _ _ _ _ _ _ _
 72
    65
 73
     2
 40
0.375
 49
0.25
 49
-0.125
  0
LTYPE
  2
PHANTOM2
 70
     0
  3
Phantom (.5x) ___ _ _ ___ _ _ ___ _ _ ___ _ _
 72
    65
 73
     6
 40
1.25
 49
0.625
 49
-0.125
 49
0.125
 49
-0.125
 49
0.125
 49
-0.125
  0
LTYPE
  2
CENTER2
 70
     0
  3
Center (.5x) ___ _ ___ _ ___ _ ___ _ ___ _ ___
 72
    65
 73
     4
 40
1.125
 49
0.75
 49
-0.125
 49
0.125
 49
-0.125
  0
LTYPE
  2
HIDDEN2
 70
     0
  3
Hidden (.5x) _ _ _ _ _ _ _ _ _ _ _ _ _ _ _ _ _
 72
    65
 73
     2
 40
0.1875
 49
0.125
 49
-0.0625
  0
LTYPE
  2
ACANSTGB
 70
     0
  3
__ . . __ . .
 72
    65
 73
     6
 40
0.35433070866
 49
0.15748031496
 49
-0.03937007874
 49
0.03937007874
 49
-0.03937007874
 49
0.03937007874
 49
-0.03937007874
  0
LTYPE
  2
ACANSTGL
 70
     0
  3
_ _ _ _ _
 72
    65
 73
     2
 40
0.11811023622
 49
0.07874015748
 49
-0.03937007874
  0
LTYPE
  2
ACISOWELD
 70
     0
  3
_ _ _ _ _
 72
    65
 73
     2
 40
2.0
 49
2.0
 49
-1.0
  0
LTYPE
  2
ACISOTGL
 70
     0
  3
_ _ _ _ _
 72
    65
 73
     2
 40
3.0
 49
2.0
 49
-1.0
  0
LTYPE
  2
ACISOTGB
 70
     0
  3
__ . . __ . .
 72
    65
 73
     6
 40
9.0
 49
4.0
 49
-1.0
 49
1.0
 49
-1.0
 49
1.0
 49
-1.0
  0
ENDTAB
  0
TABLE
  2
LAYER
 70
     5
  0
LAYER
  2
0
 70
     0
 62
     7
  6
CONTINUOUS
  0
LAYER
  2
1
 70
     0
 62
     1
  6
CENTER
  0
LAYER
  2
2
 70
     0
 62
     2
  6
HIDDEN
  0
LAYER
  2
DEFPOINTS
 70
     0
 62
     7
  6
CONTINUOUS
  0
LAYER
  2
3
 70
     0
 62
     3
  6
CONTINUOUS
  0
ENDTAB
  0
TABLE
  2
STYLE
 70
     4
  0
STYLE
  2
STANDARD
 70
     0
 40
0.0
 41
1.0
 50
0.0
 71
     0
 42
0.2
  3
TXT
  4
BIGFONT
  0
STYLE
  2
STANDARD1
 70
     0
 40
0.0
 41
1.0
 50
0.0
 71
     0
 42
3.0
  3
txt
  4

  0
STYLE
  2
ACANSGDT
 70
     0
 40
0.0
 41
1.0
 50
0.0
 71
     0
 42
0.2
  3
amgdt.shx
  4

  0
STYLE
  2
ACISOGDT
 70
     0
 40
0.0
 41
1.0
 50
0.0
 71
     0
 42
2.5
  3
amgdt.shx
  4

  0
ENDTAB
  0
TABLE
  2
VIEW
 70
     1
  0
VIEW
  2
ALL
 70
     0
 40
270.0
 10
220.9915966386554942
 20
135.0
 41
0.0
 11
0.0
 21
0.0
 31
1.0
 12
0.0
 22
0.0
 32
0.0
 42
0.0
 43
0.0
 44
0.0
 50
0.0
 71
     0
  0
ENDTAB
  0
TABLE
  2
UCS
 70
     0
  0
ENDTAB
  0
TABLE
  2
APPID
 70
    22
  0
APPID
  2
ACAD
 70
     0
  0
APPID
  2
ACAD_EXEMPT_FROM_CAD_STANDARDS
 70
     0
  0
APPID
  2
ACAD_MLEADERVER
 70
     0
  0
APPID
  2
MCAD_NO_VIS
 70
     0
  0
APPID
  2
ACAD_TEMP_GRAPHIC
 70
     0
  0
APPID
  2
ACATTRIBSERVICES
 70
     0
  0
APPID
  2
DESIGNERASSEMBLIES
 70
     0
  0
APPID
  2
ACAD_DSTYLE_DIMJAG
 70
     0
  0
APPID
  2
ACAD_DSTYLE_DIMBREAK
 70
     0
  0
APPID
  2
ACAD_NAV_VCDISPLAY
 70
     0
  0
APPID
  2
ACAECLAYERSTANDARD
 70
     0
  0
APPID
  2
GENIUS_GENODEF_13
 70
     0
  0
APPID
  2
GENIUS_GENOBJ-N-CEN_13
 70
     0
  0
APPID
  2
GENIUS_GENCEN_19
 70
     0
  0
APPID
  2
GENIUS_GENDTOL_13
 70
     0
  0
APPID
  2
ACAD_DSTYLE_DIMINSPECT
 70
     0
  0
APPID
  2
ACADANNOMONITORALERTICONDI
 70
     0
  0
APPID
  2
ACAD_DSTYLE_DIMRADIAL_EXTENSION
 70
     0
  0
APPID
  2
GENIUS_GENREC_14
 70
     0
  0
APPID
  2
GENIUS_GENOBJ-N-REC_13
 70
     0
  0
APPID
  2
GENIUS_GENOBJ-N-FIL_13
 70
     0
  0
APPID
  2
ACAD_DSTYLE_DIMTALN
 70
     0
  0
ENDTAB
  0
TABLE
  2
DIMSTYLE
 70
    14
  0
DIMSTYLE
  2
STANDARD
 70
     0
  3

  4

  5

  6

  7

 40
1.0
 41
0.18
 42
0.0625
 43
0.38
 44
0.18
 45
0.0
 46
0.0
 47
0.0
 48
0.0
140
0.18
141
0.09
142
0.0
143
25.3999999999999986
144
1.0
145
0.0
146
1.0
147
0.09
 71
     0
 72
     0
 73
     1
 74
     1
 75
     0
 76
     0
 77
     0
 78
     0
170
     0
171
     2
172
     0
173
     0
174
     0
175
     0
176
     0
177
     0
178
     0
  0
DIMSTYLE
  2
AM_ANSI
 70
     0
  3

  4
mm
  5

  6

  7

 40
1.0
 41
0.12
 42
0.05
 43
0.5
 44
0.1
 45
0.0
 46
0.0
 47
0.1
 48
0.1
140
0.12
141
0.0
142
0.0
143
25.3999999999999986
144
1.0
145
0.0
146
0.71
147
0.06
 71
     0
 72
     0
 73
     1
 74
     1
 75
     0
 76
     0
 77
     0
 78
     7
170
     0
171
     2
172
     0
173
     0
174
     0
175
     0
176
   256
177
   256
178
     2
  0
DIMSTYLE
  2
AM_ANSI$3
 70
     0
  3

  4
mm
  5

  6

  7

 40
1.0
 41
0.12
 42
0.05
 43
0.5
 44
0.1
 45
0.0
 46
0.0
 47
0.1
 48
0.1
140
0.12
141
0.0
142
0.0
143
25.3999999999999986
144
1.0
145
0.0
146
0.71
147
0.06
 71
     0
 72
     0
 73
     1
 74
     1
 75
     0
 76
     0
 77
     0
 78
     7
170
     0
171
     2
172
     0
173
     0
174
     0
175
     0
176
   256
177
   256
178
     2
  0
DIMSTYLE
  2
AM_ANSI$4
 70
     0
  3

  4
mm
  5

  6

  7

 40
1.0
 41
0.12
 42
0.05
 43
0.5
 44
0.1
 45
0.0
 46
0.0
 47
0.1
 48
0.1
140
0.12
141
0.0
142
0.0
143
25.3999999999999986
144
1.0
145
0.0
146
0.71
147
0.06
 71
     0
 72
     0
 73
     1
 74
     1
 75
     0
 76
     0
 77
     0
 78
     7
170
     0
171
     2
172
     0
173
     0
174
     0
175
     0
176
   256
177
   256
178
     2
  0
DIMSTYLE
  2
AM_ANSI$7
 70
     0
  3

  4
mm
  5

  6

  7

 40
1.0
 41
0.12
 42
0.05
 43
0.5
 44
0.1
 45
0.0
 46
0.0
 47
0.1
 48
0.1
140
0.12
141
0.0
142
0.0
143
25.3999999999999986
144
1.0
145
0.0
146
0.71
147
0.06
 71
     0
 72
     0
 73
     1
 74
     1
 75
     0
 76
     0
 77
     0
 78
     7
170
     0
171
     2
172
     0
173
     0
174
     0
175
     0
176
   256
177
   256
178
     2
  0
DIMSTYLE
  2
AM_ANSI$SF
 70
     0
  3

  4
mm
  5

  6

  7

 40
1.0
 41
0.12
 42
0.05
 43
0.5
 44
0.1
 45
0.0
 46
0.0
 47
0.1
 48
0.1
140
0.12
141
0.0
142
0.0
143
25.3999999999999986
144
1.0
145
0.0
146
0.71
147
0.06
 71
     0
 72
     0
 73
     1
 74
     1
 75
     1
 76
     1
 77
     0
 78
     7
170
     0
171
     2
172
     0
173
     0
174
     0
175
     0
176
   256
177
   256
178
     2
  0
DIMSTYLE
  2
AM_ANSI$SH
 70
     0
  3

  4
mm
  5

  6
GENAXEH
  7

 40
1.0
 41
0.12
 42
0.05
 43
0.5
 44
0.1
 45
0.0
 46
0.0
 47
0.1
 48
0.1
140
0.12
141
0.0
142
0.0
143
25.3999999999999986
144
1.0
145
0.0
146
0.71
147
0.06
 71
     0
 72
     0
 73
     1
 74
     1
 75
     1
 76
     1
 77
     0
 78
     7
170
     0
171
     2
172
     0
173
     1
174
     0
175
     0
176
   256
177
   256
178
     2
  0
DIMSTYLE
  2
AM_ISO
 70
     0
  3

  4
"
  5

  6

  7

 40
1.0
 41
3.5
 42
1.0
 43
10.0
 44
1.0
 45
0.0
 46
0.0
 47
0.1
 48
0.1
140
3.5
141
0.0
142
0.0
143
0.0393701
144
1.0
145
0.0
146
0.71
147
1.5
 71
     0
 72
     0
 73
     0
 74
     0
 75
     0
 76
     0
 77
     1
 78
     8
170
     0
171
     2
172
     1
173
     0
174
     0
175
     0
176
   256
177
   256
178
     2
  0
DIMSTYLE
  2
AM_ISO$3
 70
     0
  3

  4
"
  5

  6

  7

 40
1.0
 41
3.5
 42
1.0
 43
10.0
 44
1.0
 45
0.0
 46
0.0
 47
0.1
 48
0.1
140
3.5
141
0.0
142
0.0
143
0.0393701
144
1.0
145
0.0
146
0.71
147
1.5
 71
     0
 72
     0
 73
     0
 74
     1
 75
     0
 76
     0
 77
     1
 78
     8
170
     0
171
     2
172
     0
173
     0
174
     0
175
     0
176
   256
177
   256
178
     2
  0
DIMSTYLE
  2
AM_ISO$4
 70
     0
  3

  4
"
  5

  6

  7

 40
1.0
 41
3.5
 42
1.0
 43
10.0
 44
1.0
 45
0.0
 46
0.0
 47
0.1
 48
0.1
140
3.5
141
0.0
142
0.0
143
0.0393701
144
1.0
145
0.0
146
0.71
147
1.5
 71
     0
 72
     0
 73
     0
 74
     1
 75
     0
 76
     0
 77
     1
 78
     8
170
     0
171
     2
172
     0
173
     0
174
     0
175
     0
176
   256
177
   256
178
     2
  0
DIMSTYLE
  2
AM_ISO$6
 70
     0
  3

  4
"
  5

  6

  7

 40
1.0
 41
3.5
 42
1.0
 43
10.0
 44
1.0
 45
0.0
 46
0.0
 47
0.1
 48
0.1
140
3.5
141
0.0
142
0.0
143
0.0393701
144
1.0
145
0.0
146
0.71
147
1.5
 71
     0
 72
     0
 73
     0
 74
     0
 75
     0
 76
     0
 77
     0
 78
     8
170
     0
171
     2
172
     1
173
     0
174
     0
175
     0
176
   256
177
   256
178
     2
  0
DIMSTYLE
  2
AM_ISO$7
 70
     0
  3

  4
"
  5

  6

  7

 40
1.0
 41
3.5
 42
1.0
 43
10.0
 44
1.0
 45
0.0
 46
0.0
 47
0.1
 48
0.1
140
3.5
141
0.0
142
0.0
143
0.0393701
144
1.0
145
0.0
146
0.71
147
1.5
 71
     0
 72
     0
 73
     0
 74
     0
 75
     0
 76
     0
 77
     1
 78
     8
170
     0
171
     2
172
     1
173
     0
174
     0
175
     0
176
   256
177
   256
178
     2
  0
DIMSTYLE
  2
AM_ISO$SF
 70
     0
  3

  4
"
  5

  6

  7

 40
1.0
 41
3.5
 42
1.0
 43
10.0
 44
1.0
 45
0.0
 46
0.0
 47
0.1
 48
0.1
140
3.5
141
0.0
142
0.0
143
0.0393701
144
1.0
145
0.0
146
0.71
147
1.5
 71
     0
 72
     0
 73
     0
 74
     0
 75
     1
 76
     1
 77
     1
 78
     8
170
     0
171
     2
172
     1
173
     0
174
     0
175
     0
176
   256
177
   256
178
     2
  0
DIMSTYLE
  2
AM_ISO$SH
 70
     0
  3

  4
"
  5

  6
GENAXEH
  7

 40
1.0
 41
3.5
 42
1.0
 43
10.0
 44
1.0
 45
0.0
 46
0.0
 47
0.1
 48
0.1
140
3.5
141
0.0
142
0.0
143
0.0393701
144
2.0
145
0.0
146
0.71
147
1.5
 71
     0
 72
     0
 73
     0
 74
     0
 75
     1
 76
     1
 77
     1
 78
     8
170
     0
171
     2
172
     1
173
     1
174
     0
175
     0
176
   256
177
   256
178
     2
  0
ENDTAB
  0
ENDSEC
  0
SECTION
  2
BLOCKS
  0
BLOCK
  8
0
  2
$MODEL_SPACE
 70
     0
 10
0.0
 20
0.0
 30
0.0
  3
$MODEL_SPACE
  1

  0
ENDBLK
  5
AA
  8
0
  0
BLOCK
 67
     1
  8
0
  2
$PAPER_SPACE
 70
     0
 10
0.0
 20
0.0
 30
0.0
  3
$PAPER_SPACE
  1

  0
ENDBLK
  5
A8
 67
     1
  8
0
  0
BLOCK
  8
0
  2
*U0
 70
     1
 10
0.0
 20
0.0
 30
0.0
  3
*U0
  1

  0
ENDBLK
  5
20F
  8
0
  0
BLOCK
  8
0
  2
GENAXEH
 70
     0
 10
0.0
 20
0.0
 30
0.0
  3
GENAXEH
  1

  0
LINE
  5
239
  8
0
 10
-1.0
 20
0.0
 30
0.0
 11
1.0
 21
0.0
 31
0.0
  0
ENDBLK
  5
23B
  8
0
  0
ENDSEC
  0
SECTION
  2
ENTITIES
  0
TEXT
  5
1CC
  8
0
 62
     3
 10
0.0
 20
0.0
 30
0.0
 40
10.0
  1
TCC30-AP-TP-S-B
  7
STANDARD1
  0
ARC
  5
2DC4
  8
0
 10
137.6499999999992099
 20
167.3500000000001933
 30
0.0
 40
0.6499999999998494
 50
89.9999999999861586
 51
180.0000000000131877
  0
ARC
  5
2DC5
  8
0
 10
149.3499999999995111
 20
167.3500000000001933
 30
0.0
 40
0.6499999999998636
 50
359.9999999999881766
 51
90.0000000000138556
  0
LINE
  5
2DC6
  8
0
 10
136.9999999999992895
 20
167.3499999999999943
 30
0.0
 11
136.9999999999992895
 21
163.999999999999801
 31
0.0
  0
LINE
  5
2DC7
  8
0
 10
149.9999999999992895
 20
163.9999999999998863
 30
0.0
 11
149.9999999999992895
 21
167.3499999999999943
 31
0.0
  0
LINE
  5
2DC8
  8
0
 10
139.4999999999992895
 20
152.2499999999998863
 30
0.0
 11
139.4999999999992895
 21
147.7499999999998863
 31
0.0
  0
LINE
  5
2DC9
  8
0
 10
147.4999999999992895
 20
147.75
 30
0.0
 11
147.4999999999992895
 21
152.2499999999998863
 31
0.0
  0
LINE
  5
2DCA
  8
0
 10
136.9999999999992895
 20
134.8000000000000114
 30
0.0
 11
137.7502577388063969
 21
132.0
 31
0.0
  0
LINE
  5
2DCB
  8
0
 10
149.2497422611922104
 20
132.0
 30
0.0
 11
149.9999999999992895
 21
134.8000000000000114
 31
0.0
  0
LINE
  5
2DCE
  8
0
 10
223.9999999999992042
 20
172.25
 30
0.0
 11
223.9999999999992042
 21
169.6623820648310073
 31
0.0
  0
LINE
  5
2DCF
  8
0
 10
223.9999999999992042
 20
130.3376179351689927
 30
0.0
 11
223.9999999999992042
 21
127.7500000000000995
 31
0.0
  0
LINE
  5
2DD2
  8
0
 10
132.4999999999998863
 20
128.9999999999996874
 30
0.0
 11
164.5642121149882939
 21
129.0
 31
0.0
  0
CIRCLE
  5
2DDB
  8
0
 10
200.4999999999992895
 20
150.0
 30
0.0
 40
6.5000000000000284
  0
CIRCLE
  5
2DE3
  8
0
 10
264.7499999999993179
 20
150.0
 30
0.0
 40
6.5000000000000284
  0
LINE
  5
2DF1
  8
0
 10
137.6499999999992951
 20
168.0
 30
0.0
 11
149.3499999999995111
 21
168.0
 31
0.0
  0
LINE
  5
2DFC
  8
0
 10
149.2497422611922104
 20
132.0
 30
0.0
 11
137.7502577388063969
 21
132.0
 31
0.0
  0
LINE
  5
2E03
  8
0
 10
200.0000000003070113
 20
138.999999999999801
 30
0.0
 11
183.2967069117700873
 21
138.9999999999996874
 31
0.0
  0
ARC
  5
2E04
  8
0
 10
199.9999999999992895
 20
150.0000000003958007
 30
0.0
 40
19.9999999999999787
 50
146.6329870321266924
 51
213.3670129705909915
  0
LINE
  5
2E05
  8
0
 10
183.2967069112484069
 20
160.9999999999996874
 30
0.0
 11
199.9999999999992042
 21
160.999999999999801
 31
0.0
  0
LINE
  5
2E0D
  8
0
 10
258.250000000007276
 20
153.752776749736995
 30
0.0
 11
258.2499999998548219
 21
146.2472232503509133
 31
0.0
  0
LINE
  5
2E14
  8
0
 10
223.9999999999992042
 20
172.2500000000001137
 30
0.0
 11
264.9022057631024722
 21
172.25
 31
0.0
  0
LINE
  5
2E15
  8
0
 10
264.9022057631024722
 20
172.25
 30
0.0
 11
264.9022057506837768
 21
160.4561698985625924
 31
0.0
  0
LINE
  5
2E16
  8
0
 10
264.9022057220557258
 20
139.5438300949938082
 30
0.0
 11
264.9022057631024722
 21
127.75
 31
0.0
  0
LINE
  5
2E17
  8
0
 10
223.9999999999994884
 20
127.750000000000199
 30
0.0
 11
264.9022057631024722
 21
127.75
 31
0.0
  0
LINE
  5
2E1E
  8
0
 10
222.4999999999992895
 20
130.0
 30
0.0
 11
164.6649544455270018
 21
130.0000000000001137
 31
0.0
  0
LINE
  5
2E25
  8
0
 10
222.4999999999992895
 20
170.0
 30
0.0
 11
164.6649544455266039
 21
169.9999999999996021
 31
0.0
  0
ARC
  5
2E28
  8
0
 10
264.7699999999992997
 20
150.0
 30
0.0
 40
10.2300000000000004
 50
282.6846711451397027
 51
77.3153288548611357
  0
LINE
  5
2E29
  8
0
 10
271.2499999999993747
 20
146.2472232502672966
 30
0.0
 11
264.7499999999993747
 21
142.4944465005349059
 31
0.0
  0
LINE
  5
2E2A
  8
0
 10
271.2499999999993179
 20
153.7527767497325044
 30
0.0
 11
271.2499999999993747
 21
146.2472232502672966
 31
0.0
  0
LINE
  5
2E2B
  8
0
 10
264.7499999999993179
 20
157.5055534994650088
 30
0.0
 11
271.2499999999993179
 21
153.7527767497325897
 31
0.0
  0
LINE
  5
2E2C
  8
0
 10
258.250000000007276
 20
153.752776749736995
 30
0.0
 11
264.7499999999993179
 21
157.5055534994650088
 31
0.0
  0
LINE
  5
2E2D
  8
0
 10
264.7499999999993747
 20
142.4944465005349059
 30
0.0
 11
258.2499999998548219
 21
146.2472232503509133
 31
0.0
  0
LINE
  5
2E2E
  8
0
 10
261.4705618137223837
 20
138.7714404079493136
 30
0.0
 11
267.0163566263153143
 21
140.0196802702814978
 31
0.0
  0
LINE
  5
2E2F
  8
0
 10
267.0163566263153143
 20
159.9803197297183885
 30
0.0
 11
261.4705622887404957
 21
161.2285594851342978
 31
0.0
  0
LINE
  5
2E31
  8
0
 10
132.4999999999992895
 20
163.999999999999801
 30
0.0
 11
159.1231986882872036
 21
164.0000000020471873
 31
0.0
  0
LINE
  5
2E32
  8
0
 10
155.811942703783302
 20
164.0
 30
0.0
 11
155.8119427037833873
 21
152.25
 31
0.0
  0
LINE
  5
2E33
  8
0
 10
158.2999999999993008
 20
152.25
 30
0.0
 11
132.4999999999992895
 21
152.249999999999801
 31
0.0
  0
LINE
  5
2E34
  8
0
 10
155.8119427037833873
 20
147.75
 30
0.0
 11
155.8119427037833873
 21
136.0
 31
0.0
  0
LINE
  5
2E35
  8
0
 10
132.4999999999992895
 20
135.999999999999801
 30
0.0
 11
159.1231987461270876
 21
135.9999998132570056
 31
0.0
  0
LINE
  5
2E37
  8
0
 10
132.4999999999992895
 20
147.749999999999801
 30
0.0
 11
158.2999999999993008
 21
147.75
 31
0.0
  0
POLYLINE
  5
2E38
  8
0
 10
164.6649544455266323
 20
169.9999999999999716
 30
0.0
 66
     1
 70
     8
  0
VERTEX
  8
0
  5
3682
 10
164.665
 20
170.000
 30
0.00000
  70
    32
  0
VERTEX
  8
0
  5
3683
 10
164.584
 20
169.999
 30
0.00000
  70
    32
  0
VERTEX
  8
0
  5
3684
 10
164.504
 20
169.995
 30
0.00000
  70
    32
  0
VERTEX
  8
0
  5
3685
 10
164.423
 20
169.988
 30
0.00000
  70
    32
  0
VERTEX
  8
0
  5
3686
 10
164.342
 20
169.979
 30
0.00000
  70
    32
  0
VERTEX
  8
0
  5
3687
 10
164.262
 20
169.968
 30
0.00000
  70
    32
  0
VERTEX
  8
0
  5
3688
 10
164.181
 20
169.953
 30
0.00000
  70
    32
  0
VERTEX
  8
0
  5
3689
 10
164.101
 20
169.936
 30
0.00000
  70
    32
  0
VERTEX
  8
0
  5
368A
 10
164.021
 20
169.917
 30
0.00000
  70
    32
  0
VERTEX
  8
0
  5
368B
 10
163.940
 20
169.895
 30
0.00000
  70
    32
  0
VERTEX
  8
0
  5
368C
 10
163.860
 20
169.870
 30
0.00000
  70
    32
  0
VERTEX
  8
0
  5
368D
 10
163.780
 20
169.843
 30
0.00000
  70
    32
  0
VERTEX
  8
0
  5
368E
 10
163.700
 20
169.813
 30
0.00000
  70
    32
  0
VERTEX
  8
0
  5
368F
 10
163.620
 20
169.781
 30
0.00000
  70
    32
  0
VERTEX
  8
0
  5
3690
 10
163.540
 20
169.746
 30
0.00000
  70
    32
  0
VERTEX
  8
0
  5
3691
 10
163.461
 20
169.709
 30
0.00000
  70
    32
  0
VERTEX
  8
0
  5
3692
 10
163.382
 20
169.669
 30
0.00000
  70
    32
  0
VERTEX
  8
0
  5
3693
 10
163.302
 20
169.626
 30
0.00000
  70
    32
  0
VERTEX
  8
0
  5
3694
 10
163.223
 20
169.581
 30
0.00000
  70
    32
  0
VERTEX
  8
0
  5
3695
 10
163.144
 20
169.533
 30
0.00000
  70
    32
  0
VERTEX
  8
0
  5
3696
 10
163.066
 20
169.483
 30
0.00000
  70
    32
  0
VERTEX
  8
0
  5
3697
 10
162.987
 20
169.430
 30
0.00000
  70
    32
  0
VERTEX
  8
0
  5
3698
 10
162.909
 20
169.375
 30
0.00000
  70
    32
  0
VERTEX
  8
0
  5
3699
 10
162.831
 20
169.318
 30
0.00000
  70
    32
  0
VERTEX
  8
0
  5
369A
 10
162.753
 20
169.257
 30
0.00000
  70
    32
  0
VERTEX
  8
0
  5
369B
 10
162.676
 20
169.194
 30
0.00000
  70
    32
  0
VERTEX
  8
0
  5
369C
 10
162.598
 20
169.129
 30
0.00000
  70
    32
  0
VERTEX
  8
0
  5
369D
 10
162.521
 20
169.062
 30
0.00000
  70
    32
  0
VERTEX
  8
0
  5
369E
 10
162.445
 20
168.991
 30
0.00000
  70
    32
  0
VERTEX
  8
0
  5
369F
 10
162.368
 20
168.919
 30
0.00000
  70
    32
  0
VERTEX
  8
0
  5
36A0
 10
162.292
 20
168.844
 30
0.00000
  70
    32
  0
VERTEX
  8
0
  5
36A1
 10
162.216
 20
168.766
 30
0.00000
  70
    32
  0
VERTEX
  8
0
  5
36A2
 10
162.141
 20
168.686
 30
0.00000
  70
    32
  0
VERTEX
  8
0
  5
36A3
 10
162.065
 20
168.604
 30
0.00000
  70
    32
  0
VERTEX
  8
0
  5
36A4
 10
161.991
 20
168.519
 30
0.00000
  70
    32
  0
VERTEX
  8
0
  5
36A5
 10
161.916
 20
168.431
 30
0.00000
  70
    32
  0
VERTEX
  8
0
  5
36A6
 10
161.842
 20
168.342
 30
0.00000
  70
    32
  0
VERTEX
  8
0
  5
36A7
 10
161.768
 20
168.250
 30
0.00000
  70
    32
  0
VERTEX
  8
0
  5
36A8
 10
161.695
 20
168.155
 30
0.00000
  70
    32
  0
VERTEX
  8
0
  5
36A9
 10
161.622
 20
168.059
 30
0.00000
  70
    32
  0
VERTEX
  8
0
  5
36AA
 10
161.549
 20
167.960
 30
0.00000
  70
    32
  0
VERTEX
  8
0
  5
36AB
 10
161.477
 20
167.858
 30
0.00000
  70
    32
  0
VERTEX
  8
0
  5
36AC
 10
161.405
 20
167.754
 30
0.00000
  70
    32
  0
VERTEX
  8
0
  5
36AD
 10
161.334
 20
167.648
 30
0.00000
  70
    32
  0
VERTEX
  8
0
  5
36AE
 10
161.263
 20
167.540
 30
0.00000
  70
    32
  0
VERTEX
  8
0
  5
36AF
 10
161.192
 20
167.429
 30
0.00000
  70
    32
  0
VERTEX
  8
0
  5
36B0
 10
161.122
 20
167.317
 30
0.00000
  70
    32
  0
VERTEX
  8
0
  5
36B1
 10
161.052
 20
167.201
 30
0.00000
  70
    32
  0
VERTEX
  8
0
  5
36B2
 10
160.983
 20
167.084
 30
0.00000
  70
    32
  0
VERTEX
  8
0
  5
36B3
 10
160.915
 20
166.965
 30
0.00000
  70
    32
  0
VERTEX
  8
0
  5
36B4
 10
160.846
 20
166.843
 30
0.00000
  70
    32
  0
VERTEX
  8
0
  5
36B5
 10
160.779
 20
166.719
 30
0.00000
  70
    32
  0
VERTEX
  8
0
  5
36B6
 10
160.712
 20
166.593
 30
0.00000
  70
    32
  0
VERTEX
  8
0
  5
36B7
 10
160.645
 20
166.465
 30
0.00000
  70
    32
  0
VERTEX
  8
0
  5
36B8
 10
160.579
 20
166.334
 30
0.00000
  70
    32
  0
VERTEX
  8
0
  5
36B9
 10
160.513
 20
166.202
 30
0.00000
  70
    32
  0
VERTEX
  8
0
  5
36BA
 10
160.448
 20
166.067
 30
0.00000
  70
    32
  0
VERTEX
  8
0
  5
36BB
 10
160.384
 20
165.930
 30
0.00000
  70
    32
  0
VERTEX
  8
0
  5
36BC
 10
160.320
 20
165.791
 30
0.00000
  70
    32
  0
VERTEX
  8
0
  5
36BD
 10
160.256
 20
165.651
 30
0.00000
  70
    32
  0
VERTEX
  8
0
  5
36BE
 10
160.193
 20
165.508
 30
0.00000
  70
    32
  0
VERTEX
  8
0
  5
36BF
 10
160.131
 20
165.363
 30
0.00000
  70
    32
  0
VERTEX
  8
0
  5
36C0
 10
160.070
 20
165.216
 30
0.00000
  70
    32
  0
VERTEX
  8
0
  5
36C1
 10
160.008
 20
165.067
 30
0.00000
  70
    32
  0
VERTEX
  8
0
  5
36C2
 10
159.948
 20
164.916
 30
0.00000
  70
    32
  0
VERTEX
  8
0
  5
36C3
 10
159.888
 20
164.764
 30
0.00000
  70
    32
  0
VERTEX
  8
0
  5
36C4
 10
159.829
 20
164.609
 30
0.00000
  70
    32
  0
VERTEX
  8
0
  5
36C5
 10
159.770
 20
164.453
 30
0.00000
  70
    32
  0
VERTEX
  8
0
  5
36C6
 10
159.712
 20
164.294
 30
0.00000
  70
    32
  0
VERTEX
  8
0
  5
36C7
 10
159.655
 20
164.134
 30
0.00000
  70
    32
  0
VERTEX
  8
0
  5
36C8
 10
159.598
 20
163.972
 30
0.00000
  70
    32
  0
VERTEX
  8
0
  5
36C9
 10
159.542
 20
163.808
 30
0.00000
  70
    32
  0
VERTEX
  8
0
  5
36CA
 10
159.487
 20
163.642
 30
0.00000
  70
    32
  0
VERTEX
  8
0
  5
36CB
 10
159.432
 20
163.475
 30
0.00000
  70
    32
  0
VERTEX
  8
0
  5
36CC
 10
159.378
 20
163.305
 30
0.00000
  70
    32
  0
VERTEX
  8
0
  5
36CD
 10
159.325
 20
163.134
 30
0.00000
  70
    32
  0
VERTEX
  8
0
  5
36CE
 10
159.272
 20
162.962
 30
0.00000
  70
    32
  0
VERTEX
  8
0
  5
36CF
 10
159.220
 20
162.787
 30
0.00000
  70
    32
  0
VERTEX
  8
0
  5
36D0
 10
159.169
 20
162.611
 30
0.00000
  70
    32
  0
VERTEX
  8
0
  5
36D1
 10
159.119
 20
162.434
 30
0.00000
  70
    32
  0
VERTEX
  8
0
  5
36D2
 10
159.069
 20
162.255
 30
0.00000
  70
    32
  0
VERTEX
  8
0
  5
36D3
 10
159.020
 20
162.074
 30
0.00000
  70
    32
  0
VERTEX
  8
0
  5
36D4
 10
158.972
 20
161.891
 30
0.00000
  70
    32
  0
VERTEX
  8
0
  5
36D5
 10
158.924
 20
161.707
 30
0.00000
  70
    32
  0
VERTEX
  8
0
  5
36D6
 10
158.877
 20
161.522
 30
0.00000
  70
    32
  0
VERTEX
  8
0
  5
36D7
 10
158.831
 20
161.335
 30
0.00000
  70
    32
  0
VERTEX
  8
0
  5
36D8
 10
158.786
 20
161.147
 30
0.00000
  70
    32
  0
VERTEX
  8
0
  5
36D9
 10
158.741
 20
160.957
 30
0.00000
  70
    32
  0
VERTEX
  8
0
  5
36DA
 10
158.697
 20
160.765
 30
0.00000
  70
    32
  0
VERTEX
  8
0
  5
36DB
 10
158.654
 20
160.573
 30
0.00000
  70
    32
  0
VERTEX
  8
0
  5
36DC
 10
158.612
 20
160.379
 30
0.00000
  70
    32
  0
VERTEX
  8
0
  5
36DD
 10
158.571
 20
160.183
 30
0.00000
  70
    32
  0
VERTEX
  8
0
  5
36DE
 10
158.530
 20
159.986
 30
0.00000
  70
    32
  0
VERTEX
  8
0
  5
36DF
 10
158.490
 20
159.788
 30
0.00000
  70
    32
  0
VERTEX
  8
0
  5
36E0
 10
158.451
 20
159.589
 30
0.00000
  70
    32
  0
VERTEX
  8
0
  5
36E1
 10
158.413
 20
159.389
 30
0.00000
  70
    32
  0
VERTEX
  8
0
  5
36E2
 10
158.375
 20
159.187
 30
0.00000
  70
    32
  0
VERTEX
  8
0
  5
36E3
 10
158.339
 20
158.984
 30
0.00000
  70
    32
  0
VERTEX
  8
0
  5
36E4
 10
158.303
 20
158.780
 30
0.00000
  70
    32
  0
VERTEX
  8
0
  5
36E5
 10
158.268
 20
158.574
 30
0.00000
  70
    32
  0
VERTEX
  8
0
  5
36E6
 10
158.234
 20
158.368
 30
0.00000
  70
    32
  0
VERTEX
  8
0
  5
36E7
 10
158.200
 20
158.161
 30
0.00000
  70
    32
  0
VERTEX
  8
0
  5
36E8
 10
158.168
 20
157.952
 30
0.00000
  70
    32
  0
VERTEX
  8
0
  5
36E9
 10
158.136
 20
157.743
 30
0.00000
  70
    32
  0
VERTEX
  8
0
  5
36EA
 10
158.105
 20
157.532
 30
0.00000
  70
    32
  0
VERTEX
  8
0
  5
36EB
 10
158.075
 20
157.320
 30
0.00000
  70
    32
  0
VERTEX
  8
0
  5
36EC
 10
158.046
 20
157.108
 30
0.00000
  70
    32
  0
VERTEX
  8
0
  5
36ED
 10
158.018
 20
156.895
 30
0.00000
  70
    32
  0
VERTEX
  8
0
  5
36EE
 10
157.991
 20
156.680
 30
0.00000
  70
    32
  0
VERTEX
  8
0
  5
36EF
 10
157.964
 20
156.465
 30
0.00000
  70
    32
  0
VERTEX
  8
0
  5
36F0
 10
157.938
 20
156.249
 30
0.00000
  70
    32
  0
VERTEX
  8
0
  5
36F1
 10
157.914
 20
156.032
 30
0.00000
  70
    32
  0
VERTEX
  8
0
  5
36F2
 10
157.890
 20
155.815
 30
0.00000
  70
    32
  0
VERTEX
  8
0
  5
36F3
 10
157.867
 20
155.596
 30
0.00000
  70
    32
  0
VERTEX
  8
0
  5
36F4
 10
157.845
 20
155.377
 30
0.00000
  70
    32
  0
VERTEX
  8
0
  5
36F5
 10
157.823
 20
155.158
 30
0.00000
  70
    32
  0
VERTEX
  8
0
  5
36F6
 10
157.803
 20
154.937
 30
0.00000
  70
    32
  0
VERTEX
  8
0
  5
36F7
 10
157.784
 20
154.716
 30
0.00000
  70
    32
  0
VERTEX
  8
0
  5
36F8
 10
157.765
 20
154.494
 30
0.00000
  70
    32
  0
VERTEX
  8
0
  5
36F9
 10
157.747
 20
154.272
 30
0.00000
  70
    32
  0
VERTEX
  8
0
  5
36FA
 10
157.731
 20
154.049
 30
0.00000
  70
    32
  0
VERTEX
  8
0
  5
36FB
 10
157.715
 20
153.826
 30
0.00000
  70
    32
  0
VERTEX
  8
0
  5
36FC
 10
157.700
 20
153.602
 30
0.00000
  70
    32
  0
VERTEX
  8
0
  5
36FD
 10
157.686
 20
153.378
 30
0.00000
  70
    32
  0
VERTEX
  8
0
  5
36FE
 10
157.672
 20
153.153
 30
0.00000
  70
    32
  0
VERTEX
  8
0
  5
36FF
 10
157.660
 20
152.928
 30
0.00000
  70
    32
  0
VERTEX
  8
0
  5
3700
 10
157.649
 20
152.702
 30
0.00000
  70
    32
  0
VERTEX
  8
0
  5
3701
 10
157.638
 20
152.476
 30
0.00000
  70
    32
  0
VERTEX
  8
0
  5
3702
 10
157.629
 20
152.250
 30
0.00000
  70
    32
  0
SEQEND
  8
0
  5
3703
  0
POLYLINE
  5
2E39
  8
0
 10
157.6289107898854525
 20
147.7499999999069757
 30
0.0
 66
     1
 70
     8
  0
VERTEX
  8
0
  5
3704
 10
157.629
 20
147.750
 30
0.00000
  70
    32
  0
VERTEX
  8
0
  5
3705
 10
157.638
 20
147.524
 30
0.00000
  70
    32
  0
VERTEX
  8
0
  5
3706
 10
157.649
 20
147.298
 30
0.00000
  70
    32
  0
VERTEX
  8
0
  5
3707
 10
157.660
 20
147.072
 30
0.00000
  70
    32
  0
VERTEX
  8
0
  5
3708
 10
157.672
 20
146.847
 30
0.00000
  70
    32
  0
VERTEX
  8
0
  5
3709
 10
157.686
 20
146.622
 30
0.00000
  70
    32
  0
VERTEX
  8
0
  5
370A
 10
157.700
 20
146.398
 30
0.00000
  70
    32
  0
VERTEX
  8
0
  5
370B
 10
157.715
 20
146.174
 30
0.00000
  70
    32
  0
VERTEX
  8
0
  5
370C
 10
157.731
 20
145.951
 30
0.00000
  70
    32
  0
VERTEX
  8
0
  5
370D
 10
157.747
 20
145.728
 30
0.00000
  70
    32
  0
VERTEX
  8
0
  5
370E
 10
157.765
 20
145.506
 30
0.00000
  70
    32
  0
VERTEX
  8
0
  5
370F
 10
157.784
 20
145.284
 30
0.00000
  70
    32
  0
VERTEX
  8
0
  5
3710
 10
157.803
 20
145.063
 30
0.00000
  70
    32
  0
VERTEX
  8
0
  5
3711
 10
157.823
 20
144.842
 30
0.00000
  70
    32
  0
VERTEX
  8
0
  5
3712
 10
157.845
 20
144.623
 30
0.00000
  70
    32
  0
VERTEX
  8
0
  5
3713
 10
157.867
 20
144.404
 30
0.00000
  70
    32
  0
VERTEX
  8
0
  5
3714
 10
157.890
 20
144.185
 30
0.00000
  70
    32
  0
VERTEX
  8
0
  5
3715
 10
157.914
 20
143.968
 30
0.00000
  70
    32
  0
VERTEX
  8
0
  5
3716
 10
157.938
 20
143.751
 30
0.00000
  70
    32
  0
VERTEX
  8
0
  5
3717
 10
157.964
 20
143.535
 30
0.00000
  70
    32
  0
VERTEX
  8
0
  5
3718
 10
157.991
 20
143.320
 30
0.00000
  70
    32
  0
VERTEX
  8
0
  5
3719
 10
158.018
 20
143.105
 30
0.00000
  70
    32
  0
VERTEX
  8
0
  5
371A
 10
158.046
 20
142.892
 30
0.00000
  70
    32
  0
VERTEX
  8
0
  5
371B
 10
158.075
 20
142.680
 30
0.00000
  70
    32
  0
VERTEX
  8
0
  5
371C
 10
158.105
 20
142.468
 30
0.00000
  70
    32
  0
VERTEX
  8
0
  5
371D
 10
158.136
 20
142.257
 30
0.00000
  70
    32
  0
VERTEX
  8
0
  5
371E
 10
158.168
 20
142.048
 30
0.00000
  70
    32
  0
VERTEX
  8
0
  5
371F
 10
158.200
 20
141.839
 30
0.00000
  70
    32
  0
VERTEX
  8
0
  5
3720
 10
158.234
 20
141.632
 30
0.00000
  70
    32
  0
VERTEX
  8
0
  5
3721
 10
158.268
 20
141.426
 30
0.00000
  70
    32
  0
VERTEX
  8
0
  5
3722
 10
158.303
 20
141.220
 30
0.00000
  70
    32
  0
VERTEX
  8
0
  5
3723
 10
158.339
 20
141.016
 30
0.00000
  70
    32
  0
VERTEX
  8
0
  5
3724
 10
158.375
 20
140.813
 30
0.00000
  70
    32
  0
VERTEX
  8
0
  5
3725
 10
158.413
 20
140.611
 30
0.00000
  70
    32
  0
VERTEX
  8
0
  5
3726
 10
158.451
 20
140.411
 30
0.00000
  70
    32
  0
VERTEX
  8
0
  5
3727
 10
158.490
 20
140.212
 30
0.00000
  70
    32
  0
VERTEX
  8
0
  5
3728
 10
158.530
 20
140.014
 30
0.00000
  70
    32
  0
VERTEX
  8
0
  5
3729
 10
158.571
 20
139.817
 30
0.00000
  70
    32
  0
VERTEX
  8
0
  5
372A
 10
158.612
 20
139.621
 30
0.00000
  70
    32
  0
VERTEX
  8
0
  5
372B
 10
158.654
 20
139.427
 30
0.00000
  70
    32
  0
VERTEX
  8
0
  5
372C
 10
158.697
 20
139.235
 30
0.00000
  70
    32
  0
VERTEX
  8
0
  5
372D
 10
158.741
 20
139.043
 30
0.00000
  70
    32
  0
VERTEX
  8
0
  5
372E
 10
158.786
 20
138.853
 30
0.00000
  70
    32
  0
VERTEX
  8
0
  5
372F
 10
158.831
 20
138.665
 30
0.00000
  70
    32
  0
VERTEX
  8
0
  5
3730
 10
158.877
 20
138.478
 30
0.00000
  70
    32
  0
VERTEX
  8
0
  5
3731
 10
158.924
 20
138.293
 30
0.00000
  70
    32
  0
VERTEX
  8
0
  5
3732
 10
158.972
 20
138.109
 30
0.00000
  70
    32
  0
VERTEX
  8
0
  5
3733
 10
159.020
 20
137.926
 30
0.00000
  70
    32
  0
VERTEX
  8
0
  5
3734
 10
159.069
 20
137.745
 30
0.00000
  70
    32
  0
VERTEX
  8
0
  5
3735
 10
159.119
 20
137.566
 30
0.00000
  70
    32
  0
VERTEX
  8
0
  5
3736
 10
159.169
 20
137.389
 30
0.00000
  70
    32
  0
VERTEX
  8
0
  5
3737
 10
159.220
 20
137.213
 30
0.00000
  70
    32
  0
VERTEX
  8
0
  5
3738
 10
159.272
 20
137.038
 30
0.00000
  70
    32
  0
VERTEX
  8
0
  5
3739
 10
159.325
 20
136.866
 30
0.00000
  70
    32
  0
VERTEX
  8
0
  5
373A
 10
159.378
 20
136.695
 30
0.00000
  70
    32
  0
VERTEX
  8
0
  5
373B
 10
159.432
 20
136.525
 30
0.00000
  70
    32
  0
VERTEX
  8
0
  5
373C
 10
159.487
 20
136.358
 30
0.00000
  70
    32
  0
VERTEX
  8
0
  5
373D
 10
159.542
 20
136.192
 30
0.00000
  70
    32
  0
VERTEX
  8
0
  5
373E
 10
159.598
 20
136.028
 30
0.00000
  70
    32
  0
VERTEX
  8
0
  5
373F
 10
159.655
 20
135.866
 30
0.00000
  70
    32
  0
VERTEX
  8
0
  5
3740
 10
159.712
 20
135.706
 30
0.00000
  70
    32
  0
VERTEX
  8
0
  5
3741
 10
159.770
 20
135.547
 30
0.00000
  70
    32
  0
VERTEX
  8
0
  5
3742
 10
159.829
 20
135.391
 30
0.00000
  70
    32
  0
VERTEX
  8
0
  5
3743
 10
159.888
 20
135.236
 30
0.00000
  70
    32
  0
VERTEX
  8
0
  5
3744
 10
159.948
 20
135.084
 30
0.00000
  70
    32
  0
VERTEX
  8
0
  5
3745
 10
160.008
 20
134.933
 30
0.00000
  70
    32
  0
VERTEX
  8
0
  5
3746
 10
160.070
 20
134.784
 30
0.00000
  70
    32
  0
VERTEX
  8
0
  5
3747
 10
160.131
 20
134.637
 30
0.00000
  70
    32
  0
VERTEX
  8
0
  5
3748
 10
160.193
 20
134.492
 30
0.00000
  70
    32
  0
VERTEX
  8
0
  5
3749
 10
160.256
 20
134.349
 30
0.00000
  70
    32
  0
VERTEX
  8
0
  5
374A
 10
160.320
 20
134.209
 30
0.00000
  70
    32
  0
VERTEX
  8
0
  5
374B
 10
160.384
 20
134.070
 30
0.00000
  70
    32
  0
VERTEX
  8
0
  5
374C
 10
160.448
 20
133.933
 30
0.00000
  70
    32
  0
VERTEX
  8
0
  5
374D
 10
160.513
 20
133.798
 30
0.00000
  70
    32
  0
VERTEX
  8
0
  5
374E
 10
160.579
 20
133.666
 30
0.00000
  70
    32
  0
VERTEX
  8
0
  5
374F
 10
160.645
 20
133.535
 30
0.00000
  70
    32
  0
VERTEX
  8
0
  5
3750
 10
160.712
 20
133.407
 30
0.00000
  70
    32
  0
VERTEX
  8
0
  5
3751
 10
160.779
 20
133.281
 30
0.00000
  70
    32
  0
VERTEX
  8
0
  5
3752
 10
160.846
 20
133.157
 30
0.00000
  70
    32
  0
VERTEX
  8
0
  5
3753
 10
160.915
 20
133.035
 30
0.00000
  70
    32
  0
VERTEX
  8
0
  5
3754
 10
160.983
 20
132.916
 30
0.00000
  70
    32
  0
VERTEX
  8
0
  5
3755
 10
161.052
 20
132.799
 30
0.00000
  70
    32
  0
VERTEX
  8
0
  5
3756
 10
161.122
 20
132.683
 30
0.00000
  70
    32
  0
VERTEX
  8
0
  5
3757
 10
161.192
 20
132.571
 30
0.00000
  70
    32
  0
VERTEX
  8
0
  5
3758
 10
161.263
 20
132.460
 30
0.00000
  70
    32
  0
VERTEX
  8
0
  5
3759
 10
161.334
 20
132.352
 30
0.00000
  70
    32
  0
VERTEX
  8
0
  5
375A
 10
161.405
 20
132.246
 30
0.00000
  70
    32
  0
VERTEX
  8
0
  5
375B
 10
161.477
 20
132.142
 30
0.00000
  70
    32
  0
VERTEX
  8
0
  5
375C
 10
161.549
 20
132.040
 30
0.00000
  70
    32
  0
VERTEX
  8
0
  5
375D
 10
161.622
 20
131.941
 30
0.00000
  70
    32
  0
VERTEX
  8
0
  5
375E
 10
161.695
 20
131.845
 30
0.00000
  70
    32
  0
VERTEX
  8
0
  5
375F
 10
161.768
 20
131.750
 30
0.00000
  70
    32
  0
VERTEX
  8
0
  5
3760
 10
161.842
 20
131.658
 30
0.00000
  70
    32
  0
VERTEX
  8
0
  5
3761
 10
161.916
 20
131.569
 30
0.00000
  70
    32
  0
VERTEX
  8
0
  5
3762
 10
161.991
 20
131.481
 30
0.00000
  70
    32
  0
VERTEX
  8
0
  5
3763
 10
162.065
 20
131.396
 30
0.00000
  70
    32
  0
VERTEX
  8
0
  5
3764
 10
162.141
 20
131.314
 30
0.00000
  70
    32
  0
VERTEX
  8
0
  5
3765
 10
162.216
 20
131.234
 30
0.00000
  70
    32
  0
VERTEX
  8
0
  5
3766
 10
162.292
 20
131.156
 30
0.00000
  70
    32
  0
VERTEX
  8
0
  5
3767
 10
162.368
 20
131.081
 30
0.00000
  70
    32
  0
VERTEX
  8
0
  5
3768
 10
162.445
 20
131.009
 30
0.00000
  70
    32
  0
VERTEX
  8
0
  5
3769
 10
162.521
 20
130.938
 30
0.00000
  70
    32
  0
VERTEX
  8
0
  5
376A
 10
162.598
 20
130.871
 30
0.00000
  70
    32
  0
VERTEX
  8
0
  5
376B
 10
162.676
 20
130.806
 30
0.00000
  70
    32
  0
VERTEX
  8
0
  5
376C
 10
162.753
 20
130.743
 30
0.00000
  70
    32
  0
VERTEX
  8
0
  5
376D
 10
162.831
 20
130.682
 30
0.00000
  70
    32
  0
VERTEX
  8
0
  5
376E
 10
162.909
 20
130.625
 30
0.00000
  70
    32
  0
VERTEX
  8
0
  5
376F
 10
162.987
 20
130.570
 30
0.00000
  70
    32
  0
VERTEX
  8
0
  5
3770
 10
163.066
 20
130.517
 30
0.00000
  70
    32
  0
VERTEX
  8
0
  5
3771
 10
163.144
 20
130.467
 30
0.00000
  70
    32
  0
VERTEX
  8
0
  5
3772
 10
163.223
 20
130.419
 30
0.00000
  70
    32
  0
VERTEX
  8
0
  5
3773
 10
163.302
 20
130.374
 30
0.00000
  70
    32
  0
VERTEX
  8
0
  5
3774
 10
163.382
 20
130.331
 30
0.00000
  70
    32
  0
VERTEX
  8
0
  5
3775
 10
163.461
 20
130.291
 30
0.00000
  70
    32
  0
VERTEX
  8
0
  5
3776
 10
163.540
 20
130.254
 30
0.00000
  70
    32
  0
VERTEX
  8
0
  5
3777
 10
163.620
 20
130.219
 30
0.00000
  70
    32
  0
VERTEX
  8
0
  5
3778
 10
163.700
 20
130.187
 30
0.00000
  70
    32
  0
VERTEX
  8
0
  5
3779
 10
163.780
 20
130.157
 30
0.00000
  70
    32
  0
VERTEX
  8
0
  5
377A
 10
163.860
 20
130.130
 30
0.00000
  70
    32
  0
VERTEX
  8
0
  5
377B
 10
163.940
 20
130.105
 30
0.00000
  70
    32
  0
VERTEX
  8
0
  5
377C
 10
164.021
 20
130.083
 30
0.00000
  70
    32
  0
VERTEX
  8
0
  5
377D
 10
164.101
 20
130.064
 30
0.00000
  70
    32
  0
VERTEX
  8
0
  5
377E
 10
164.181
 20
130.047
 30
0.00000
  70
    32
  0
VERTEX
  8
0
  5
377F
 10
164.262
 20
130.032
 30
0.00000
  70
    32
  0
VERTEX
  8
0
  5
3780
 10
164.342
 20
130.021
 30
0.00000
  70
    32
  0
VERTEX
  8
0
  5
3781
 10
164.423
 20
130.012
 30
0.00000
  70
    32
  0
VERTEX
  8
0
  5
3782
 10
164.504
 20
130.005
 30
0.00000
  70
    32
  0
VERTEX
  8
0
  5
3783
 10
164.584
 20
130.001
 30
0.00000
  70
    32
  0
VERTEX
  8
0
  5
3784
 10
164.665
 20
130.000
 30
0.00000
  70
    32
  0
SEQEND
  8
0
  5
3785
  0
LINE
  5
2E41
  8
0
 10
177.4999999999992895
 20
130.0
 30
0.0
 11
177.4999999999992895
 21
170.0
 31
0.0
  0
LINE
  5
2E42
  8
0
 10
177.4999999999992895
 20
152.999999999999801
 30
0.0
 11
158.2999999999993008
 21
153.0
 31
0.0
  0
LINE
  5
2E43
  8
0
 10
158.2999999999993008
 20
153.0
 30
0.0
 11
158.2999999999993008
 21
152.25
 31
0.0
  0
LINE
  5
2E44
  8
0
 10
158.2999999999993008
 20
147.75
 30
0.0
 11
158.2999999999993008
 21
146.9999999999980105
 31
0.0
  0
LINE
  5
2E45
  8
0
 10
158.2999999999993008
 20
146.9999999999980105
 30
0.0
 11
177.4999999999992895
 21
147.0
 31
0.0
  0
LINE
  5
2E4A
  8
0
 10
132.4999999999998863
 20
128.9999999999996874
 30
0.0
 11
132.4999999999992042
 21
170.9999999999996874
 31
0.0
  0
LINE
  5
2E4C
  8
0
 10
152.4999999999992895
 20
152.25
 30
0.0
 11
152.4999999999992895
 21
147.75
 31
0.0
  0
LINE
  5
2E4D
  8
0
 10
157.4999999999992895
 20
147.75
 30
0.0
 11
157.4999999999992895
 21
152.25
 31
0.0
  0
ARC
  5
2E52
  8
0
 10
270.5999999999995111
 20
67.6000000000001933
 30
0.0
 40
0.6499999999998636
 50
359.9999999999869829
 51
90.0000000000150635
  0
LINE
  5
2E54
  8
0
 10
271.2499999999993747
 20
64.0000000000000284
 30
0.0
 11
271.2499999999993747
 21
67.6000000000000227
 31
0.0
  0
LINE
  5
2E55
  8
0
 10
260.7499999999993747
 20
52.0000000000000284
 30
0.0
 11
260.7499999999993747
 21
48.0000000000000213
 31
0.0
  0
LINE
  5
2E56
  8
0
 10
268.7499999999993747
 20
48.0000000000000426
 30
0.0
 11
268.7499999999993747
 21
52.0000000000000213
 31
0.0
  0
ARC
  5
2E59
  8
0
 10
199.9999999999992895
 20
50.0000000000000284
 30
0.0
 40
20.0000000000000107
 50
113.450997761353193
 51
180.0
  0
LINE
  5
2E5A
  8
0
 10
235.3348486100879882
 20
70.0000000000000426
 30
0.0
 11
209.3612159321673118
 21
70.0000000000000284
 31
0.0
  0
LINE
  5
2E5B
  8
0
 10
274.9999999999993179
 20
52.0000000000000284
 30
0.0
 11
274.9999999999993179
 21
64.0000000000000568
 31
0.0
  0
LINE
  5
2E5C
  8
0
 10
274.9999999999993179
 20
36.0000000000000213
 30
0.0
 11
274.9999999999993179
 21
48.0000000000000426
 31
0.0
  0
LINE
  5
2E5D
  8
0
 10
132.4999999999992895
 20
29.0000000000000391
 30
0.0
 11
172.1050006255003098
 21
29.0000000000000391
 31
0.0
  0
LINE
  5
2E5E
  8
0
 10
171.750842139735596
 20
30.0000000000000284
 30
0.0
 11
192.705771365939313
 21
30.0000000000000284
 31
0.0
  0
ARC
  5
2E5F
  8
0
 10
201.4999999999992895
 20
50.0000000000000284
 30
0.0
 40
20.0000000000000284
 50
289.8592939109875033
 51
0.0
  0
LINE
  5
2E61
  8
0
 10
258.8999999999994088
 20
68.2500000000000142
 30
0.0
 11
270.5999999999993975
 21
68.2500000000000142
 31
0.0
  0
LINE
  5
2E66
  8
0
 10
264.7499999999993747
 20
35.1305565836007574
 30
0.0
 11
264.7499999999993747
 21
36.0000000000000426
 31
0.0
  0
ARC
  5
2E86
  8
0
 10
199.9999999999994031
 20
50.0000000000000213
 30
0.0
 40
16.7032930882293087
 50
89.999999998944773
 51
179.9999999999996021
  0
ARC
  5
2E87
  8
0
 10
194.0364003897535099
 20
63.8516354476207297
 30
0.0
 40
4.9193720361526179
 50
61.6706534649162919
 51
113.9337679382499005
  0
ARC
  5
2E88
  8
0
 10
200.0000000043407056
 20
49.999999970832782
 30
0.0
 40
18.5404962470318289
 50
90.0000000138676626
 51
101.2881080683062009
  0
ARC
  5
2E89
  8
0
 10
242.4999999999994884
 20
49.9999999999992113
 30
0.0
 40
15.00000000000054
 50
7.6622556607687242
 51
352.3377605098420986
1001
GENIUS_GENODEF_13
1002
{
1000
HIER
1070
     0
1002
}
1002
{
1000
MANEDIT
1070
     0
1002
}
1002
{
1000
NOSEL
1070
     0
1002
}
1002
{
1000
BEHIND
1070
     0
1002
}
1002
{
1000
OTHER
1070
     0
1002
}
1002
{
1000
REACTOR
1002
}
1001
GENIUS_GENOBJ-N-FIL_13
1002
{
1000
OWNER
1000
GEN
1002
}
  0
LINE
  5
2E8A
  8
0
 10
227.8030615433002026
 20
52.9999999999999503
 30
0.0
 11
226.4999999999992895
 21
52.9999999999999503
 31
0.0
  0
LINE
  5
2E8B
  8
0
 10
226.4999999999992895
 20
52.9999999999999503
 30
0.0
 11
226.4999999999992895
 21
46.9999999999999432
 31
0.0
  0
LINE
  5
2E8C
  8
0
 10
226.4999999999992895
 20
46.9999999999999432
 30
0.0
 11
227.8030615433000889
 21
46.9999999999999076
 31
0.0
  0
ARC
  5
2E90
  8
0
 10
244.4999999999994884
 20
49.9999999999999503
 30
0.0
 40
20.4999999999998508
 50
5.5987378162286037
 51
354.4012621837723032
  0
LINE
  5
2E95
  8
0
 10
205.0310889132452985
 20
68.5404962177391894
 30
0.0
 11
199.9999999998532019
 21
68.5404962178646144
 31
0.0
  0
POLYLINE
  5
2E96
  8
0
 10
209.3612159321675676
 20
70.0
 30
0.0
 66
     1
 70
     8
  0
VERTEX
  8
0
  5
3786
 10
209.361
 20
70.0000
 30
0.00000
  70
    32
  0
VERTEX
  8
0
  5
3787
 10
209.327
 20
69.9999
 30
0.00000
  70
    32
  0
VERTEX
  8
0
  5
3788
 10
209.292
 20
69.9996
 30
0.00000
  70
    32
  0
VERTEX
  8
0
  5
3789
 10
209.257
 20
69.9992
 30
0.00000
  70
    32
  0
VERTEX
  8
0
  5
378A
 10
209.223
 20
69.9986
 30
0.00000
  70
    32
  0
VERTEX
  8
0
  5
378B
 10
209.188
 20
69.9977
 30
0.00000
  70
    32
  0
VERTEX
  8
0
  5
378C
 10
209.153
 20
69.9968
 30
0.00000
  70
    32
  0
VERTEX
  8
0
  5
378D
 10
209.118
 20
69.9956
 30
0.00000
  70
    32
  0
VERTEX
  8
0
  5
378E
 10
209.084
 20
69.9942
 30
0.00000
  70
    32
  0
VERTEX
  8
0
  5
378F
 10
209.049
 20
69.9927
 30
0.00000
  70
    32
  0
VERTEX
  8
0
  5
3790
 10
209.014
 20
69.9910
 30
0.00000
  70
    32
  0
VERTEX
  8
0
  5
3791
 10
208.980
 20
69.9891
 30
0.00000
  70
    32
  0
VERTEX
  8
0
  5
3792
 10
208.945
 20
69.9870
 30
0.00000
  70
    32
  0
VERTEX
  8
0
  5
3793
 10
208.911
 20
69.9848
 30
0.00000
  70
    32
  0
VERTEX
  8
0
  5
3794
 10
208.876
 20
69.9823
 30
0.00000
  70
    32
  0
VERTEX
  8
0
  5
3795
 10
208.841
 20
69.9797
 30
0.00000
  70
    32
  0
VERTEX
  8
0
  5
3796
 10
208.807
 20
69.9769
 30
0.00000
  70
    32
  0
VERTEX
  8
0
  5
3797
 10
208.772
 20
69.9739
 30
0.00000
  70
    32
  0
VERTEX
  8
0
  5
3798
 10
208.737
 20
69.9708
 30
0.00000
  70
    32
  0
VERTEX
  8
0
  5
3799
 10
208.703
 20
69.9675
 30
0.00000
  70
    32
  0
VERTEX
  8
0
  5
379A
 10
208.668
 20
69.9639
 30
0.00000
  70
    32
  0
VERTEX
  8
0
  5
379B
 10
208.633
 20
69.9602
 30
0.00000
  70
    32
  0
VERTEX
  8
0
  5
379C
 10
208.599
 20
69.9564
 30
0.00000
  70
    32
  0
VERTEX
  8
0
  5
379D
 10
208.564
 20
69.9523
 30
0.00000
  70
    32
  0
VERTEX
  8
0
  5
379E
 10
208.530
 20
69.9481
 30
0.00000
  70
    32
  0
VERTEX
  8
0
  5
379F
 10
208.495
 20
69.9437
 30
0.00000
  70
    32
  0
VERTEX
  8
0
  5
37A0
 10
208.461
 20
69.9391
 30
0.00000
  70
    32
  0
VERTEX
  8
0
  5
37A1
 10
208.426
 20
69.9343
 30
0.00000
  70
    32
  0
VERTEX
  8
0
  5
37A2
 10
208.391
 20
69.9293
 30
0.00000
  70
    32
  0
VERTEX
  8
0
  5
37A3
 10
208.357
 20
69.9242
 30
0.00000
  70
    32
  0
VERTEX
  8
0
  5
37A4
 10
208.322
 20
69.9189
 30
0.00000
  70
    32
  0
VERTEX
  8
0
  5
37A5
 10
208.288
 20
69.9134
 30
0.00000
  70
    32
  0
VERTEX
  8
0
  5
37A6
 10
208.253
 20
69.9077
 30
0.00000
  70
    32
  0
VERTEX
  8
0
  5
37A7
 10
208.219
 20
69.9019
 30
0.00000
  70
    32
  0
VERTEX
  8
0
  5
37A8
 10
208.184
 20
69.8958
 30
0.00000
  70
    32
  0
VERTEX
  8
0
  5
37A9
 10
208.150
 20
69.8896
 30
0.00000
  70
    32
  0
VERTEX
  8
0
  5
37AA
 10
208.115
 20
69.8832
 30
0.00000
  70
    32
  0
VERTEX
  8
0
  5
37AB
 10
208.081
 20
69.8767
 30
0.00000
  70
    32
  0
VERTEX
  8
0
  5
37AC
 10
208.046
 20
69.8699
 30
0.00000
  70
    32
  0
VERTEX
  8
0
  5
37AD
 10
208.012
 20
69.8630
 30
0.00000
  70
    32
  0
VERTEX
  8
0
  5
37AE
 10
207.977
 20
69.8559
 30
0.00000
  70
    32
  0
VERTEX
  8
0
  5
37AF
 10
207.943
 20
69.8486
 30
0.00000
  70
    32
  0
VERTEX
  8
0
  5
37B0
 10
207.909
 20
69.8411
 30
0.00000
  70
    32
  0
VERTEX
  8
0
  5
37B1
 10
207.874
 20
69.8335
 30
0.00000
  70
    32
  0
VERTEX
  8
0
  5
37B2
 10
207.840
 20
69.8257
 30
0.00000
  70
    32
  0
VERTEX
  8
0
  5
37B3
 10
207.806
 20
69.8177
 30
0.00000
  70
    32
  0
VERTEX
  8
0
  5
37B4
 10
207.771
 20
69.8095
 30
0.00000
  70
    32
  0
VERTEX
  8
0
  5
37B5
 10
207.737
 20
69.8011
 30
0.00000
  70
    32
  0
VERTEX
  8
0
  5
37B6
 10
207.702
 20
69.7926
 30
0.00000
  70
    32
  0
VERTEX
  8
0
  5
37B7
 10
207.668
 20
69.7839
 30
0.00000
  70
    32
  0
VERTEX
  8
0
  5
37B8
 10
207.634
 20
69.7750
 30
0.00000
  70
    32
  0
VERTEX
  8
0
  5
37B9
 10
207.600
 20
69.7659
 30
0.00000
  70
    32
  0
VERTEX
  8
0
  5
37BA
 10
207.565
 20
69.7566
 30
0.00000
  70
    32
  0
VERTEX
  8
0
  5
37BB
 10
207.531
 20
69.7472
 30
0.00000
  70
    32
  0
VERTEX
  8
0
  5
37BC
 10
207.497
 20
69.7376
 30
0.00000
  70
    32
  0
VERTEX
  8
0
  5
37BD
 10
207.463
 20
69.7278
 30
0.00000
  70
    32
  0
VERTEX
  8
0
  5
37BE
 10
207.428
 20
69.7178
 30
0.00000
  70
    32
  0
VERTEX
  8
0
  5
37BF
 10
207.394
 20
69.7077
 30
0.00000
  70
    32
  0
VERTEX
  8
0
  5
37C0
 10
207.360
 20
69.6974
 30
0.00000
  70
    32
  0
VERTEX
  8
0
  5
37C1
 10
207.326
 20
69.6869
 30
0.00000
  70
    32
  0
VERTEX
  8
0
  5
37C2
 10
207.292
 20
69.6762
 30
0.00000
  70
    32
  0
VERTEX
  8
0
  5
37C3
 10
207.258
 20
69.6654
 30
0.00000
  70
    32
  0
VERTEX
  8
0
  5
37C4
 10
207.224
 20
69.6543
 30
0.00000
  70
    32
  0
VERTEX
  8
0
  5
37C5
 10
207.190
 20
69.6431
 30
0.00000
  70
    32
  0
VERTEX
  8
0
  5
37C6
 10
207.156
 20
69.6317
 30
0.00000
  70
    32
  0
VERTEX
  8
0
  5
37C7
 10
207.122
 20
69.6202
 30
0.00000
  70
    32
  0
VERTEX
  8
0
  5
37C8
 10
207.088
 20
69.6084
 30
0.00000
  70
    32
  0
VERTEX
  8
0
  5
37C9
 10
207.054
 20
69.5965
 30
0.00000
  70
    32
  0
VERTEX
  8
0
  5
37CA
 10
207.020
 20
69.5844
 30
0.00000
  70
    32
  0
VERTEX
  8
0
  5
37CB
 10
206.986
 20
69.5722
 30
0.00000
  70
    32
  0
VERTEX
  8
0
  5
37CC
 10
206.952
 20
69.5597
 30
0.00000
  70
    32
  0
VERTEX
  8
0
  5
37CD
 10
206.918
 20
69.5471
 30
0.00000
  70
    32
  0
VERTEX
  8
0
  5
37CE
 10
206.884
 20
69.5343
 30
0.00000
  70
    32
  0
VERTEX
  8
0
  5
37CF
 10
206.850
 20
69.5213
 30
0.00000
  70
    32
  0
VERTEX
  8
0
  5
37D0
 10
206.816
 20
69.5082
 30
0.00000
  70
    32
  0
VERTEX
  8
0
  5
37D1
 10
206.782
 20
69.4948
 30
0.00000
  70
    32
  0
VERTEX
  8
0
  5
37D2
 10
206.749
 20
69.4813
 30
0.00000
  70
    32
  0
VERTEX
  8
0
  5
37D3
 10
206.715
 20
69.4677
 30
0.00000
  70
    32
  0
VERTEX
  8
0
  5
37D4
 10
206.681
 20
69.4538
 30
0.00000
  70
    32
  0
VERTEX
  8
0
  5
37D5
 10
206.647
 20
69.4398
 30
0.00000
  70
    32
  0
VERTEX
  8
0
  5
37D6
 10
206.614
 20
69.4256
 30
0.00000
  70
    32
  0
VERTEX
  8
0
  5
37D7
 10
206.580
 20
69.4112
 30
0.00000
  70
    32
  0
VERTEX
  8
0
  5
37D8
 10
206.546
 20
69.3966
 30
0.00000
  70
    32
  0
VERTEX
  8
0
  5
37D9
 10
206.513
 20
69.3819
 30
0.00000
  70
    32
  0
VERTEX
  8
0
  5
37DA
 10
206.479
 20
69.3670
 30
0.00000
  70
    32
  0
VERTEX
  8
0
  5
37DB
 10
206.446
 20
69.3519
 30
0.00000
  70
    32
  0
VERTEX
  8
0
  5
37DC
 10
206.412
 20
69.3367
 30
0.00000
  70
    32
  0
VERTEX
  8
0
  5
37DD
 10
206.379
 20
69.3213
 30
0.00000
  70
    32
  0
VERTEX
  8
0
  5
37DE
 10
206.345
 20
69.3057
 30
0.00000
  70
    32
  0
VERTEX
  8
0
  5
37DF
 10
206.312
 20
69.2899
 30
0.00000
  70
    32
  0
VERTEX
  8
0
  5
37E0
 10
206.278
 20
69.2739
 30
0.00000
  70
    32
  0
VERTEX
  8
0
  5
37E1
 10
206.245
 20
69.2578
 30
0.00000
  70
    32
  0
VERTEX
  8
0
  5
37E2
 10
206.211
 20
69.2415
 30
0.00000
  70
    32
  0
VERTEX
  8
0
  5
37E3
 10
206.178
 20
69.2250
 30
0.00000
  70
    32
  0
VERTEX
  8
0
  5
37E4
 10
206.145
 20
69.2084
 30
0.00000
  70
    32
  0
VERTEX
  8
0
  5
37E5
 10
206.111
 20
69.1916
 30
0.00000
  70
    32
  0
VERTEX
  8
0
  5
37E6
 10
206.078
 20
69.1746
 30
0.00000
  70
    32
  0
VERTEX
  8
0
  5
37E7
 10
206.045
 20
69.1574
 30
0.00000
  70
    32
  0
VERTEX
  8
0
  5
37E8
 10
206.012
 20
69.1401
 30
0.00000
  70
    32
  0
VERTEX
  8
0
  5
37E9
 10
205.979
 20
69.1226
 30
0.00000
  70
    32
  0
VERTEX
  8
0
  5
37EA
 10
205.945
 20
69.1049
 30
0.00000
  70
    32
  0
VERTEX
  8
0
  5
37EB
 10
205.912
 20
69.0870
 30
0.00000
  70
    32
  0
VERTEX
  8
0
  5
37EC
 10
205.879
 20
69.0690
 30
0.00000
  70
    32
  0
VERTEX
  8
0
  5
37ED
 10
205.846
 20
69.0508
 30
0.00000
  70
    32
  0
VERTEX
  8
0
  5
37EE
 10
205.813
 20
69.0325
 30
0.00000
  70
    32
  0
VERTEX
  8
0
  5
37EF
 10
205.780
 20
69.0139
 30
0.00000
  70
    32
  0
VERTEX
  8
0
  5
37F0
 10
205.747
 20
68.9952
 30
0.00000
  70
    32
  0
VERTEX
  8
0
  5
37F1
 10
205.714
 20
68.9763
 30
0.00000
  70
    32
  0
VERTEX
  8
0
  5
37F2
 10
205.681
 20
68.9573
 30
0.00000
  70
    32
  0
VERTEX
  8
0
  5
37F3
 10
205.649
 20
68.9380
 30
0.00000
  70
    32
  0
VERTEX
  8
0
  5
37F4
 10
205.616
 20
68.9186
 30
0.00000
  70
    32
  0
VERTEX
  8
0
  5
37F5
 10
205.583
 20
68.8991
 30
0.00000
  70
    32
  0
VERTEX
  8
0
  5
37F6
 10
205.550
 20
68.8793
 30
0.00000
  70
    32
  0
VERTEX
  8
0
  5
37F7
 10
205.518
 20
68.8594
 30
0.00000
  70
    32
  0
VERTEX
  8
0
  5
37F8
 10
205.485
 20
68.8393
 30
0.00000
  70
    32
  0
VERTEX
  8
0
  5
37F9
 10
205.452
 20
68.8191
 30
0.00000
  70
    32
  0
VERTEX
  8
0
  5
37FA
 10
205.420
 20
68.7987
 30
0.00000
  70
    32
  0
VERTEX
  8
0
  5
37FB
 10
205.387
 20
68.7781
 30
0.00000
  70
    32
  0
VERTEX
  8
0
  5
37FC
 10
205.354
 20
68.7573
 30
0.00000
  70
    32
  0
VERTEX
  8
0
  5
37FD
 10
205.322
 20
68.7364
 30
0.00000
  70
    32
  0
VERTEX
  8
0
  5
37FE
 10
205.289
 20
68.7153
 30
0.00000
  70
    32
  0
VERTEX
  8
0
  5
37FF
 10
205.257
 20
68.6941
 30
0.00000
  70
    32
  0
VERTEX
  8
0
  5
3800
 10
205.225
 20
68.6726
 30
0.00000
  70
    32
  0
VERTEX
  8
0
  5
3801
 10
205.192
 20
68.6510
 30
0.00000
  70
    32
  0
VERTEX
  8
0
  5
3802
 10
205.160
 20
68.6292
 30
0.00000
  70
    32
  0
VERTEX
  8
0
  5
3803
 10
205.128
 20
68.6073
 30
0.00000
  70
    32
  0
VERTEX
  8
0
  5
3804
 10
205.095
 20
68.5852
 30
0.00000
  70
    32
  0
VERTEX
  8
0
  5
3805
 10
205.063
 20
68.5629
 30
0.00000
  70
    32
  0
VERTEX
  8
0
  5
3806
 10
205.031
 20
68.5405
 30
0.00000
  70
    32
  0
SEQEND
  8
0
  5
3807
  0
LINE
  5
2E99
  8
0
 10
274.9999999999993179
 20
36.0000000000000213
 30
0.0
 11
261.4705627484767092
 21
36.0000000000000213
 31
0.0
  0
LINE
  5
2EA0
  8
0
 10
261.4705618137223837
 20
64.0000011330929226
 30
0.0
 11
274.9999999999993179
 21
64.0000000000000284
 31
0.0
  0
LINE
  5
2EA1
  8
0
 10
274.9999999999993179
 20
52.0000000000000213
 30
0.0
 11
257.3660687473183089
 21
51.9999999999999503
 31
0.0
  0
LINE
  5
2EA3
  8
0
 10
257.3660687473183089
 20
47.9999999999999432
 30
0.0
 11
274.9999999999993179
 21
48.0000000000000426
 31
0.0
  0
LINE
  5
2EB2
  8
0
 10
157.6646417149320882
 20
69.7737199332849087
 30
0.0
 11
177.4999999999992895
 21
69.7737199332852356
 31
0.0
  0
LINE
  5
2EB3
  8
0
 10
177.4999999999992895
 20
50.0000000000000284
 30
0.0
 11
177.4999999999992895
 21
69.7737199332852356
 31
0.0
  0
LINE
  5
2EB4
  8
0
 10
222.4999999999994884
 20
50.0000000000000284
 30
0.0
 11
177.4999999999992895
 21
50.0000000000000284
 31
0.0
  0
LINE
  5
2EB5
  8
0
 10
200.4999999999992895
 20
33.296706911509979
 30
0.0
 11
201.4999999999992895
 21
33.2967069115099292
 31
0.0
  0
LINE
  5
2EB7
  8
0
 10
196.6028856829694007
 20
31.1734894364356308
 30
0.0
 11
201.4999999999992895
 21
31.173489436435581
 31
0.0
  0
POLYLINE
  5
2EB8
  8
0
 10
192.7057713659396256
 20
30.0000000000000497
 30
0.0
 66
     1
 70
     8
  0
VERTEX
  8
0
  5
3808
 10
192.706
 20
30.0000
 30
0.00000
  70
    32
  0
VERTEX
  8
0
  5
3809
 10
192.737
 20
30.0001
 30
0.00000
  70
    32
  0
VERTEX
  8
0
  5
380A
 10
192.768
 20
30.0003
 30
0.00000
  70
    32
  0
VERTEX
  8
0
  5
380B
 10
192.799
 20
30.0007
 30
0.00000
  70
    32
  0
VERTEX
  8
0
  5
380C
 10
192.830
 20
30.0012
 30
0.00000
  70
    32
  0
VERTEX
  8
0
  5
380D
 10
192.861
 20
30.0018
 30
0.00000
  70
    32
  0
VERTEX
  8
0
  5
380E
 10
192.892
 20
30.0026
 30
0.00000
  70
    32
  0
VERTEX
  8
0
  5
380F
 10
192.923
 20
30.0035
 30
0.00000
  70
    32
  0
VERTEX
  8
0
  5
3810
 10
192.954
 20
30.0046
 30
0.00000
  70
    32
  0
VERTEX
  8
0
  5
3811
 10
192.985
 20
30.0059
 30
0.00000
  70
    32
  0
VERTEX
  8
0
  5
3812
 10
193.016
 20
30.0072
 30
0.00000
  70
    32
  0
VERTEX
  8
0
  5
3813
 10
193.047
 20
30.0088
 30
0.00000
  70
    32
  0
VERTEX
  8
0
  5
3814
 10
193.078
 20
30.0104
 30
0.00000
  70
    32
  0
VERTEX
  8
0
  5
3815
 10
193.109
 20
30.0122
 30
0.00000
  70
    32
  0
VERTEX
  8
0
  5
3816
 10
193.140
 20
30.0142
 30
0.00000
  70
    32
  0
VERTEX
  8
0
  5
3817
 10
193.171
 20
30.0163
 30
0.00000
  70
    32
  0
VERTEX
  8
0
  5
3818
 10
193.203
 20
30.0185
 30
0.00000
  70
    32
  0
VERTEX
  8
0
  5
3819
 10
193.234
 20
30.0209
 30
0.00000
  70
    32
  0
VERTEX
  8
0
  5
381A
 10
193.265
 20
30.0234
 30
0.00000
  70
    32
  0
VERTEX
  8
0
  5
381B
 10
193.296
 20
30.0261
 30
0.00000
  70
    32
  0
VERTEX
  8
0
  5
381C
 10
193.327
 20
30.0289
 30
0.00000
  70
    32
  0
VERTEX
  8
0
  5
381D
 10
193.358
 20
30.0319
 30
0.00000
  70
    32
  0
VERTEX
  8
0
  5
381E
 10
193.389
 20
30.0350
 30
0.00000
  70
    32
  0
VERTEX
  8
0
  5
381F
 10
193.420
 20
30.0383
 30
0.00000
  70
    32
  0
VERTEX
  8
0
  5
3820
 10
193.451
 20
30.0417
 30
0.00000
  70
    32
  0
VERTEX
  8
0
  5
3821
 10
193.482
 20
30.0452
 30
0.00000
  70
    32
  0
VERTEX
  8
0
  5
3822
 10
193.513
 20
30.0489
 30
0.00000
  70
    32
  0
VERTEX
  8
0
  5
3823
 10
193.544
 20
30.0527
 30
0.00000
  70
    32
  0
VERTEX
  8
0
  5
3824
 10
193.575
 20
30.0567
 30
0.00000
  70
    32
  0
VERTEX
  8
0
  5
3825
 10
193.605
 20
30.0608
 30
0.00000
  70
    32
  0
VERTEX
  8
0
  5
3826
 10
193.636
 20
30.0651
 30
0.00000
  70
    32
  0
VERTEX
  8
0
  5
3827
 10
193.667
 20
30.0695
 30
0.00000
  70
    32
  0
VERTEX
  8
0
  5
3828
 10
193.698
 20
30.0740
 30
0.00000
  70
    32
  0
VERTEX
  8
0
  5
3829
 10
193.729
 20
30.0787
 30
0.00000
  70
    32
  0
VERTEX
  8
0
  5
382A
 10
193.760
 20
30.0836
 30
0.00000
  70
    32
  0
VERTEX
  8
0
  5
382B
 10
193.791
 20
30.0885
 30
0.00000
  70
    32
  0
VERTEX
  8
0
  5
382C
 10
193.822
 20
30.0937
 30
0.00000
  70
    32
  0
VERTEX
  8
0
  5
382D
 10
193.853
 20
30.0989
 30
0.00000
  70
    32
  0
VERTEX
  8
0
  5
382E
 10
193.884
 20
30.1044
 30
0.00000
  70
    32
  0
VERTEX
  8
0
  5
382F
 10
193.915
 20
30.1099
 30
0.00000
  70
    32
  0
VERTEX
  8
0
  5
3830
 10
193.946
 20
30.1156
 30
0.00000
  70
    32
  0
VERTEX
  8
0
  5
3831
 10
193.976
 20
30.1215
 30
0.00000
  70
    32
  0
VERTEX
  8
0
  5
3832
 10
194.007
 20
30.1275
 30
0.00000
  70
    32
  0
VERTEX
  8
0
  5
3833
 10
194.038
 20
30.1336
 30
0.00000
  70
    32
  0
VERTEX
  8
0
  5
3834
 10
194.069
 20
30.1399
 30
0.00000
  70
    32
  0
VERTEX
  8
0
  5
3835
 10
194.100
 20
30.1463
 30
0.00000
  70
    32
  0
VERTEX
  8
0
  5
3836
 10
194.131
 20
30.1529
 30
0.00000
  70
    32
  0
VERTEX
  8
0
  5
3837
 10
194.162
 20
30.1596
 30
0.00000
  70
    32
  0
VERTEX
  8
0
  5
3838
 10
194.192
 20
30.1664
 30
0.00000
  70
    32
  0
VERTEX
  8
0
  5
3839
 10
194.223
 20
30.1734
 30
0.00000
  70
    32
  0
VERTEX
  8
0
  5
383A
 10
194.254
 20
30.1806
 30
0.00000
  70
    32
  0
VERTEX
  8
0
  5
383B
 10
194.285
 20
30.1879
 30
0.00000
  70
    32
  0
VERTEX
  8
0
  5
383C
 10
194.315
 20
30.1953
 30
0.00000
  70
    32
  0
VERTEX
  8
0
  5
383D
 10
194.346
 20
30.2028
 30
0.00000
  70
    32
  0
VERTEX
  8
0
  5
383E
 10
194.377
 20
30.2106
 30
0.00000
  70
    32
  0
VERTEX
  8
0
  5
383F
 10
194.408
 20
30.2184
 30
0.00000
  70
    32
  0
VERTEX
  8
0
  5
3840
 10
194.438
 20
30.2264
 30
0.00000
  70
    32
  0
VERTEX
  8
0
  5
3841
 10
194.469
 20
30.2346
 30
0.00000
  70
    32
  0
VERTEX
  8
0
  5
3842
 10
194.500
 20
30.2428
 30
0.00000
  70
    32
  0
VERTEX
  8
0
  5
3843
 10
194.530
 20
30.2513
 30
0.00000
  70
    32
  0
VERTEX
  8
0
  5
3844
 10
194.561
 20
30.2598
 30
0.00000
  70
    32
  0
VERTEX
  8
0
  5
3845
 10
194.592
 20
30.2686
 30
0.00000
  70
    32
  0
VERTEX
  8
0
  5
3846
 10
194.622
 20
30.2774
 30
0.00000
  70
    32
  0
VERTEX
  8
0
  5
3847
 10
194.653
 20
30.2864
 30
0.00000
  70
    32
  0
VERTEX
  8
0
  5
3848
 10
194.684
 20
30.2956
 30
0.00000
  70
    32
  0
VERTEX
  8
0
  5
3849
 10
194.714
 20
30.3048
 30
0.00000
  70
    32
  0
VERTEX
  8
0
  5
384A
 10
194.745
 20
30.3143
 30
0.00000
  70
    32
  0
VERTEX
  8
0
  5
384B
 10
194.775
 20
30.3238
 30
0.00000
  70
    32
  0
VERTEX
  8
0
  5
384C
 10
194.806
 20
30.3335
 30
0.00000
  70
    32
  0
VERTEX
  8
0
  5
384D
 10
194.836
 20
30.3434
 30
0.00000
  70
    32
  0
VERTEX
  8
0
  5
384E
 10
194.867
 20
30.3534
 30
0.00000
  70
    32
  0
VERTEX
  8
0
  5
384F
 10
194.897
 20
30.3635
 30
0.00000
  70
    32
  0
VERTEX
  8
0
  5
3850
 10
194.928
 20
30.3738
 30
0.00000
  70
    32
  0
VERTEX
  8
0
  5
3851
 10
194.958
 20
30.3842
 30
0.00000
  70
    32
  0
VERTEX
  8
0
  5
3852
 10
194.989
 20
30.3948
 30
0.00000
  70
    32
  0
VERTEX
  8
0
  5
3853
 10
195.019
 20
30.4055
 30
0.00000
  70
    32
  0
VERTEX
  8
0
  5
3854
 10
195.050
 20
30.4164
 30
0.00000
  70
    32
  0
VERTEX
  8
0
  5
3855
 10
195.080
 20
30.4273
 30
0.00000
  70
    32
  0
VERTEX
  8
0
  5
3856
 10
195.110
 20
30.4385
 30
0.00000
  70
    32
  0
VERTEX
  8
0
  5
3857
 10
195.141
 20
30.4498
 30
0.00000
  70
    32
  0
VERTEX
  8
0
  5
3858
 10
195.171
 20
30.4612
 30
0.00000
  70
    32
  0
VERTEX
  8
0
  5
3859
 10
195.201
 20
30.4727
 30
0.00000
  70
    32
  0
VERTEX
  8
0
  5
385A
 10
195.232
 20
30.4844
 30
0.00000
  70
    32
  0
VERTEX
  8
0
  5
385B
 10
195.262
 20
30.4963
 30
0.00000
  70
    32
  0
VERTEX
  8
0
  5
385C
 10
195.292
 20
30.5082
 30
0.00000
  70
    32
  0
VERTEX
  8
0
  5
385D
 10
195.323
 20
30.5204
 30
0.00000
  70
    32
  0
VERTEX
  8
0
  5
385E
 10
195.353
 20
30.5326
 30
0.00000
  70
    32
  0
VERTEX
  8
0
  5
385F
 10
195.383
 20
30.5450
 30
0.00000
  70
    32
  0
VERTEX
  8
0
  5
3860
 10
195.413
 20
30.5576
 30
0.00000
  70
    32
  0
VERTEX
  8
0
  5
3861
 10
195.443
 20
30.5702
 30
0.00000
  70
    32
  0
VERTEX
  8
0
  5
3862
 10
195.474
 20
30.5831
 30
0.00000
  70
    32
  0
VERTEX
  8
0
  5
3863
 10
195.504
 20
30.5960
 30
0.00000
  70
    32
  0
VERTEX
  8
0
  5
3864
 10
195.534
 20
30.6091
 30
0.00000
  70
    32
  0
VERTEX
  8
0
  5
3865
 10
195.564
 20
30.6224
 30
0.00000
  70
    32
  0
VERTEX
  8
0
  5
3866
 10
195.594
 20
30.6358
 30
0.00000
  70
    32
  0
VERTEX
  8
0
  5
3867
 10
195.624
 20
30.6493
 30
0.00000
  70
    32
  0
VERTEX
  8
0
  5
3868
 10
195.654
 20
30.6630
 30
0.00000
  70
    32
  0
VERTEX
  8
0
  5
3869
 10
195.684
 20
30.6768
 30
0.00000
  70
    32
  0
VERTEX
  8
0
  5
386A
 10
195.714
 20
30.6907
 30
0.00000
  70
    32
  0
VERTEX
  8
0
  5
386B
 10
195.744
 20
30.7048
 30
0.00000
  70
    32
  0
VERTEX
  8
0
  5
386C
 10
195.774
 20
30.7190
 30
0.00000
  70
    32
  0
VERTEX
  8
0
  5
386D
 10
195.804
 20
30.7334
 30
0.00000
  70
    32
  0
VERTEX
  8
0
  5
386E
 10
195.834
 20
30.7479
 30
0.00000
  70
    32
  0
VERTEX
  8
0
  5
386F
 10
195.864
 20
30.7625
 30
0.00000
  70
    32
  0
VERTEX
  8
0
  5
3870
 10
195.894
 20
30.7773
 30
0.00000
  70
    32
  0
VERTEX
  8
0
  5
3871
 10
195.923
 20
30.7922
 30
0.00000
  70
    32
  0
VERTEX
  8
0
  5
3872
 10
195.953
 20
30.8073
 30
0.00000
  70
    32
  0
VERTEX
  8
0
  5
3873
 10
195.983
 20
30.8225
 30
0.00000
  70
    32
  0
VERTEX
  8
0
  5
3874
 10
196.013
 20
30.8378
 30
0.00000
  70
    32
  0
VERTEX
  8
0
  5
3875
 10
196.043
 20
30.8533
 30
0.00000
  70
    32
  0
VERTEX
  8
0
  5
3876
 10
196.072
 20
30.8689
 30
0.00000
  70
    32
  0
VERTEX
  8
0
  5
3877
 10
196.102
 20
30.8846
 30
0.00000
  70
    32
  0
VERTEX
  8
0
  5
3878
 10
196.132
 20
30.9005
 30
0.00000
  70
    32
  0
VERTEX
  8
0
  5
3879
 10
196.161
 20
30.9166
 30
0.00000
  70
    32
  0
VERTEX
  8
0
  5
387A
 10
196.191
 20
30.9327
 30
0.00000
  70
    32
  0
VERTEX
  8
0
  5
387B
 10
196.221
 20
30.9490
 30
0.00000
  70
    32
  0
VERTEX
  8
0
  5
387C
 10
196.250
 20
30.9655
 30
0.00000
  70
    32
  0
VERTEX
  8
0
  5
387D
 10
196.280
 20
30.9821
 30
0.00000
  70
    32
  0
VERTEX
  8
0
  5
387E
 10
196.309
 20
30.9988
 30
0.00000
  70
    32
  0
VERTEX
  8
0
  5
387F
 10
196.339
 20
31.0156
 30
0.00000
  70
    32
  0
VERTEX
  8
0
  5
3880
 10
196.368
 20
31.0326
 30
0.00000
  70
    32
  0
VERTEX
  8
0
  5
3881
 10
196.398
 20
31.0498
 30
0.00000
  70
    32
  0
VERTEX
  8
0
  5
3882
 10
196.427
 20
31.0670
 30
0.00000
  70
    32
  0
VERTEX
  8
0
  5
3883
 10
196.456
 20
31.0844
 30
0.00000
  70
    32
  0
VERTEX
  8
0
  5
3884
 10
196.486
 20
31.1020
 30
0.00000
  70
    32
  0
VERTEX
  8
0
  5
3885
 10
196.515
 20
31.1196
 30
0.00000
  70
    32
  0
VERTEX
  8
0
  5
3886
 10
196.544
 20
31.1375
 30
0.00000
  70
    32
  0
VERTEX
  8
0
  5
3887
 10
196.574
 20
31.1554
 30
0.00000
  70
    32
  0
VERTEX
  8
0
  5
3888
 10
196.603
 20
31.1735
 30
0.00000
  70
    32
  0
SEQEND
  8
0
  5
3889
  0
ARC
  5
2EB9
  8
0
 10
144.4999999999992895
 20
71.0000000000000284
 30
0.0
 40
12.0000000000001101
 50
19.4964980175306195
 51
179.9999999999996021
  0
LINE
  5
2EBA
  8
0
 10
132.4999999999992895
 20
29.0000000000000391
 30
0.0
 11
132.4999999999992895
 21
71.0000000000000284
 31
0.0
  0
LINE
  5
2EBB
  8
0
 10
155.8119427037833873
 20
75.0049909196290656
 30
0.0
 11
172.1050006255003098
 21
29.0000000000000391
 31
0.0
  0
ARC
  5
2EBC
  8
0
 10
201.4999999999992895
 20
50.0000000000000284
 30
0.0
 40
16.7032930884901099
 50
270.0000000000007958
 51
0.0000000000002036
  0
ARC
  5
2EBD
  8
0
 10
206.5895105790883122
 20
35.8549297434658101
 30
0.0
 40
4.9672102920671737
 50
243.8084349512654114
 51
290.0716055297962157
  0
ARC
  5
2EBE
  8
0
 10
201.4999999999992895
 20
50.0000000000000497
 30
0.0
 40
18.8265105635644687
 50
270.0000000000007958
 51
278.8521255987120071
  0
LINE
  5
2EC1
  8
2
 10
132.4999999999992895
 20
65.0000000000000142
 30
0.0
 11
177.4999999999992895
 21
65.0000000000000284
 31
0.0
  0
LINE
  5
2EC2
  8
2
 10
177.4999999999992895
 20
35.0000000000000284
 30
0.0
 11
177.4999999999992895
 21
65.0000000000000284
 31
0.0
  0
ARC
  5
2EC3
  8
0
 10
344.1499999999998067
 20
67.6000000000001506
 30
0.0
 40
0.6499999999998494
 50
89.9999999999849365
 51
180.0000000000133866
  0
ARC
  5
2EC4
  8
0
 10
355.8500000000000796
 20
67.6000000000002075
 30
0.0
 40
0.6499999999998636
 50
359.9999999999869829
 51
90.0000000000150635
  0
LINE
  5
2EC5
  8
0
 10
343.5
 20
67.6000000000000085
 30
0.0
 11
343.5
 21
64.0000001791695468
 31
0.0
  0
LINE
  5
2EC6
  8
0
 10
356.4999999999998863
 20
64.0000000000000426
 30
0.0
 11
356.4999999999998863
 21
67.6000000000000512
 31
0.0
  0
LINE
  5
2EC7
  8
0
 10
346.0
 20
52.0
 30
0.0
 11
346.0
 21
48.0
 31
0.0
  0
LINE
  5
2EC8
  8
0
 10
354.0
 20
48.0000000000000426
 30
0.0
 11
354.0
 21
52.0000000000000213
 31
0.0
  0
ARC
  5
2EC9
  8
0
 10
367.3500000000000796
 20
76.8500000000001933
 30
0.0
 40
0.6499999999998494
 50
359.9999999999869829
 51
90.0000000000150635
  0
LINE
  5
2ECA
  8
0
 10
367.3500000000000227
 20
77.5000000000000568
 30
0.0
 11
363.9999999999997726
 21
77.5000000000000284
 31
0.0
  0
LINE
  5
2ECB
  8
0
 10
352.2499999999998863
 20
75.0
 30
0.0
 11
347.75
 21
74.9999999999999858
 31
0.0
  0
LINE
  5
2ECC
  8
0
 10
343.5
 20
34.5499999999999972
 30
0.0
 11
344.250257738807079
 21
31.75
 31
0.0
  0
LINE
  5
2ECD
  8
0
 10
355.7497422611929778
 20
31.7500000000000391
 30
0.0
 11
356.5000000000001137
 21
34.5500000000000398
 31
0.0
  0
LINE
  5
2ED1
  8
0
 10
365.0485029541874269
 20
29.5000000000000817
 30
0.0
 11
372.25
 21
29.5000000000000995
 31
0.0
  0
LINE
  5
2ED2
  8
0
 10
372.25
 20
70.5000000000000995
 30
0.0
 11
365.0483779549729206
 21
70.5000000000000711
 31
0.0
  0
LINE
  5
2ED3
  8
0
 10
327.7499999999998863
 20
29.4999999999999396
 30
0.0
 11
334.9516220959256998
 21
29.4999999999999716
 31
0.0
  0
LINE
  5
2ED4
  8
0
 10
334.9514970358599157
 20
70.4999999999999716
 30
0.0
 11
327.7499999999998863
 21
70.4999999999999432
 31
0.0
  0
LINE
  5
2ED5
  8
0
 10
365.0336623328303745
 20
72.0000000000000711
 30
0.0
 11
334.9641433305013152
 21
71.9999999999999716
 31
0.0
  0
LINE
  5
2ED6
  8
0
 10
334.9663367020780811
 20
27.9999999999999716
 30
0.0
 11
365.0358558215756943
 21
28.0000000000000817
 31
0.0
  0
LINE
  5
2ED7
  8
0
 10
347.7499999999998863
 20
83.0000000000000853
 30
0.0
 11
335.9999999999998863
 21
83.0000000000001137
 31
0.0
  0
LINE
  5
2ED8
  8
0
 10
363.9999999999998863
 20
83.0000000000000142
 30
0.0
 11
352.2499999999998863
 21
83.0000000000000568
 31
0.0
  0
LINE
  5
2ED9
  8
0
 10
344.1500000056192903
 20
68.25
 30
0.0
 11
355.8499999999999091
 21
68.2500000000000426
 31
0.0
  0
LINE
  5
2EDA
  8
0
 10
368.0
 20
76.8500000000000512
 30
0.0
 11
368.0
 21
70.5000000000000853
 31
0.0
  0
LINE
  5
2EE5
  8
0
 10
355.7497422611929778
 20
31.7500000000000391
 30
0.0
 11
344.250257738807079
 21
31.75
 31
0.0
  0
LINE
  5
2EF2
  8
0
 10
359.980319729718417
 20
35.9999999845121792
 30
0.0
 11
359.980319729718417
 21
48.0000000000000568
 31
0.0
  0
LINE
  5
2EF3
  8
0
 10
340.019680270281583
 20
35.9999997368457016
 30
0.0
 11
340.019680270281583
 21
47.9999999999999787
 31
0.0
  0
LINE
  5
2EF5
  8
0
 10
327.75
 20
47.9999999999999432
 30
0.0
 11
372.25
 21
48.0000000000000995
 31
0.0
  0
LINE
  5
2EF6
  8
0
 10
340.019680270281583
 20
51.9999999999999929
 30
0.0
 11
340.0196802702815262
 21
64.0000000000000142
 31
0.0
  0
LINE
  5
2EF7
  8
0
 10
359.980319729718417
 20
52.0000000000000568
 30
0.0
 11
359.980319729718417
 21
64.0000000000000284
 31
0.0
  0
LINE
  5
2EF9
  8
0
 10
372.25
 20
52.0000000000000995
 30
0.0
 11
327.75
 21
51.9999999999999432
 31
0.0
  0
LINE
  5
2F06
  8
0
 10
338.7714404079492283
 20
64.0000011330929226
 30
0.0
 11
361.2285594851343262
 21
64.0000000000000284
 31
0.0
  0
LINE
  5
2F07
  8
0
 10
361.2285593859069763
 20
36.0000000000000071
 30
0.0
 11
338.7714405148657875
 21
35.9999997213578595
 31
0.0
  0
LINE
  5
2F0B
  8
0
 10
372.2500000000001137
 20
70.5000000000000995
 30
0.0
 11
372.25
 21
29.5000000000000995
 31
0.0
  0
LINE
  5
2F0F
  8
0
 10
327.7500000000001137
 20
70.4999999999999432
 30
0.0
 11
327.7499999999998863
 21
29.4999999999999396
 31
0.0
  0
LINE
  5
2F1A
  8
0
 10
347.7499999999998863
 20
83.0000000000000142
 30
0.0
 11
347.75
 21
72.0000000000000142
 31
0.0
  0
LINE
  5
2F1B
  8
0
 10
335.9999999999998863
 20
83.0000000000000142
 30
0.0
 11
336.0000000000001137
 21
71.9999999999999716
 31
0.0
  0
LINE
  5
2F1C
  8
0
 10
352.2499999999998863
 20
72.0000000000000142
 30
0.0
 11
352.2499999999998863
 21
83.0000000000000142
 31
0.0
  0
LINE
  5
2F1D
  8
0
 10
363.9999999999997726
 20
83.0000000000000142
 30
0.0
 11
364.0000000000001137
 21
72.0000000000000711
 31
0.0
  0
LINE
  5
2F20
  8
0
 10
32.6499999999996717
 20
64.5000000000000426
 30
0.0
 11
34.8095424690366784
 21
64.5000000000000426
 31
0.0
  0
LINE
  5
2F21
  8
0
 10
35.9999999999996732
 20
77.5000000000000426
 30
0.0
 11
32.6499999999997073
 21
77.5000000000000568
 31
0.0
  0
ARC
  5
2F22
  8
0
 10
32.6499999999995083
 20
65.1499999999999062
 30
0.0
 40
0.6499999999998636
 50
179.9999999999874092
 51
270.000000000013813
  0
ARC
  5
2F23
  8
0
 10
32.6499999999995509
 20
76.8500000000001933
 30
0.0
 40
0.649999999999853
 50
89.9999999999865707
 51
180.0000000000146088
  0
LINE
  5
2F24
  8
0
 10
47.7499999999999716
 20
66.9999999999999858
 30
0.0
 11
52.2499999999999574
 21
66.9999999999999858
 31
0.0
  0
LINE
  5
2F25
  8
0
 10
52.2499999999999289
 20
74.9999999999999858
 30
0.0
 11
47.7499999999999289
 21
75.0
 31
0.0
  0
LINE
  5
2F26
  8
0
 10
65.1999999999996334
 20
64.5
 30
0.0
 11
67.9999999999996447
 21
65.2502577388070932
 31
0.0
  0
LINE
  5
2F27
  8
0
 10
67.9999999999997158
 20
76.7497422611928926
 30
0.0
 11
65.1999999999997044
 21
77.5
 31
0.0
  0
LINE
  5
2F28
  8
0
 10
34.9516462900770719
 20
28.0000000000000817
 30
0.0
 11
65.0483505793035874
 21
27.9999999999999716
 31
0.0
  0
LINE
  5
2F29
  8
0
 10
72.2499999999997158
 20
70.4999999999999432
 30
0.0
 11
68.0000000000000568
 21
70.4999999999999716
 31
0.0
  0
LINE
  5
2F2A
  8
0
 10
66.8430455577138503
 20
29.4999999999999609
 30
0.0
 11
72.2499999999995737
 21
29.4999999999999396
 31
0.0
  0
LINE
  5
2F2B
  8
0
 10
32.0000000000000497
 20
70.5000000000000853
 30
0.0
 11
27.74999999999973
 21
70.5000000000000995
 31
0.0
  0
LINE
  5
2F2C
  8
0
 10
27.7499999999995808
 20
29.5000000000000995
 30
0.0
 11
33.1565232529335177
 21
29.5000000000000817
 31
0.0
  0
LINE
  5
2F2D
  8
0
 10
47.7499999999997868
 20
83.0000000000000568
 30
0.0
 11
35.999999999999801
 21
83.0000000000000142
 31
0.0
  0
LINE
  5
2F2E
  8
0
 10
63.9999999999997868
 20
83.0000000000001137
 30
0.0
 11
52.249999999999801
 21
83.0000000000000853
 31
0.0
  0
LINE
  5
2F2F
  8
0
 10
31.9999999999996589
 20
65.1499999999999062
 30
0.0
 11
31.9999999999997016
 21
76.8500000000000512
 31
0.0
  0
LINE
  5
2F3A
  8
0
 10
67.9999999999997158
 20
76.7497422611928926
 30
0.0
 11
67.9999999999996447
 21
65.2502577388070932
 31
0.0
  0
LINE
  5
2F3C
  8
0
 10
60.9999999999999503
 20
60.1980390271852031
 30
0.0
 11
60.9999999999999716
 21
50.0000000000000071
 31
0.0
  0
LINE
  5
2F3D
  8
0
 10
38.9999999999999716
 20
50.0000000000000284
 30
0.0
 11
38.9999999999999503
 21
60.198039027185942
 31
0.0
  0
LINE
  5
2F42
  8
0
 10
72.24999999999946
 20
29.4999999999999396
 30
0.0
 11
72.2499999999996163
 21
70.4999999999999432
 31
0.0
  0
LINE
  5
2F43
  8
0
 10
27.7499999999994706
 20
29.5000000000000995
 30
0.0
 11
27.7499999999996199
 21
70.5000000000000995
 31
0.0
  0
LINE
  5
2F49
  8
0
 10
46.9999999999996803
 20
34.2500000000000213
 30
0.0
 11
46.9999999999996803
 21
35.3030615433010269
 31
0.0
  0
LINE
  5
2F4A
  8
0
 10
52.9999999999996803
 20
34.2500000000000213
 30
0.0
 11
46.9999999999996803
 21
34.2500000000000213
 31
0.0
  0
LINE
  5
2F4B
  8
0
 10
52.9999999999996803
 20
34.2500000000000213
 30
0.0
 11
52.9999999999996803
 21
35.303061543300899
 31
0.0
  0
ARC
  5
2F4C
  8
0
 10
49.9999999999999929
 20
50.0000000000000284
 30
0.0
 40
15.0
 50
98.6269265586786332
 51
81.3730734413213952
  0
ARC
  5
2F4F
  8
0
 10
49.9999999999999929
 20
50.0000000000000284
 30
0.0
 40
21.0000000000000107
 50
131.8103148957785038
 51
48.1896851042213825
1001
GENIUS_GENODEF_13
1002
{
1000
HIER
1070
     0
1002
}
1002
{
1000
MANEDIT
1070
     0
1002
}
1002
{
1000
NOSEL
1070
     0
1002
}
1002
{
1000
BEHIND
1070
     0
1002
}
1002
{
1000
OTHER
1070
     0
1002
}
1002
{
1000
REACTOR
1002
}
1001
GENIUS_GENOBJ-N-FIL_13
1002
{
1000
OWNER
1000
GEN
1002
}
  0
LINE
  5
2F50
  8
0
 10
47.7499999999997868
 20
83.0000000000000142
 30
0.0
 11
47.7499999999999716
 21
64.8302899499639267
 31
0.0
  0
LINE
  5
2F51
  8
0
 10
35.9999999999999929
 20
65.6524758424985606
 30
0.0
 11
35.999999999999801
 21
83.0000000000000142
 31
0.0
  0
LINE
  5
2F52
  8
0
 10
52.2499999999999716
 20
64.8302899499639267
 30
0.0
 11
52.249999999999801
 21
83.0000000000000142
 31
0.0
  0
LINE
  5
2F53
  8
0
 10
63.9999999999999787
 20
65.6524758424985464
 30
0.0
 11
63.9999999999997797
 21
83.0000000000000142
 31
0.0
  0
LINE
  5
2F55
  8
0
 10
34.9999999999996803
 20
49.9999999999999716
 30
0.0
 11
64.9999999999996732
 21
50.0000000000000711
 31
0.0
  0
LINE
  5
3015
  8
0
 10
65.1999999999997044
 20
77.5000000000000284
 30
0.0
 11
63.9999999999998366
 21
77.5000000000000284
 31
0.0
  0
LINE
  5
3016
  8
0
 10
65.1999999999997044
 20
77.5000000000000284
 30
0.0
 11
65.1999999999997044
 21
64.5000000000000142
 31
0.0
  0
LINE
  5
3017
  8
0
 10
64.6194434163989513
 20
71.0000000000000284
 30
0.0
 11
63.9999999999999076
 21
71.0000000000000284
 31
0.0
  0
ARC
  5
3018
  8
0
 10
55.7987572590819809
 20
74.2500000000000284
 30
0.0
 40
9.4003725610149864
 50
339.7735762333496154
 51
20.2264237666503597
  0
ARC
  5
3019
  8
0
 10
55.7987572590819809
 20
67.7500000000000284
 30
0.0
 40
9.4003725610149864
 50
342.5521101739994947
 51
20.2264237666503597
  0
LINE
  5
301A
  8
1
 10
70.9999999999996874
 20
71.0000000000000284
 30
0.0
 11
28.9999999999996803
 21
71.0000000000000284
 31
0.0
  0
LINE
  5
3022
  8
3
 10
52.2499999999998792
 20
74.2330000000000325
 30
0.0
 11
47.7499999999998792
 21
74.2330000000000325
 31
0.0
  0
LINE
  5
3023
  8
3
 10
52.2499999999999432
 20
67.7670000000000243
 30
0.0
 11
47.7499999999998792
 21
67.7670000000000243
 31
0.0
  0
LINE
  5
3026
  8
1
 10
152.9999999999994031
 20
70.9999999999999432
 30
0.0
 11
133.9999999999992042
 21
70.9999999999999432
 31
0.0
  0
LINE
  5
3027
  8
1
 10
143.5000000748455875
 20
80.5000000000000426
 30
0.0
 11
143.4999999999992895
 21
61.4999999999998366
 31
0.0
  0
LINE
  5
3028
  8
0
 10
135.9944465379572875
 20
70.9999999999999432
 30
0.0
 11
139.7472232876899056
 21
64.4999999999999432
 31
0.0
  0
LINE
  5
3029
  8
0
 10
139.7472232876899056
 20
77.4999999999999432
 30
0.0
 11
135.9944465379572875
 21
70.9999999999999432
 31
0.0
  0
LINE
  5
302A
  8
0
 10
139.7472232876899056
 20
64.4999999999999432
 30
0.0
 11
147.2527767871549997
 21
64.4999999999999432
 31
0.0
  0
CIRCLE
  5
302B
  8
0
 10
143.5000000374224101
 20
70.9999999999999432
 30
0.0
 40
3.3235000000000001
  0
LINE
  5
302C
  8
0
 10
147.2527767871549997
 20
64.4999999999999432
 30
0.0
 11
151.0055535368875894
 21
70.9999999999999432
 31
0.0
  0
LINE
  5
302D
  8
0
 10
151.0055535368875894
 20
70.9999999999999432
 30
0.0
 11
147.2527767871549997
 21
77.4999999999999432
 31
0.0
  0
LINE
  5
302E
  8
0
 10
147.2527767871549997
 20
77.4999999999999432
 30
0.0
 11
139.7472232876899056
 21
77.4999999999999432
 31
0.0
  0
CIRCLE
  5
302F
  8
0
 10
143.5000000374224101
 20
71.0
 30
0.0
 40
6.4999999999999583
  0
CIRCLE
  5
3030
  8
3
 10
143.5000000374224101
 20
71.0
 30
0.0
 40
4.0
  0
LINE
  5
3031
  8
0
 10
196.7472232502622091
 20
143.5000000000079012
 30
0.0
 11
204.2527767496482909
 21
143.4999999998553903
 31
0.0
  0
LINE
  5
3032
  8
0
 10
204.2527767497319076
 20
156.5
 30
0.0
 11
208.005553499464412
 21
150.0
 31
0.0
  0
LINE
  5
3033
  8
0
 10
196.7472232502666998
 20
156.5
 30
0.0
 11
204.2527767497319076
 21
156.5
 31
0.0
  0
LINE
  5
3034
  8
0
 10
192.9944465005341954
 20
149.9999999999998863
 30
0.0
 11
196.7472232502666998
 21
156.5
 31
0.0
  0
LINE
  5
3035
  8
0
 10
196.7472232502622091
 20
143.5000000000079012
 30
0.0
 11
192.9944465005341954
 21
149.9999999999998863
 31
0.0
  0
LINE
  5
3036
  8
0
 10
208.005553499464412
 20
150.0
 30
0.0
 11
204.2527767496482909
 21
143.4999999998553903
 31
0.0
  0
ARC
  5
3037
  8
0
 10
200.0018395495760899
 20
151.0456029109832912
 30
0.0
 40
18.9609422983799014
 50
91.5055040814678193
 51
148.3321033304121102
  0
ARC
  5
3039
  8
0
 10
200.0018395495762036
 20
148.9543970890165951
 30
0.0
 40
18.9609422983799014
 50
211.6678966695868098
 51
268.4944959185364155
  0
LINE
  5
304E
  8
1
 10
143.4999999999992895
 20
128.999999999999801
 30
0.0
 11
143.4999999999990905
 21
170.999999999999801
 31
0.0
  0
LINE
  5
304F
  8
0
 10
149.9999999999992895
 20
134.8000000000000114
 30
0.0
 11
151.005553499464412
 21
135.3805565836007929
 31
0.0
  0
LINE
  5
3050
  8
0
 10
135.9944465005341101
 20
135.3805565836007929
 30
0.0
 11
136.9999999999992895
 21
134.8000000000000114
 31
0.0
  0
LINE
  5
3051
  8
0
 10
151.005553499464412
 20
135.3805565836007929
 30
0.0
 11
151.005553499464412
 21
135.9999999999998863
 31
0.0
  0
LINE
  5
3052
  8
0
 10
135.9944465005341101
 20
135.3805565836007929
 30
0.0
 11
135.9944465005341101
 21
135.999999999999801
 31
0.0
  0
LINE
  5
3053
  8
0
 10
139.7472232502665861
 20
135.3805565836007929
 30
0.0
 11
139.7472232502666998
 21
135.999999999999801
 31
0.0
  0
LINE
  5
3054
  8
0
 10
147.2527767497317939
 20
135.3805565836007929
 30
0.0
 11
147.2527767497317939
 21
135.9999999999998863
 31
0.0
  0
LINE
  5
3055
  8
0
 10
149.9999999999992895
 20
134.8000000000000114
 30
0.0
 11
136.9999999999992895
 21
134.8000000000000114
 31
0.0
  0
ARC
  5
3056
  8
0
 10
137.8708348754005044
 20
138.1225695729519032
 30
0.0
 40
3.3225695729515041
 50
244.3842474680268992
 51
304.3842474680272971
  0
ARC
  5
3057
  8
0
 10
143.4999999999992042
 20
147.2197505619641902
 30
0.0
 40
12.4197362045516098
 50
252.412474385033903
 51
287.5875256149661254
  0
ARC
  5
3058
  8
0
 10
149.1291651245981029
 20
138.1225695729519032
 30
0.0
 40
3.3225695729515041
 50
235.6157525319756871
 51
295.6157525319729871
  0
ARC
  5
305A
  8
0
 10
244.4999999999994884
 20
49.9999999999999503
 30
0.0
 40
22.0
 50
39.5212001841751217
 51
320.4788036413581267
  0
LINE
  5
305E
  8
1
 10
127.4999999999995026
 20
150.0
 30
0.0
 11
279.9999999999993179
 21
150.0000000000001137
 31
0.0
  0
LINE
  5
305F
  8
1
 10
127.4999999999995026
 20
50.0000000000000284
 30
0.0
 11
279.9999999999993179
 21
50.0000000000001421
 31
0.0
  0
LINE
  5
3061
  8
2
 10
132.4999999999992895
 20
35.0000000000000213
 30
0.0
 11
177.4999999999994031
 21
35.0000000000000284
 31
0.0
  0
LINE
  5
3062
  8
2
 10
132.4999999999994884
 20
164.9999999999996874
 30
0.0
 11
177.4999999999996021
 21
164.9999999999996874
 31
0.0
  0
LINE
  5
3063
  8
2
 10
132.4999999999994884
 20
134.9999999999996874
 30
0.0
 11
177.4999999999996021
 21
134.9999999999996874
 31
0.0
  0
LINE
  5
3064
  8
2
 10
257.4999999999992042
 20
172.250000000000199
 30
0.0
 11
257.4999999999992042
 21
127.75
 31
0.0
  0
LINE
  5
3065
  8
2
 10
227.4999999999992895
 20
172.2500000000001137
 30
0.0
 11
227.4999999999992895
 21
127.7500000000000995
 31
0.0
  0
LINE
  5
3066
  8
1
 10
242.4999999999992042
 20
175.2500000000001137
 30
0.0
 11
242.4999999999992895
 21
124.7500000000000995
 31
0.0
  0
LINE
  5
3069
  8
3
 10
146.7329999999992083
 20
147.7499999999998863
 30
0.0
 11
146.7329999999992083
 21
152.2499999999998863
 31
0.0
  0
LINE
  5
306A
  8
3
 10
140.2669999999992001
 20
147.749999999999801
 30
0.0
 11
140.2669999999992001
 21
152.2499999999998863
 31
0.0
  0
LINE
  5
306B
  8
3
 10
353.2330000000000041
 20
48.0000000000000284
 30
0.0
 11
353.2330000000000041
 21
52.0000000000000213
 31
0.0
  0
LINE
  5
306C
  8
3
 10
346.7669999999999959
 20
48.0
 30
0.0
 11
346.7669999999999959
 21
52.0000000000000213
 31
0.0
  0
LINE
  5
3081
  8
0
 10
356.5000000000001137
 20
34.5500000000000398
 30
0.0
 11
357.5055534994651794
 21
35.1305565836007929
 31
0.0
  0
LINE
  5
3082
  8
0
 10
342.4944465005348775
 20
35.1305565836007929
 30
0.0
 11
343.5
 21
34.5500000000000398
 31
0.0
  0
LINE
  5
3083
  8
0
 10
357.5055534994651794
 20
35.1305565836007929
 30
0.0
 11
357.5055534994651794
 21
36.0000000000000071
 31
0.0
  0
LINE
  5
3084
  8
0
 10
342.4944465005348775
 20
35.1305565836007929
 30
0.0
 11
342.4944465005348775
 21
36.0000000000000071
 31
0.0
  0
LINE
  5
3085
  8
0
 10
346.2472232502673819
 20
35.1305565836007929
 30
0.0
 11
346.2472232502674956
 21
36.0000000000000071
 31
0.0
  0
LINE
  5
3086
  8
0
 10
353.7527767497326181
 20
35.1305565836007929
 30
0.0
 11
353.7527767497326749
 21
36.0000000000000071
 31
0.0
  0
LINE
  5
3087
  8
0
 10
356.5000000000001137
 20
34.5500000000000398
 30
0.0
 11
343.5
 21
34.5500000000000398
 31
0.0
  0
ARC
  5
3088
  8
0
 10
344.370834875401215
 20
37.8725695729518534
 30
0.0
 40
3.3225695729515041
 50
244.3842474680282919
 51
304.3842474680268992
  0
ARC
  5
3089
  8
0
 10
350.0
 20
46.9697505619642115
 30
0.0
 40
12.4197362045516098
 50
252.4124743850323966
 51
287.5875256149674897
  0
ARC
  5
308A
  8
0
 10
355.6291651245988987
 20
37.8725695729518534
 30
0.0
 40
3.3225695729515041
 50
235.6157525319773924
 51
295.6157525319716797
  0
LINE
  5
308C
  8
1
 10
264.7499999999994884
 20
28.7500000000000213
 30
0.0
 11
264.7499999999994884
 21
71.2500000000000284
 31
0.0
  0
LINE
  5
308F
  8
1
 10
200.4999999999994884
 20
28.173489436435581
 30
0.0
 11
200.4999999999994031
 21
71.5404962178521515
 31
0.0
  0
LINE
  5
3092
  8
1
 10
242.4999999999994884
 20
32.0000000000001705
 30
0.0
 11
242.4999999999994884
 21
67.9999999999997442
 31
0.0
  0
LINE
  5
3093
  8
1
 10
200.5000000374224953
 20
159.5000000000001137
 30
0.0
 11
200.4999999625761973
 21
140.4999999999998863
 31
0.0
  0
LINE
  5
3094
  8
1
 10
264.7500000374225237
 20
159.5000000000001137
 30
0.0
 11
264.749999962576112
 21
140.499999999999801
 31
0.0
  0
LINE
  5
3096
  8
1
 10
76.0
 20
50.0000000000000284
 30
0.0
 11
23.9999999999999787
 21
50.0000000000000284
 31
0.0
  0
LINE
  5
3099
  8
1
 10
50.0
 20
23.0000000000000213
 30
0.0
 11
49.9999999999998366
 21
88.0000000000000853
 31
0.0
  0
LINE
  5
309A
  8
1
 10
377.25
 20
50.0000000000000284
 30
0.0
 11
322.75
 21
50.0000000000000284
 31
0.0
  0
LINE
  5
309B
  8
1
 10
350.0000000000002842
 20
23.0000000000000213
 30
0.0
 11
350.0000000000002274
 21
88.0000000000000853
 31
0.0
  0
LINE
  5
30AB
  8
1
 10
329.0
 20
71.0000000000000284
 30
0.0
 11
371.0000000000001137
 21
71.0000000000000284
 31
0.0
  0
LINE
  5
30E7
  8
0
 10
65.199999999999747
 20
64.5
 30
0.0
 11
65.1904575309633429
 21
64.5
 31
0.0
  0
POLYLINE
  5
30F0
  8
0
 66
     1
 10
0.0
 20
0.0
 30
0.0
  0
VERTEX
  5
32DB
  8
0
 10
30.2784710407386406
 20
57.2153513780699896
 30
0.0
  0
VERTEX
  5
32DC
  8
0
 10
30.3926739444103191
 20
58.5803207709035192
 30
0.0
  0
VERTEX
  5
32DD
  8
0
 10
30.5519226781531117
 20
60.1004988656020274
 30
0.0
  0
VERTEX
  5
32DE
  8
0
 10
30.7384968231545486
 20
61.5561804470726415
 30
0.0
  0
VERTEX
  5
32DF
  8
0
 10
30.9478293345464692
 20
62.9452465126727674
 30
0.0
  0
VERTEX
  5
32E0
  8
0
 10
31.1801800799251509
 20
64.2565314634208136
 30
0.0
  0
VERTEX
  5
32E1
  8
0
 10
31.4342680807323802
 20
65.48003469204086
 30
0.0
  0
VERTEX
  5
32E2
  8
0
 10
31.7054175993454486
 20
66.6295862209525609
 30
0.0
  0
VERTEX
  5
32E3
  8
0
 10
31.8488074150301905
 20
67.16215144725372
 30
0.0
  0
VERTEX
  5
32E4
  8
0
 10
31.9999999999999893
 20
67.6466235906526947
 30
0.0
  0
SEQEND
  5
32E5
  8
0
  0
POLYLINE
  5
30F1
  8
0
 66
     1
 10
0.0
 20
0.0
 30
0.0
  0
VERTEX
  5
32E6
  8
0
 10
34.9516462900770719
 20
28.0000000000000817
 30
0.0
  0
VERTEX
  5
32E7
  8
0
 10
34.8564129222275909
 20
28.0162219343836014
 30
0.0
  0
VERTEX
  5
32E8
  8
0
 10
34.7612065391239824
 20
28.0147420732844488
 30
0.0
  0
VERTEX
  5
32E9
  8
0
 10
34.6660561586199023
 20
28.0275348291431889
 30
0.0
  0
VERTEX
  5
32EA
  8
0
 10
34.5709970610338928
 20
28.0540704779893417
 30
0.0
  0
VERTEX
  5
32EB
  8
0
 10
34.4760657285955432
 20
28.0925534810804507
 30
0.0
  0
VERTEX
  5
32EC
  8
0
 10
34.3812986435344783
 20
28.1411882996741092
 30
0.0
  0
VERTEX
  5
32ED
  8
0
 10
34.1924028759282592
 20
28.2618706495222085
 30
0.0
  0
VERTEX
  5
32EE
  8
0
 10
34.0045879542600815
 20
28.4088463226392811
 30
0.0
  0
VERTEX
  5
32EF
  8
0
 10
33.8181127435316498
 20
28.5848806539629798
 30
0.0
  0
VERTEX
  5
32F0
  8
0
 10
33.7254579616499868
 20
28.6849006498282293
 30
0.0
  0
VERTEX
  5
32F1
  8
0
 10
33.6332351901156414
 20
28.79330050775852
 30
0.0
  0
VERTEX
  5
32F2
  8
0
 10
33.5414781062775234
 20
28.909957886815711
 30
0.0
  0
VERTEX
  5
32F3
  8
0
 10
33.4502204780818175
 20
29.0347164449507282
 30
0.0
  0
VERTEX
  5
32F4
  8
0
 10
33.2693386604026031
 20
29.3079117302579206
 30
0.0
  0
VERTEX
  5
32F5
  8
0
 10
33.0908584221946924
 20
29.6118060378676518
 30
0.0
  0
VERTEX
  5
32F6
  8
0
 10
32.9150421007044827
 20
29.946060748597251
 30
0.0
  0
VERTEX
  5
32F7
  8
0
 10
32.7421502609291366
 20
30.3105361651431195
 30
0.0
  0
VERTEX
  5
32F8
  8
0
 10
32.5724406104170967
 20
30.7049159933771882
 30
0.0
  0
VERTEX
  5
32F9
  8
0
 10
32.4061663579474413
 20
31.1286058950510984
 30
0.0
  0
VERTEX
  5
32FA
  8
0
 10
32.2435795399885734
 20
31.58098567180717
 30
0.0
  0
VERTEX
  5
32FB
  8
0
 10
32.0849244410132783
 20
32.0614208484417631
 30
0.0
  0
VERTEX
  5
32FC
  8
0
 10
31.9304408916781099
 20
32.569268721280487
 30
0.0
  0
VERTEX
  5
32FD
  8
0
 10
31.7803681774062987
 20
33.1038604179266827
 30
0.0
  0
VERTEX
  5
32FE
  8
0
 10
31.6349441720047189
 20
33.6644522885074693
 30
0.0
  0
VERTEX
  5
32FF
  8
0
 10
31.4944053971894284
 20
34.2502837644934814
 30
0.0
  0
VERTEX
  5
3300
  8
0
 10
31.3589661305025302
 20
34.8605216031039973
 30
0.0
  0
VERTEX
  5
3301
  8
0
 10
31.2288199876335497
 20
35.4942650569309919
 30
0.0
  0
VERTEX
  5
3302
  8
0
 10
31.1041754468961003
 20
36.1506246088735068
 30
0.0
  0
VERTEX
  5
3303
  8
0
 10
30.9853131108671391
 20
36.8287743112024515
 30
0.0
  0
VERTEX
  5
3304
  8
0
 10
30.872529985042739
 20
37.5278987006226501
 30
0.0
  0
VERTEX
  5
3305
  8
0
 10
30.7659313693754086
 20
38.2468388882551693
 30
0.0
  0
VERTEX
  5
3306
  8
0
 10
30.6653600024112585
 20
38.9839656292406573
 30
0.0
  0
VERTEX
  5
3307
  8
0
 10
30.5707846016971487
 20
39.737846300656642
 30
0.0
  0
VERTEX
  5
3308
  8
0
 10
30.4832327421879512
 20
40.5087328680963594
 30
0.0
  0
VERTEX
  5
3309
  8
0
 10
30.4041917650301485
 20
41.2976085315189891
 30
0.0
  0
VERTEX
  5
330A
  8
0
 10
30.3334273427963907
 20
42.1026776319230009
 30
0.0
  0
VERTEX
  5
330B
  8
0
 10
30.2775733708202601
 20
42.7871026725301107
 30
0.0
  0
SEQEND
  5
330C
  8
0
  0
POLYLINE
  5
30F2
  8
0
 66
     1
 10
0.0
 20
0.0
 30
0.0
  0
VERTEX
  5
330D
  8
0
 10
69.7216464571862247
 20
42.7849697840027474
 30
0.0
  0
VERTEX
  5
330E
  8
0
 10
69.6628066692114487
 20
42.0590923019622025
 30
0.0
  0
VERTEX
  5
330F
  8
0
 10
69.5920567245584039
 20
41.2556996294872604
 30
0.0
  0
VERTEX
  5
3310
  8
0
 10
69.5124998947611061
 20
40.4694551197695276
 30
0.0
  0
VERTEX
  5
3311
  8
0
 10
69.424535759354896
 20
39.701107697280591
 30
0.0
  0
VERTEX
  5
3312
  8
0
 10
69.3298059846057839
 20
38.9493824588764923
 30
0.0
  0
VERTEX
  5
3313
  8
0
 10
69.2292050410586626
 20
38.2142126499397889
 30
0.0
  0
VERTEX
  5
3314
  8
0
 10
69.1225861009441616
 20
37.4972152042278424
 30
0.0
  0
VERTEX
  5
3315
  8
0
 10
69.009769425976458
 20
36.8000536535287921
 30
0.0
  0
VERTEX
  5
3316
  8
0
 10
68.8909072200489589
 20
36.1238051863687488
 30
0.0
  0
VERTEX
  5
3317
  8
0
 10
68.7663022138212057
 20
35.4692809659254706
 30
0.0
  0
VERTEX
  5
3318
  8
0
 10
68.6362235773454756
 20
34.837326176345762
 30
0.0
  0
VERTEX
  5
3319
  8
0
 10
68.5008659986768009
 20
34.2288627361896829
 30
0.0
  0
VERTEX
  5
331A
  8
0
 10
68.3604163964334646
 20
33.6448162480371167
 30
0.0
  0
VERTEX
  5
331B
  8
0
 10
68.2150903131208963
 20
33.0860208138574592
 30
0.0
  0
VERTEX
  5
331C
  8
0
 10
68.0651247201241745
 20
32.5532420349453275
 30
0.0
  0
VERTEX
  5
331D
  8
0
 10
67.9107579207657466
 20
32.0472218600095218
 30
0.0
  0
VERTEX
  5
331E
  8
0
 10
67.7522315645984037
 20
31.5686118703201188
 30
0.0
  0
VERTEX
  5
331F
  8
0
 10
67.5897882824822602
 20
31.1180397309665899
 30
0.0
  0
VERTEX
  5
3320
  8
0
 10
67.4236774962923846
 20
30.6960933509377192
 30
0.0
  0
VERTEX
  5
3321
  8
0
 10
67.2541588541088657
 20
30.3033007727804105
 30
0.0
  0
VERTEX
  5
3322
  8
0
 10
67.0814926092289454
 20
29.9401666397210597
 30
0.0
  0
VERTEX
  5
3323
  8
0
 10
66.9059361653627036
 20
29.6069768311522914
 30
0.0
  0
VERTEX
  5
3324
  8
0
 10
66.7277450608903706
 20
29.303874024411769
 30
0.0
  0
VERTEX
  5
3325
  8
0
 10
66.5471752954403541
 20
29.0311728627203607
 30
0.0
  0
VERTEX
  5
3326
  8
0
 10
66.456079099204203
 20
28.9065631451708995
 30
0.0
  0
VERTEX
  5
3327
  8
0
 10
66.3644851960012403
 20
28.7900105740382593
 30
0.0
  0
VERTEX
  5
3328
  8
0
 10
66.272425962385924
 20
28.6816875859616616
 30
0.0
  0
VERTEX
  5
3329
  8
0
 10
66.1799337798311029
 20
28.5817527194675591
 30
0.0
  0
VERTEX
  5
332A
  8
0
 10
65.9937806276105903
 20
28.4061730744299901
 30
0.0
  0
VERTEX
  5
332B
  8
0
 10
65.8062863973857333
 20
28.2600010499567986
 30
0.0
  0
VERTEX
  5
332C
  8
0
 10
65.6177129863495736
 20
28.1402515903850414
 30
0.0
  0
VERTEX
  5
332D
  8
0
 10
65.523107976246564
 20
28.0919097742906203
 30
0.0
  0
VERTEX
  5
332E
  8
0
 10
65.4283394525406408
 20
28.0535945953170405
 30
0.0
  0
VERTEX
  5
332F
  8
0
 10
65.3334440220852599
 20
28.0271100765842789
 30
0.0
  0
VERTEX
  5
3330
  8
0
 10
65.2384582917338633
 20
28.0142602412123516
 30
0.0
  0
VERTEX
  5
3331
  8
0
 10
65.1434176102464875
 20
28.0156215622065403
 30
0.0
  0
VERTEX
  5
3332
  8
0
 10
65.0483505793035874
 20
27.9999999999999716
 30
0.0
  0
SEQEND
  5
3333
  8
0
  0
POLYLINE
  5
30F3
  8
0
 66
     1
 10
0.0
 20
0.0
 30
0.0
  0
VERTEX
  5
3334
  8
0
 10
68.0
 20
67.6490402742829673
 30
0.0
  0
VERTEX
  5
3335
  8
0
 10
68.1493152357806764
 20
67.1690294952122287
 30
0.0
  0
VERTEX
  5
3336
  8
0
 10
68.2909755631316671
 20
66.6417411801140531
 30
0.0
  0
VERTEX
  5
3337
  8
0
 10
68.5594420122641992
 20
65.5071768306646618
 30
0.0
  0
VERTEX
  5
3338
  8
0
 10
68.811353108844429
 20
64.3006173677150343
 30
0.0
  0
VERTEX
  5
3339
  8
0
 10
69.0420207835704645
 20
63.0076341356112266
 30
0.0
  0
VERTEX
  5
333A
  8
0
 10
69.250227227321858
 20
61.6382341539714602
 30
0.0
  0
VERTEX
  5
333B
  8
0
 10
69.4363076389877989
 20
60.2032898903918223
 30
0.0
  0
VERTEX
  5
333C
  8
0
 10
69.5955886715772323
 20
58.7043098521255331
 30
0.0
  0
VERTEX
  5
333D
  8
0
 10
69.7218179663071282
 20
57.214561393726278
 30
0.0
  0
SEQEND
  5
333E
  8
0
  0
LINE
  5
3114
  8
0
 10
258.6287520165067235
 20
33.1364782309256469
 30
0.0
 11
259.0002577388065106
 21
31.7500000000002487
 31
0.0
  0
LINE
  5
3115
  8
0
 10
270.4997422611924094
 20
31.7500000000001883
 30
0.0
 11
271.2499999999994884
 21
34.5500000000002032
 31
0.0
  0
LINE
  5
3116
  8
0
 10
270.4997422611924094
 20
31.7500000000001883
 30
0.0
 11
259.0002577388065106
 21
31.7500000000002487
 31
0.0
  0
LINE
  5
3117
  8
0
 10
271.2499999999994884
 20
34.5500000000002032
 30
0.0
 11
271.2499999999994884
 21
36.0000000000000213
 31
0.0
  0
LINE
  5
3118
  8
0
 10
271.2499999999994884
 20
34.5500000000002032
 30
0.0
 11
260.1619762482259262
 21
34.5500000000002174
 31
0.0
  0
LINE
  5
3119
  8
0
 10
264.7499999999994884
 20
35.1305565836009634
 30
0.0
 11
264.7499999999994884
 21
36.0000000000000071
 31
0.0
  0
ARC
  5
311A
  8
0
 10
267.9999999999994884
 20
43.9512427409179196
 30
0.0
 40
9.4003725610149864
 50
249.7735762333495018
 51
290.2264237666503846
  0
ARC
  5
311B
  8
0
 10
261.4999999999994884
 20
43.9512427409179196
 30
0.0
 40
9.4003725610149864
 50
262.3299417157429048
 51
290.2264237666503846
  0
LINE
  5
3138
  8
3
 10
261.5169999999994275
 20
51.9999999999999432
 30
0.0
 11
261.5169999999994275
 21
47.9999999999999574
 31
0.0
  0
LINE
  5
3139
  8
3
 10
267.9829999999993788
 20
52.0
 30
0.0
 11
267.9829999999993788
 21
48.0
 31
0.0
  0
POLYLINE
  5
315F
  8
0
 66
     1
 10
0.0
 20
0.0
 30
0.0
  0
VERTEX
  5
333F
  8
0
 10
159.1231987461270876
 20
135.9999998132570056
 30
0.0
  0
VERTEX
  5
3340
  8
0
 10
159.3127676442047118
 20
135.4468113434728025
 30
0.0
  0
VERTEX
  5
3341
  8
0
 10
159.5045979342698104
 20
134.9015061835989115
 30
0.0
  0
VERTEX
  5
3342
  8
0
 10
159.700951008309687
 20
134.3719676435457018
 30
0.0
  0
VERTEX
  5
3343
  8
0
 10
159.9040246064232065
 20
133.8658950936832071
 30
0.0
  0
VERTEX
  5
3344
  8
0
 10
160.114475677976202
 20
133.3865353681617876
 30
0.0
  0
VERTEX
  5
3345
  8
0
 10
160.3313764688103902
 20
132.9325558668940062
 30
0.0
  0
VERTEX
  5
3346
  8
0
 10
160.5537267881468892
 20
132.5024146643652045
 30
0.0
  0
VERTEX
  5
3347
  8
0
 10
160.7806609615882962
 20
132.0949410144773992
 30
0.0
  0
VERTEX
  5
3348
  8
0
 10
161.0119000793833095
 20
131.7105832673103123
 30
0.0
  0
VERTEX
  5
3349
  8
0
 10
161.2473251798066087
 20
131.350231127477997
 30
0.0
  0
VERTEX
  5
334A
  8
0
 10
161.4868137881830137
 20
131.0147617070973922
 30
0.0
  0
VERTEX
  5
334B
  8
0
 10
161.7301375722524028
 20
130.7046727496723975
 30
0.0
  0
VERTEX
  5
334C
  8
0
 10
161.9769462675409102
 20
130.4200250224151034
 30
0.0
  0
VERTEX
  5
334D
  8
0
 10
162.2268828580102991
 20
130.1608550965233064
 30
0.0
  0
VERTEX
  5
334E
  8
0
 10
162.4795983599360056
 20
129.9272312910406129
 30
0.0
  0
VERTEX
  5
334F
  8
0
 10
162.7347870983662119
 20
129.7193931036125036
 30
0.0
  0
VERTEX
  5
3350
  8
0
 10
162.9921579298830068
 20
129.5376374680012077
 30
0.0
  0
VERTEX
  5
3351
  8
0
 10
163.2514198406560979
 20
129.3822571593788098
 30
0.0
  0
VERTEX
  5
3352
  8
0
 10
163.5122873901630101
 20
129.2533481212014976
 30
0.0
  0
VERTEX
  5
3353
  8
0
 10
163.7744829806368045
 20
129.1507293154645026
 30
0.0
  0
VERTEX
  5
3354
  8
0
 10
164.0377296038111865
 20
129.074198884861687
 30
0.0
  0
VERTEX
  5
3355
  8
0
 10
164.3017371204765027
 20
129.023677492002605
 30
0.0
  0
VERTEX
  5
3356
  8
0
 10
164.5661360132079949
 20
128.9998264479067132
 30
0.0
  0
VERTEX
  5
3357
  8
0
 10
164.8305270883558933
 20
129.0035839613420023
 30
0.0
  0
VERTEX
  5
3358
  8
0
 10
165.0945153811915986
 20
129.0358492877822982
 30
0.0
  0
VERTEX
  5
3359
  8
0
 10
165.357900629949512
 20
129.0957279617722122
 30
0.0
  0
VERTEX
  5
335A
  8
0
 10
165.6207532115672052
 20
129.1798322311666141
 30
0.0
  0
VERTEX
  5
335B
  8
0
 10
165.8831634886944073
 20
129.2845902234091966
 30
0.0
  0
VERTEX
  5
335C
  8
0
 10
166.1450024754188064
 20
129.408406932276705
 30
0.0
  0
VERTEX
  5
335D
  8
0
 10
166.2753159636878877
 20
129.4801314069866862
 30
0.0
  0
VERTEX
  5
335E
  8
0
 10
166.4049339543541919
 20
129.5605674559814986
 30
0.0
  0
VERTEX
  5
335F
  8
0
 10
166.5336377362328051
 20
129.6513415157309055
 30
0.0
  0
VERTEX
  5
3360
  8
0
 10
166.6612085981383871
 20
129.7540800227043007
 30
0.0
  0
VERTEX
  5
3361
  8
0
 10
166.7874278288859102
 20
129.8704094133713056
 30
0.0
  0
VERTEX
  5
3362
  8
0
 10
166.9122844863159116
 20
130.0
 30
0.0
  0
SEQEND
  5
3363
  8
0
  0
POLYLINE
  5
3161
  8
0
 66
     1
 10
0.0
 20
0.0
 30
0.0
  0
VERTEX
  5
3364
  8
0
 10
166.9232157462942894
 20
170.0
 30
0.0
  0
VERTEX
  5
3365
  8
0
 10
166.7982536084197989
 20
170.1297995250803865
 30
0.0
  0
VERTEX
  5
3366
  8
0
 10
166.6717092045066124
 20
170.244535555494906
 30
0.0
  0
VERTEX
  5
3367
  8
0
 10
166.543784527352301
 20
170.3456295217806939
 30
0.0
  0
VERTEX
  5
3368
  8
0
 10
166.4147223191804983
 20
170.4348793420286938
 30
0.0
  0
VERTEX
  5
3369
  8
0
 10
166.2847653222148949
 20
170.5140829343297071
 30
0.0
  0
VERTEX
  5
336A
  8
0
 10
166.1541562786790962
 20
170.5850382167747057
 30
0.0
  0
VERTEX
  5
336B
  8
0
 10
165.8919448429001875
 20
170.7093234260553913
 30
0.0
  0
VERTEX
  5
336C
  8
0
 10
165.6293161831422083
 20
170.8158255653216884
 30
0.0
  0
VERTEX
  5
336D
  8
0
 10
165.3662591859344104
 20
170.901709376215706
 30
0.0
  0
VERTEX
  5
336E
  8
0
 10
165.1026370857453003
 20
170.9630318194411984
 30
0.0
  0
VERTEX
  5
336F
  8
0
 10
164.8383480519096906
 20
170.9961666869110104
 30
0.0
  0
VERTEX
  5
3370
  8
0
 10
164.5736220329679043
 20
171.0004967417700925
 30
0.0
  0
VERTEX
  5
3371
  8
0
 10
164.3088723147033079
 20
170.9770674688755889
 30
0.0
  0
VERTEX
  5
3372
  8
0
 10
164.044513986020803
 20
170.9269407339774887
 30
0.0
  0
VERTEX
  5
3373
  8
0
 10
163.7809237035457954
 20
170.8508382721624912
 30
0.0
  0
VERTEX
  5
3374
  8
0
 10
163.5183860151780095
 20
170.7486666443357137
 30
0.0
  0
VERTEX
  5
3375
  8
0
 10
163.2571719563985937
 20
170.6202128247456073
 30
0.0
  0
VERTEX
  5
3376
  8
0
 10
162.9975536873652118
 20
170.4652837649948083
 30
0.0
  0
VERTEX
  5
3377
  8
0
 10
162.7398181898888936
 20
170.2839496901096084
 30
0.0
  0
VERTEX
  5
3378
  8
0
 10
162.4842629090325943
 20
170.0764666813221027
 30
0.0
  0
VERTEX
  5
3379
  8
0
 10
162.231185516504496
 20
169.8430946995264037
 30
0.0
  0
VERTEX
  5
337A
  8
0
 10
161.9808954647986923
 20
169.5840540433910917
 30
0.0
  0
VERTEX
  5
337B
  8
0
 10
161.7337381139643071
 20
169.2994441220720887
 30
0.0
  0
VERTEX
  5
337C
  8
0
 10
161.4900656408289876
 20
168.9893413947606007
 30
0.0
  0
VERTEX
  5
337D
  8
0
 10
161.2502241645786114
 20
168.6538431946407002
 30
0.0
  0
VERTEX
  5
337E
  8
0
 10
161.0144460899286116
 20
168.2934387028988112
 30
0.0
  0
VERTEX
  5
337F
  8
0
 10
160.7828627424447916
 20
167.908965408750106
 30
0.0
  0
VERTEX
  5
3380
  8
0
 10
160.5556019290027052
 20
167.5012729270906107
 30
0.0
  0
VERTEX
  5
3381
  8
0
 10
160.3329445976700924
 20
167.0707942683729073
 30
0.0
  0
VERTEX
  5
3382
  8
0
 10
160.1157515048217874
 20
166.6163851357725036
 30
0.0
  0
VERTEX
  5
3383
  8
0
 10
159.9050206032464132
 20
166.1365280041079018
 30
0.0
  0
VERTEX
  5
3384
  8
0
 10
159.7016787810678125
 20
165.6299103494895064
 30
0.0
  0
VERTEX
  5
3385
  8
0
 10
159.5050734422852088
 20
165.0997760092955104
 30
0.0
  0
VERTEX
  5
3386
  8
0
 10
159.3130024729294973
 20
164.5538387383573991
 30
0.0
  0
VERTEX
  5
3387
  8
0
 10
159.1231986882872036
 20
164.0000000020471873
 30
0.0
  0
SEQEND
  5
3388
  8
0
  0
LINE
  5
3162
  8
0
 10
164.5680088735541915
 20
170.9999999999998863
 30
0.0
 11
132.4999999999992895
 21
170.9999999999996874
 31
0.0
  0
POLYLINE
  5
3164
  8
0
 66
     1
 10
0.0
 20
0.0
 30
0.0
  0
VERTEX
  5
3389
  8
0
 10
231.6547678584067
 20
158.9999993761892085
 30
0.0
  0
VERTEX
  5
338A
  8
0
 10
230.8423394880780961
 20
160.1221425640455891
 30
0.0
  0
VERTEX
  5
338B
  8
0
 10
230.4344590294566046
 20
160.6703536040944016
 30
0.0
  0
VERTEX
  5
338C
  8
0
 10
230.0253071913041936
 20
161.2051673333320139
 30
0.0
  0
VERTEX
  5
338D
  8
0
 10
229.6164229963368086
 20
161.7276045329656995
 30
0.0
  0
VERTEX
  5
338E
  8
0
 10
229.2095006272845978
 20
162.2391379762322003
 30
0.0
  0
VERTEX
  5
338F
  8
0
 10
228.8057256316299117
 20
162.7401879283877122
 30
0.0
  0
VERTEX
  5
3390
  8
0
 10
228.4058112860566041
 20
163.2301973948821967
 30
0.0
  0
VERTEX
  5
3391
  8
0
 10
228.0104881711907865
 20
163.7085978475489014
 30
0.0
  0
VERTEX
  5
3392
  8
0
 10
227.620685652098814
 20
164.1749647632229028
 30
0.0
  0
VERTEX
  5
3393
  8
0
 10
227.2374028027541044
 20
164.6289241178185989
 30
0.0
  0
VERTEX
  5
3394
  8
0
 10
226.8616387723230901
 20
165.0701019417226973
 30
0.0
  0
VERTEX
  5
3395
  8
0
 10
226.4943937851693931
 20
165.4980721718235088
 30
0.0
  0
VERTEX
  5
3396
  8
0
 10
226.1366733434165894
 20
165.9121530366637955
 30
0.0
  0
VERTEX
  5
3397
  8
0
 10
225.7894845659340035
 20
166.3115844331815083
 30
0.0
  0
VERTEX
  5
3398
  8
0
 10
225.4538345720096117
 20
166.6956062380309902
 30
0.0
  0
VERTEX
  5
3399
  8
0
 10
225.1307284963826874
 20
167.0634363950927934
 30
0.0
  0
VERTEX
  5
339A
  8
0
 10
224.8211630001831054
 20
167.4141991998511969
 30
0.0
  0
VERTEX
  5
339B
  8
0
 10
224.5261333380078099
 20
167.7469937184729929
 30
0.0
  0
VERTEX
  5
339C
  8
0
 10
224.2466872224798919
 20
168.0609043184475127
 30
0.0
  0
VERTEX
  5
339D
  8
0
 10
223.9839543621783946
 20
168.3549923924796872
 30
0.0
  0
VERTEX
  5
339E
  8
0
 10
223.7390789355931133
 20
168.6282977190655004
 30
0.0
  0
VERTEX
  5
339F
  8
0
 10
223.5132861937468931
 20
168.8796432934888969
 30
0.0
  0
VERTEX
  5
33A0
  8
0
 10
223.3078517538448864
 20
169.1077174223732982
 30
0.0
  0
VERTEX
  5
33A1
  8
0
 10
223.1238474951119031
 20
169.3114645760689996
 30
0.0
  0
VERTEX
  5
33A2
  8
0
 10
222.9616116596484972
 20
169.490755488323714
 30
0.0
  0
VERTEX
  5
33A3
  8
0
 10
222.8213555845603082
 20
169.6456240557812123
 30
0.0
  0
VERTEX
  5
33A4
  8
0
 10
222.704830358466495
 20
169.7742805769215124
 30
0.0
  0
VERTEX
  5
33A5
  8
0
 10
222.6566450691773014
 20
169.8274726686281042
 30
0.0
  0
VERTEX
  5
33A6
  8
0
 10
222.6158347451302006
 20
169.8725101948674876
 30
0.0
  0
VERTEX
  5
33A7
  8
0
 10
222.5828632313055095
 20
169.9088771283057895
 30
0.0
  0
VERTEX
  5
33A8
  8
0
 10
222.557314423865904
 20
169.9370322354909888
 30
0.0
  0
VERTEX
  5
33A9
  8
0
 10
222.5226731044803046
 20
169.975136472976402
 30
0.0
  0
VERTEX
  5
33AA
  8
0
 10
222.4999999999994031
 20
170.0
 30
0.0
  0
SEQEND
  5
33AB
  8
0
  0
POLYLINE
  5
3165
  8
0
 66
     1
 10
0.0
 20
0.0
 30
0.0
  0
VERTEX
  5
33AC
  8
0
 10
231.6547674198278912
 20
140.9999999987072954
 30
0.0
  0
VERTEX
  5
33AD
  8
0
 10
232.3198227296871892
 20
141.9834782586787867
 30
0.0
  0
VERTEX
  5
33AE
  8
0
 10
232.6463447876114969
 20
142.4832788990999006
 30
0.0
  0
VERTEX
  5
33AF
  8
0
 10
232.9656606210618008
 20
142.9927503600623027
 30
0.0
  0
VERTEX
  5
33B0
  8
0
 10
233.2755231477339066
 20
143.5141728781491111
 30
0.0
  0
VERTEX
  5
33B1
  8
0
 10
233.5740592249298118
 20
144.0475506865284103
 30
0.0
  0
VERTEX
  5
33B2
  8
0
 10
233.8594511047598985
 20
144.5925508549049994
 30
0.0
  0
VERTEX
  5
33B3
  8
0
 10
234.1298670343225012
 20
145.1488474286514929
 30
0.0
  0
VERTEX
  5
33B4
  8
0
 10
234.3827131649020998
 20
145.7164940406065909
 30
0.0
  0
VERTEX
  5
33B5
  8
0
 10
234.6142572985866934
 20
146.2961113167349083
 30
0.0
  0
VERTEX
  5
33B6
  8
0
 10
234.8206627853822113
 20
146.8883170744229858
 30
0.0
  0
VERTEX
  5
33B7
  8
0
 10
234.9978706520396941
 20
147.4927683571397949
 30
0.0
  0
VERTEX
  5
33B8
  8
0
 10
235.1416194903416965
 20
148.1082473820223981
 30
0.0
  0
VERTEX
  5
33B9
  8
0
 10
235.2477443832459869
 20
148.7333576638691
 30
0.0
  0
VERTEX
  5
33BA
  8
0
 10
235.2856655160047978
 20
149.0487077693470042
 30
0.0
  0
VERTEX
  5
33BB
  8
0
 10
235.3130456460353059
 20
149.3653389439481032
 30
0.0
  0
VERTEX
  5
33BC
  8
0
 10
235.3295509808154975
 20
149.6828126666891876
 30
0.0
  0
VERTEX
  5
33BD
  8
0
 10
235.3348477278244957
 20
150.0006904165869912
 30
0.0
  0
VERTEX
  5
33BE
  8
0
 10
235.3287237559005973
 20
150.3185376165774016
 30
0.0
  0
VERTEX
  5
33BF
  8
0
 10
235.3114504192814991
 20
150.6359353628322992
 30
0.0
  0
VERTEX
  5
33C0
  8
0
 10
235.2450214147633005
 20
151.267722450285504
 30
0.0
  0
VERTEX
  5
33C1
  8
0
 10
235.1386947185409042
 20
151.8927409425392057
 30
0.0
  0
VERTEX
  5
33C2
  8
0
 10
234.9957894829003067
 20
152.5083786150352978
 30
0.0
  0
VERTEX
  5
33C3
  8
0
 10
234.8199350129279139
 20
153.1131933632748883
 30
0.0
  0
VERTEX
  5
33C4
  8
0
 10
234.6147925546372903
 20
153.7059071683233071
 30
0.0
  0
VERTEX
  5
33C5
  8
0
 10
234.3840582644290009
 20
154.2860195174071976
 30
0.0
  0
VERTEX
  5
33C6
  8
0
 10
234.1314549994723109
 20
154.8536245635073101
 30
0.0
  0
VERTEX
  5
33C7
  8
0
 10
233.8605669465331971
 20
155.4089116440063947
 30
0.0
  0
VERTEX
  5
33C8
  8
0
 10
233.5742034697161955
 20
155.9525155311345941
 30
0.0
  0
VERTEX
  5
33C9
  8
0
 10
233.2749054658000034
 20
156.4852240692707142
 30
0.0
  0
VERTEX
  5
33CA
  8
0
 10
232.9649740280557069
 20
157.0075438892517923
 30
0.0
  0
VERTEX
  5
33CB
  8
0
 10
232.6461255945864934
 20
157.5192949170395025
 30
0.0
  0
VERTEX
  5
33CC
  8
0
 10
232.3200038545373047
 20
158.0202662569475933
 30
0.0
  0
VERTEX
  5
33CD
  8
0
 10
231.6547678584067
 20
158.9999993761892085
 30
0.0
  0
SEQEND
  5
33CE
  8
0
  0
POLYLINE
  5
3166
  8
0
 66
     1
 10
0.0
 20
0.0
 30
0.0
  0
VERTEX
  5
33CF
  8
0
 10
222.4999999999992895
 20
130.0
 30
0.0
  0
VERTEX
  5
33D0
  8
0
 10
222.5223170867494957
 20
130.0245411699735882
 30
0.0
  0
VERTEX
  5
33D1
  8
0
 10
222.5568356383521973
 20
130.0625276936688977
 30
0.0
  0
VERTEX
  5
33D2
  8
0
 10
222.5824834212396865
 20
130.0907646362003902
 30
0.0
  0
VERTEX
  5
33D3
  8
0
 10
222.615665183646513
 20
130.1273041197106863
 30
0.0
  0
VERTEX
  5
33D4
  8
0
 10
222.6566695060452901
 20
130.17247091550351
 30
0.0
  0
VERTEX
  5
33D5
  8
0
 10
222.7050087541676078
 20
130.2257386985660901
 30
0.0
  0
VERTEX
  5
33D6
  8
0
 10
222.8216825214744006
 20
130.3544072686611912
 30
0.0
  0
VERTEX
  5
33D7
  8
0
 10
222.9618524278857876
 20
130.5091765531199997
 30
0.0
  0
VERTEX
  5
33D8
  8
0
 10
223.1239213462071973
 20
130.6884124656588142
 30
0.0
  0
VERTEX
  5
33D9
  8
0
 10
223.307777661872592
 20
130.8921405957015907
 30
0.0
  0
VERTEX
  5
33DA
  8
0
 10
223.5131386277830927
 20
131.1201987055464997
 30
0.0
  0
VERTEX
  5
33DB
  8
0
 10
223.7388969166844106
 20
131.3715173433569134
 30
0.0
  0
VERTEX
  5
33DC
  8
0
 10
223.9837316045939986
 20
131.644792582807014
 30
0.0
  0
VERTEX
  5
33DD
  8
0
 10
224.2464051350368095
 20
131.9388497213977871
 30
0.0
  0
VERTEX
  5
33DE
  8
0
 10
224.525817265824287
 20
132.2527269002885077
 30
0.0
  0
VERTEX
  5
33DF
  8
0
 10
224.8208823502058067
 20
132.5854829191366093
 30
0.0
  0
VERTEX
  5
33E0
  8
0
 10
225.1305382693813044
 20
132.9361871311122059
 30
0.0
  0
VERTEX
  5
33E1
  8
0
 10
225.4537395222006921
 20
133.3039163432690088
 30
0.0
  0
VERTEX
  5
33E2
  8
0
 10
225.7894425803621914
 20
133.6877853346803988
 30
0.0
  0
VERTEX
  5
33E3
  8
0
 10
226.1366112974521059
 20
134.0870808312849078
 30
0.0
  0
VERTEX
  5
33E4
  8
0
 10
226.4942116240897008
 20
134.501138405372501
 30
0.0
  0
VERTEX
  5
33E5
  8
0
 10
226.8612095110381972
 20
134.929293632584006
 30
0.0
  0
VERTEX
  5
33E6
  8
0
 10
227.2366048943034968
 20
135.3708760441963079
 30
0.0
  0
VERTEX
  5
33E7
  8
0
 10
227.6195519423862947
 20
135.8251877408330017
 30
0.0
  0
VERTEX
  5
33E8
  8
0
 10
228.0092485538245057
 20
136.2915230456162021
 30
0.0
  0
VERTEX
  5
33E9
  8
0
 10
228.4048926300280016
 20
136.7691762811573142
 30
0.0
  0
VERTEX
  5
33EA
  8
0
 10
228.8055915793800921
 20
137.2576896987881128
 30
0.0
  0
VERTEX
  5
33EB
  8
0
 10
229.2100695568067863
 20
137.757655570412112
 30
0.0
  0
VERTEX
  5
33EC
  8
0
 10
229.6169492744213869
 20
138.2699440963845063
 30
0.0
  0
VERTEX
  5
33ED
  8
0
 10
230.0248534436759087
 20
138.7954254788733124
 30
0.0
  0
VERTEX
  5
33EE
  8
0
 10
230.4326461621934072
 20
139.3342474953786905
 30
0.0
  0
VERTEX
  5
33EF
  8
0
 10
230.8401695454496121
 20
139.8836308948235114
 30
0.0
  0
VERTEX
  5
33F0
  8
0
 10
231.6547674198278912
 20
140.9999999987072954
 30
0.0
  0
SEQEND
  5
33F1
  8
0
  0
POLYLINE
  5
3167
  8
0
 66
     1
 10
0.0
 20
0.0
 30
0.0
  0
VERTEX
  5
33F2
  8
0
 10
261.4705618137223837
 20
138.7714404079493136
 30
0.0
  0
VERTEX
  5
33F3
  8
0
 10
260.9106857157383956
 20
138.6454242665147945
 30
0.0
  0
VERTEX
  5
33F4
  8
0
 10
260.6274228915260096
 20
138.5816678599676095
 30
0.0
  0
VERTEX
  5
33F5
  8
0
 10
260.3401703370490736
 20
138.5170134504245993
 30
0.0
  0
VERTEX
  5
33F6
  8
0
 10
260.0475981422194991
 20
138.4511617035537938
 30
0.0
  0
VERTEX
  5
33F7
  8
0
 10
259.7484376752133244
 20
138.3838270774506043
 30
0.0
  0
VERTEX
  5
33F8
  8
0
 10
259.442396372535427
 20
138.3149437223262908
 30
0.0
  0
VERTEX
  5
33F9
  8
0
 10
259.1299645076808247
 20
138.2446219882641003
 30
0.0
  0
VERTEX
  5
33FA
  8
0
 10
258.8116543955840143
 20
138.1729771864044096
 30
0.0
  0
VERTEX
  5
33FB
  8
0
 10
258.4879783511801179
 20
138.1001246278875954
 30
0.0
  0
VERTEX
  5
33FC
  8
0
 10
258.1594478423866121
 20
138.0261794332083127
 30
0.0
  0
VERTEX
  5
33FD
  8
0
 10
257.8264307532814996
 20
137.9512244052085919
 30
0.0
  0
VERTEX
  5
33FE
  8
0
 10
257.488990703922525
 20
137.8752738634032937
 30
0.0
  0
VERTEX
  5
33FF
  8
0
 10
257.1471525290330078
 20
137.7983333975579114
 30
0.0
  0
VERTEX
  5
3400
  8
0
 10
256.8009410633367224
 20
137.7204085974377108
 30
0.0
  0
VERTEX
  5
3401
  8
0
 10
256.4503811415572159
 20
137.6415050528082986
 30
0.0
  0
VERTEX
  5
3402
  8
0
 10
256.0955135984931985
 20
137.5616319547098101
 30
0.0
  0
VERTEX
  5
3403
  8
0
 10
255.7364699925645937
 20
137.4808189141303103
 30
0.0
  0
VERTEX
  5
3404
  8
0
 10
255.3734138201459984
 20
137.3991027306086892
 30
0.0
  0
VERTEX
  5
3405
  8
0
 10
255.0065086131588998
 20
137.3165202116848889
 30
0.0
  0
VERTEX
  5
3406
  8
0
 10
254.6359179035252112
 20
137.2331081648987094
 30
0.0
  0
VERTEX
  5
3407
  8
0
 10
254.2618042008502073
 20
137.148903167688303
 30
0.0
  0
VERTEX
  5
3408
  8
0
 10
253.884312621945412
 20
137.0639378827459893
 30
0.0
  0
VERTEX
  5
3409
  8
0
 10
253.5035737345392874
 20
136.9782416980762889
 30
0.0
  0
VERTEX
  5
340A
  8
0
 10
253.1197176584751105
 20
136.8918439008743917
 30
0.0
  0
VERTEX
  5
340B
  8
0
 10
252.7328745135959025
 20
136.8047737783354023
 30
0.0
  0
VERTEX
  5
340C
  8
0
 10
251.9507512733939052
 20
136.6287345560656945
 30
0.0
  0
VERTEX
  5
340D
  8
0
 10
251.1582992715283069
 20
136.4503705503387039
 30
0.0
  0
VERTEX
  5
340E
  8
0
 10
250.3566498063138965
 20
136.2699363922220925
 30
0.0
  0
VERTEX
  5
340F
  8
0
 10
249.5469337228097118
 20
136.0876866107647913
 30
0.0
  0
VERTEX
  5
3410
  8
0
 10
248.7302765014941031
 20
135.903874527563886
 30
0.0
  0
VERTEX
  5
3411
  8
0
 10
247.9078022423549044
 20
135.7187531534970901
 30
0.0
  0
VERTEX
  5
3412
  8
0
 10
247.0806411118811923
 20
135.5325768648820883
 30
0.0
  0
VERTEX
  5
3413
  8
0
 10
245.4168206384970858
 20
135.1580864430715962
 30
0.0
  0
VERTEX
  5
3414
  8
0
 10
243.7479637639860925
 20
134.7824624350282079
 30
0.0
  0
VERTEX
  5
3415
  8
0
 10
242.0832403068372969
 20
134.4077687708750091
 30
0.0
  0
VERTEX
  5
3416
  8
0
 10
241.2552801085105898
 20
134.2214126291675029
 30
0.0
  0
VERTEX
  5
3417
  8
0
 10
240.4317678762394053
 20
134.0360576295369981
 30
0.0
  0
VERTEX
  5
3418
  8
0
 10
239.6138282476420898
 20
133.8519569038703878
 30
0.0
  0
VERTEX
  5
3419
  8
0
 10
238.8025849279208899
 20
133.6693633741876965
 30
0.0
  0
VERTEX
  5
341A
  8
0
 10
237.9991703255006996
 20
133.488531921418712
 30
0.0
  0
VERTEX
  5
341B
  8
0
 10
237.2047264768771981
 20
133.3097195935652906
 30
0.0
  0
VERTEX
  5
341C
  8
0
 10
236.4203938372509981
 20
133.133183082714595
 30
0.0
  0
VERTEX
  5
341D
  8
0
 10
236.0323704383006884
 20
133.0458473102139862
 30
0.0
  0
VERTEX
  5
341E
  8
0
 10
235.6472943847323052
 20
132.9591749221548014
 30
0.0
  0
VERTEX
  5
341F
  8
0
 10
235.2653047039347882
 20
132.8731972106303942
 30
0.0
  0
VERTEX
  5
3420
  8
0
 10
234.8865404217883963
 20
132.7879454673943087
 30
0.0
  0
VERTEX
  5
3421
  8
0
 10
234.511139433776691
 20
132.7034507297724133
 30
0.0
  0
VERTEX
  5
3422
  8
0
 10
234.1392364985507015
 20
132.619743329056206
 30
0.0
  0
VERTEX
  5
3423
  8
0
 10
233.7709658350730137
 20
132.5368534750651008
 30
0.0
  0
VERTEX
  5
3424
  8
0
 10
233.406461662305901
 20
132.4548113776183982
 30
0.0
  0
VERTEX
  5
3425
  8
0
 10
233.0458581992120912
 20
132.3736472465353131
 30
0.0
  0
VERTEX
  5
3426
  8
0
 10
232.6892891631258067
 20
132.2933911787295926
 30
0.0
  0
VERTEX
  5
3427
  8
0
 10
232.3368847190521933
 20
132.2140724715611952
 30
0.0
  0
VERTEX
  5
3428
  8
0
 10
231.9887734985296106
 20
132.1357200772399096
 30
0.0
  0
VERTEX
  5
3429
  8
0
 10
231.6450841270358012
 20
132.058362946611112
 30
0.0
  0
VERTEX
  5
342A
  8
0
 10
231.305945230048394
 20
131.9820300305202068
 30
0.0
  0
VERTEX
  5
342B
  8
0
 10
230.9714852750562102
 20
131.9067502442526916
 30
0.0
  0
VERTEX
  5
342C
  8
0
 10
230.6418297447243901
 20
131.8325518312742872
 30
0.0
  0
VERTEX
  5
342D
  8
0
 10
230.3171014582711962
 20
131.7594624355654105
 30
0.0
  0
VERTEX
  5
342E
  8
0
 10
229.9974231414632015
 20
131.6875096800727079
 30
0.0
  0
VERTEX
  5
342F
  8
0
 10
229.6829175200670932
 20
131.6167211877429111
 30
0.0
  0
VERTEX
  5
3430
  8
0
 10
229.3737072918858928
 20
131.5471245752283949
 30
0.0
  0
VERTEX
  5
3431
  8
0
 10
229.0699130284394016
 20
131.478746980601187
 30
0.0
  0
VERTEX
  5
3432
  8
0
 10
228.7716517179449909
 20
131.4116147354077953
 30
0.0
  0
VERTEX
  5
3433
  8
0
 10
228.4790400041324006
 20
131.3457540936587122
 30
0.0
  0
VERTEX
  5
3434
  8
0
 10
228.1921945307317117
 20
131.2811913093640044
 30
0.0
  0
VERTEX
  5
3435
  8
0
 10
227.9112319408014002
 20
131.2179526363827051
 30
0.0
  0
VERTEX
  5
3436
  8
0
 10
227.6362670771331125
 20
131.1560639233721872
 30
0.0
  0
VERTEX
  5
3437
  8
0
 10
227.3674090680258075
 20
131.0955497327798867
 30
0.0
  0
VERTEX
  5
3438
  8
0
 10
227.1047659105340131
 20
131.0364343724342007
 30
0.0
  0
VERTEX
  5
3439
  8
0
 10
226.848445601712001
 20
130.9787421501632991
 30
0.0
  0
VERTEX
  5
343A
  8
0
 10
226.5985561386144127
 20
130.9224973737956077
 30
0.0
  0
VERTEX
  5
343B
  8
0
 10
226.3552048262311018
 20
130.8677241953905934
 30
0.0
  0
VERTEX
  5
343C
  8
0
 10
226.1184947142122894
 20
130.8144458092216951
 30
0.0
  0
VERTEX
  5
343D
  8
0
 10
225.8885272360010958
 20
130.7626850457886007
 30
0.0
  0
VERTEX
  5
343E
  8
0
 10
225.665403821927697
 20
130.7124647348902897
 30
0.0
  0
VERTEX
  5
343F
  8
0
 10
225.4492259023226097
 20
130.663807706326196
 30
0.0
  0
VERTEX
  5
3440
  8
0
 10
225.2400937347445051
 20
130.6167365259294115
 30
0.0
  0
VERTEX
  5
3441
  8
0
 10
225.0380920805307028
 20
130.5712702716652132
 30
0.0
  0
VERTEX
  5
3442
  8
0
 10
224.8432947413998875
 20
130.5274255547226971
 30
0.0
  0
VERTEX
  5
3443
  8
0
 10
224.6557752878823919
 20
130.485218934255613
 30
0.0
  0
VERTEX
  5
3444
  8
0
 10
224.475607290508492
 20
130.4446669694177103
 30
0.0
  0
VERTEX
  5
3445
  8
0
 10
224.3028646129330923
 20
130.4057862853387064
 30
0.0
  0
VERTEX
  5
3446
  8
0
 10
224.1376336207036957
 20
130.3685963210571117
 30
0.0
  0
VERTEX
  5
3447
  8
0
 10
223.9800175906817117
 20
130.333120321986712
 30
0.0
  0
VERTEX
  5
3448
  8
0
 10
223.8301210000450112
 20
130.2993818037070071
 30
0.0
  0
VERTEX
  5
3449
  8
0
 10
223.6880483259718062
 20
130.2674042817972975
 30
0.0
  0
VERTEX
  5
344A
  8
0
 10
223.5539040116759963
 20
130.2372112641924105
 30
0.0
  0
VERTEX
  5
344B
  8
0
 10
223.4277460913326934
 20
130.2088158131448097
 30
0.0
  0
VERTEX
  5
344C
  8
0
 10
223.3094942708553958
 20
130.1821998561717919
 30
0.0
  0
VERTEX
  5
344D
  8
0
 10
223.1990425982349109
 20
130.1573395457409958
 30
0.0
  0
VERTEX
  5
344E
  8
0
 10
223.0962851214617899
 20
130.1342110343202023
 30
0.0
  0
VERTEX
  5
344F
  8
0
 10
223.0011158885270959
 20
130.1127904743767942
 30
0.0
  0
VERTEX
  5
3450
  8
0
 10
222.9134776082302949
 20
130.0930649708865019
 30
0.0
  0
VERTEX
  5
3451
  8
0
 10
222.8337300056778929
 20
130.0751154902808082
 30
0.0
  0
VERTEX
  5
3452
  8
0
 10
222.762444795230607
 20
130.0590707132413115
 30
0.0
  0
VERTEX
  5
3453
  8
0
 10
222.7001953633782989
 20
130.0450596968096875
 30
0.0
  0
VERTEX
  5
3454
  8
0
 10
222.6475550966106027
 20
130.0332114980278106
 30
0.0
  0
VERTEX
  5
3455
  8
0
 10
222.6050749622625062
 20
130.0236501278648973
 30
0.0
  0
VERTEX
  5
3456
  8
0
 10
222.5722956888862996
 20
130.016272214135796
 30
0.0
  0
VERTEX
  5
3457
  8
0
 10
222.5473592694590934
 20
130.0106595591774976
 30
0.0
  0
VERTEX
  5
3458
  8
0
 10
222.5283049904936945
 20
130.0063708482971947
 30
0.0
  0
VERTEX
  5
3459
  8
0
 10
222.4999999999992895
 20
130.0
 30
0.0
  0
SEQEND
  5
345A
  8
0
  0
POLYLINE
  5
3168
  8
0
 66
     1
 10
0.0
 20
0.0
 30
0.0
  0
VERTEX
  5
345B
  8
0
 10
222.4999999999992895
 20
170.0
 30
0.0
  0
VERTEX
  5
345C
  8
0
 10
222.5282230882021111
 20
169.9936475861578913
 30
0.0
  0
VERTEX
  5
345D
  8
0
 10
222.5472298214044997
 20
169.9893695768124928
 30
0.0
  0
VERTEX
  5
345E
  8
0
 10
222.5721107815280106
 20
169.9837694045579042
 30
0.0
  0
VERTEX
  5
345F
  8
0
 10
222.6048240442131885
 20
169.9764063484242911
 30
0.0
  0
VERTEX
  5
3460
  8
0
 10
222.6472212302402909
 20
169.9668636481553108
 30
0.0
  0
VERTEX
  5
3461
  8
0
 10
222.6997516761082068
 20
169.9550401677103935
 30
0.0
  0
VERTEX
  5
3462
  8
0
 10
222.7618751011588927
 20
169.9410575127162133
 30
0.0
  0
VERTEX
  5
3463
  8
0
 10
222.8330304591721926
 20
169.9250419626837925
 30
0.0
  0
VERTEX
  5
3464
  8
0
 10
222.9126567039276949
 20
169.9071197971240963
 30
0.0
  0
VERTEX
  5
3465
  8
0
 10
223.0001968029114892
 20
169.8874163921483955
 30
0.0
  0
VERTEX
  5
3466
  8
0
 10
223.0953360897784137
 20
169.8660025724248044
 30
0.0
  0
VERTEX
  5
3467
  8
0
 10
223.1981364561218015
 20
169.842864407478487
 30
0.0
  0
VERTEX
  5
3468
  8
0
 10
223.3086922899047977
 20
169.8179806525967024
 30
0.0
  0
VERTEX
  5
3469
  8
0
 10
223.4270979790902913
 20
169.7913300630665958
 30
0.0
  0
VERTEX
  5
346A
  8
0
 10
223.5534478963203071
 20
169.7628913976240028
 30
0.0
  0
VERTEX
  5
346B
  8
0
 10
223.6877943162517965
 20
169.732652890360896
 30
0.0
  0
VERTEX
  5
346C
  8
0
 10
223.830055614293201
 20
169.7006329132281053
 30
0.0
  0
VERTEX
  5
346D
  8
0
 10
223.9801236041145103
 20
169.6668558166558114
 30
0.0
  0
VERTEX
  5
346E
  8
0
 10
224.1378900993856007
 20
169.6313459510743087
 30
0.0
  0
VERTEX
  5
346F
  8
0
 10
224.3032469137764053
 20
169.5941276669138063
 30
0.0
  0
VERTEX
  5
3470
  8
0
 10
224.4760894227835024
 20
169.5552245129134974
 30
0.0
  0
VERTEX
  5
3471
  8
0
 10
224.6563356290606919
 20
169.5146549449233078
 30
0.0
  0
VERTEX
  5
3472
  8
0
 10
224.8439123916047038
 20
169.4724354254194054
 30
0.0
  0
VERTEX
  5
3473
  8
0
 10
225.0387465900026029
 20
169.4285824122437987
 30
0.0
  0
VERTEX
  5
3474
  8
0
 10
225.2407651038406868
 20
169.3831123632386095
 30
0.0
  0
VERTEX
  5
3475
  8
0
 10
225.4498937751556866
 20
169.3360419697758914
 30
0.0
  0
VERTEX
  5
3476
  8
0
 10
225.6660446186309912
 20
169.2873910354697955
 30
0.0
  0
VERTEX
  5
3477
  8
0
 10
225.8891198110380003
 20
169.2371815782379088
 30
0.0
  0
VERTEX
  5
3478
  8
0
 10
226.1190213185830089
 20
169.1854356633915017
 30
0.0
  0
VERTEX
  5
3479
  8
0
 10
226.3556511074723971
 20
169.1321753562419019
 30
0.0
  0
VERTEX
  5
347A
  8
0
 10
226.5989110716139976
 20
169.0774227383735138
 30
0.0
  0
VERTEX
  5
347B
  8
0
 10
226.8487004420292124
 20
169.0212004907288872
 30
0.0
  0
VERTEX
  5
347C
  8
0
 10
227.1049150736585034
 20
168.9635320541351007
 30
0.0
  0
VERTEX
  5
347D
  8
0
 10
227.3674506039828032
 20
168.9044409183640028
 30
0.0
  0
VERTEX
  5
347E
  8
0
 10
227.6362026704827031
 20
168.8439505731880104
 30
0.0
  0
VERTEX
  5
347F
  8
0
 10
227.9110669019352997
 20
168.7820845103381089
 30
0.0
  0
VERTEX
  5
3480
  8
0
 10
228.1919362646281968
 20
168.7188668208150091
 30
0.0
  0
VERTEX
  5
3481
  8
0
 10
228.4786973217798902
 20
168.6543230368133948
 30
0.0
  0
VERTEX
  5
3482
  8
0
 10
228.7712356936631011
 20
168.5884789027647912
 30
0.0
  0
VERTEX
  5
3483
  8
0
 10
229.0694370005502094
 20
168.5213601631008942
 30
0.0
  0
VERTEX
  5
3484
  8
0
 10
229.3731868627137942
 20
168.4529925622532005
 30
0.0
  0
VERTEX
  5
3485
  8
0
 10
229.6823698223998065
 20
168.3834020872940869
 30
0.0
  0
VERTEX
  5
3486
  8
0
 10
229.9968647631525016
 20
168.312615998948786
 30
0.0
  0
VERTEX
  5
3487
  8
0
 10
230.3165487182307913
 20
168.240661974402002
 30
0.0
  0
VERTEX
  5
3488
  8
0
 10
230.6412987198445137
 20
168.1675676910747086
 30
0.0
  0
VERTEX
  5
3489
  8
0
 10
230.970991800203393
 20
168.093360826387908
 30
0.0
  0
VERTEX
  5
348A
  8
0
 10
231.3055047003713867
 20
168.0180691232930883
 30
0.0
  0
VERTEX
  5
348B
  8
0
 10
231.6447098960047128
 20
167.9417212847941983
 30
0.0
  0
VERTEX
  5
348C
  8
0
 10
231.9884766251653048
 20
167.8643467426082054
 30
0.0
  0
VERTEX
  5
348D
  8
0
 10
232.3366740452433135
 20
167.7859749466095991
 30
0.0
  0
VERTEX
  5
348E
  8
0
 10
232.6891713136286057
 20
167.7066353466730106
 30
0.0
  0
VERTEX
  5
348F
  8
0
 10
233.0458375676334981
 20
167.6263573971918959
 30
0.0
  0
VERTEX
  5
3490
  8
0
 10
233.4065393942748869
 20
167.545171126577003
 30
0.0
  0
VERTEX
  5
3491
  8
0
 10
233.7711383611215012
 20
167.4631076930093911
 30
0.0
  0
VERTEX
  5
3492
  8
0
 10
234.1394954496639116
 20
167.3801983865836007
 30
0.0
  0
VERTEX
  5
3493
  8
0
 10
234.5114716413932001
 20
167.2964744973945983
 30
0.0
  0
VERTEX
  5
3494
  8
0
 10
234.8869279177997953
 20
167.2119673155368105
 30
0.0
  0
VERTEX
  5
3495
  8
0
 10
235.2657254387216028
 20
167.126708090962893
 30
0.0
  0
VERTEX
  5
3496
  8
0
 10
235.6477266320520982
 20
167.0407277882133883
 30
0.0
  0
VERTEX
  5
3497
  8
0
 10
236.0327944750241898
 20
166.9540572481840002
 30
0.0
  0
VERTEX
  5
3498
  8
0
 10
236.4207919470798061
 20
166.8667273112731095
 30
0.0
  0
VERTEX
  5
3499
  8
0
 10
237.2050276931273061
 20
166.6902126090957097
 30
0.0
  0
VERTEX
  5
349A
  8
0
 10
237.9993364624968137
 20
166.5114306846948864
 30
0.0
  0
VERTEX
  5
349B
  8
0
 10
238.8026177142911024
 20
166.3306292463011005
 30
0.0
  0
VERTEX
  5
349C
  8
0
 10
239.6137698354669965
 20
166.1480562434614967
 30
0.0
  0
VERTEX
  5
349D
  8
0
 10
240.4316723264614097
 20
165.963963876675507
 30
0.0
  0
VERTEX
  5
349E
  8
0
 10
241.2551821751808916
 20
165.7786094135315125
 30
0.0
  0
VERTEX
  5
349F
  8
0
 10
242.0831548536980051
 20
165.5922504627999103
 30
0.0
  0
VERTEX
  5
34A0
  8
0
 10
243.7479024099532978
 20
165.2175513744529951
 30
0.0
  0
VERTEX
  5
34A1
  8
0
 10
245.4167443114282889
 20
164.8419307365199984
 30
0.0
  0
VERTEX
  5
34A2
  8
0
 10
247.0805365079934859
 20
164.4674466792168914
 30
0.0
  0
VERTEX
  5
34A3
  8
0
 10
247.9076919199266058
 20
164.2812716777231117
 30
0.0
  0
VERTEX
  5
34A4
  8
0
 10
248.7301729602758087
 20
164.0961487773508907
 30
0.0
  0
VERTEX
  5
34A5
  8
0
 10
249.5468517925897913
 20
163.9123318299762104
 30
0.0
  0
VERTEX
  5
34A6
  8
0
 10
250.3566043678843869
 20
163.7300738349971141
 30
0.0
  0
VERTEX
  5
34A7
  8
0
 10
251.1583032990124025
 20
163.5496285431607077
 30
0.0
  0
VERTEX
  5
34A8
  8
0
 10
251.9508111862255078
 20
163.3712519588366092
 30
0.0
  0
VERTEX
  5
34A9
  8
0
 10
252.7329901432954102
 20
163.1952001958908909
 30
0.0
  0
VERTEX
  5
34AA
  8
0
 10
253.1198604903742932
 20
163.1081239507182943
 30
0.0
  0
VERTEX
  5
34AB
  8
0
 10
253.5037422584973115
 20
163.0217203707832141
 30
0.0
  0
VERTEX
  5
34AC
  8
0
 10
253.8845041941719103
 20
162.9360189984408862
 30
0.0
  0
VERTEX
  5
34AD
  8
0
 10
254.2620150439055919
 20
162.8510493760470013
 30
0.0
  0
VERTEX
  5
34AE
  8
0
 10
254.6361424065214862
 20
162.7668413042759141
 30
0.0
  0
VERTEX
  5
34AF
  8
0
 10
255.0067362283224952
 20
162.6834285570072893
 30
0.0
  0
VERTEX
  5
34B0
  8
0
 10
255.3736326170362929
 20
162.6008480228883002
 30
0.0
  0
VERTEX
  5
34B1
  8
0
 10
255.7366673096913132
 20
162.5191366740023966
 30
0.0
  0
VERTEX
  5
34B2
  8
0
 10
256.0956760433160184
 20
162.4383314824331137
 30
0.0
  0
VERTEX
  5
34B3
  8
0
 10
256.4504949750631226
 20
162.3584693257027993
 30
0.0
  0
VERTEX
  5
34B4
  8
0
 10
256.8010058091124961
 20
162.2795768296720951
 30
0.0
  0
VERTEX
  5
34B5
  8
0
 10
257.1471759982659933
 20
162.2016613200194115
 30
0.0
  0
VERTEX
  5
34B6
  8
0
 10
257.4889824792654736
 20
162.1247279877912035
 30
0.0
  0
VERTEX
  5
34B7
  8
0
 10
257.8264021888526827
 20
162.0487820240336987
 30
0.0
  0
VERTEX
  5
34B8
  8
0
 10
258.1594120637697074
 20
161.973828619793494
 30
0.0
  0
VERTEX
  5
34B9
  8
0
 10
258.487931870289799
 20
161.899885833967204
 30
0.0
  0
VERTEX
  5
34BA
  8
0
 10
258.8115651646800188
 20
161.8270428975646098
 30
0.0
  0
VERTEX
  5
34BB
  8
0
 10
259.1298067854182818
 20
161.7554135116455996
 30
0.0
  0
VERTEX
  5
34BC
  8
0
 10
259.4421514716647721
 20
161.6851113996245886
 30
0.0
  0
VERTEX
  5
34BD
  8
0
 10
259.7480939625796168
 20
161.6162502849159068
 30
0.0
  0
VERTEX
  5
34BE
  8
0
 10
260.0471603311701756
 20
161.548936838354507
 30
0.0
  0
VERTEX
  5
34BF
  8
0
 10
260.3397122904028151
 20
161.4830896460838972
 30
0.0
  0
VERTEX
  5
34C0
  8
0
 10
260.6270165378231241
 20
161.418423601564399
 30
0.0
  0
VERTEX
  5
34C1
  8
0
 10
260.910385001383986
 20
161.3546434178581137
 30
0.0
  0
VERTEX
  5
34C2
  8
0
 10
261.4705622887404957
 20
161.2285594851342978
 30
0.0
  0
SEQEND
  5
34C3
  8
0
  0
LINE
  5
319F
  8
0
 10
332.0000000000001137
 20
76.7497422611928641
 30
0.0
 11
334.8000000000001251
 21
77.4999999999999716
 31
0.0
  0
LINE
  5
31A0
  8
0
 10
332.0000000000001137
 20
76.7497422611928641
 30
0.0
 11
332.0000000000002274
 21
70.4999999999999574
 31
0.0
  0
LINE
  5
31A1
  8
0
 10
334.8000000000001251
 20
77.5
 30
0.0
 11
336.0
 21
77.5
 31
0.0
  0
LINE
  5
31A2
  8
0
 10
334.8000000000001251
 20
77.5
 30
0.0
 11
334.8000000000001251
 21
71.9891991722570737
 31
0.0
  0
ARC
  5
31A4
  8
0
 10
344.2012427409177917
 20
74.25
 30
0.0
 40
9.4003725610149864
 50
159.7735762333491891
 51
193.8483107683881883
  0
POLYLINE
  5
31B0
  8
0
 66
     1
 10
0.0
 20
0.0
 30
0.0
  0
VERTEX
  5
34C4
  8
0
 10
338.7714404079492283
 20
64.0000011330929226
 30
0.0
  0
VERTEX
  5
34C5
  8
0
 10
338.6421657820941959
 20
64.6510667512397816
 30
0.0
  0
VERTEX
  5
34C6
  8
0
 10
338.510307151847428
 20
65.2903947481474205
 30
0.0
  0
VERTEX
  5
34C7
  8
0
 10
338.4426013337046015
 20
65.6019891319992894
 30
0.0
  0
VERTEX
  5
34C8
  8
0
 10
338.3733083497509142
 20
65.9063551067404347
 30
0.0
  0
VERTEX
  5
34C9
  8
0
 10
338.3024011604279053
 20
66.2031695122046244
 30
0.0
  0
VERTEX
  5
34CA
  8
0
 10
338.2300025575441964
 20
66.4926883640464013
 30
0.0
  0
VERTEX
  5
34CB
  8
0
 10
338.081228824318373
 20
67.0508887731161138
 30
0.0
  0
VERTEX
  5
34CC
  8
0
 10
337.9279175001000226
 20
67.5828100314681564
 30
0.0
  0
VERTEX
  5
34CD
  8
0
 10
337.7704215135960908
 20
68.0881316477597096
 30
0.0
  0
VERTEX
  5
34CE
  8
0
 10
337.6901203381056007
 20
68.3303626505992128
 30
0.0
  0
VERTEX
  5
34CF
  8
0
 10
337.6087918825837164
 20
68.5653963899548131
 30
0.0
  0
VERTEX
  5
34D0
  8
0
 10
337.5264537780690262
 20
68.7930980221849353
 30
0.0
  0
VERTEX
  5
34D1
  8
0
 10
337.4431437222926888
 20
69.0134168119827223
 30
0.0
  0
VERTEX
  5
34D2
  8
0
 10
337.3589014382166056
 20
69.2263105126756813
 30
0.0
  0
VERTEX
  5
34D3
  8
0
 10
337.2737666488030186
 20
69.4317368775912342
 30
0.0
  0
VERTEX
  5
34D4
  8
0
 10
337.1877790754385842
 20
69.6296536562676067
 30
0.0
  0
VERTEX
  5
34D5
  8
0
 10
337.1009766147964228
 20
69.8200142089036575
 30
0.0
  0
VERTEX
  5
34D6
  8
0
 10
337.0133918219801785
 20
70.002759046581815
 30
0.0
  0
VERTEX
  5
34D7
  8
0
 10
336.9250562797997191
 20
70.1778263415366155
 30
0.0
  0
VERTEX
  5
34D8
  8
0
 10
336.8360015710646849
 20
70.3451542660024245
 30
0.0
  0
VERTEX
  5
34D9
  8
0
 10
336.7462592785848869
 20
70.5046809922138209
 30
0.0
  0
VERTEX
  5
34DA
  8
0
 10
336.6558613655236059
 20
70.6563473957921957
 30
0.0
  0
VERTEX
  5
34DB
  8
0
 10
336.5648416874341819
 20
70.8001078026392889
 30
0.0
  0
VERTEX
  5
34DC
  8
0
 10
336.4732346872721109
 20
70.9359207136523935
 30
0.0
  0
VERTEX
  5
34DD
  8
0
 10
336.381074808174219
 20
71.0637446310206684
 30
0.0
  0
VERTEX
  5
34DE
  8
0
 10
336.2883964932773893
 20
71.1835380569332443
 30
0.0
  0
VERTEX
  5
34DF
  8
0
 10
336.1952341447300228
 20
71.2952604280868201
 30
0.0
  0
VERTEX
  5
34E0
  8
0
 10
336.1016218019578901
 20
71.3988794509078417
 30
0.0
  0
VERTEX
  5
34E1
  8
0
 10
336.0075933150636729
 20
71.4943671482210732
 30
0.0
  0
VERTEX
  5
34E2
  8
0
 10
335.9131825325072214
 20
71.581695580303105
 30
0.0
  0
VERTEX
  5
34E3
  8
0
 10
335.8184233027481014
 20
71.6608368074304849
 30
0.0
  0
VERTEX
  5
34E4
  8
0
 10
335.7233495242051049
 20
71.7317628618081784
 30
0.0
  0
VERTEX
  5
34E5
  8
0
 10
335.6279960216243126
 20
71.7944452551404311
 30
0.0
  0
VERTEX
  5
34E6
  8
0
 10
335.5323984370127164
 20
71.8488550399150796
 30
0.0
  0
VERTEX
  5
34E7
  8
0
 10
335.4365924404153247
 20
71.8949632528654234
 30
0.0
  0
VERTEX
  5
34E8
  8
0
 10
335.3406137018773734
 20
71.9327409307247905
 30
0.0
  0
VERTEX
  5
34E9
  8
0
 10
335.2444978648691176
 20
71.9621595106221008
 30
0.0
  0
VERTEX
  5
34EA
  8
0
 10
335.1482788929534991
 20
71.9832157401687454
 30
0.0
  0
VERTEX
  5
34EB
  8
0
 10
335.0519880955063741
 20
71.9959463565540858
 30
0.0
  0
VERTEX
  5
34EC
  8
0
 10
334.9556565476004835
 20
72.0003916271149222
 30
0.0
  0
VERTEX
  5
34ED
  8
0
 10
334.8593153243086249
 20
71.9965918191881684
 30
0.0
  0
VERTEX
  5
34EE
  8
0
 10
334.7629955016208214
 20
71.9845871905378374
 30
0.0
  0
VERTEX
  5
34EF
  8
0
 10
334.666731685080606
 20
71.9643811609015813
 30
0.0
  0
VERTEX
  5
34F0
  8
0
 10
334.5705699992888071
 20
71.9358569253751199
 30
0.0
  0
VERTEX
  5
34F1
  8
0
 10
334.4745589149241027
 20
71.8988731929877929
 30
0.0
  0
VERTEX
  5
34F2
  8
0
 10
334.3787469026648864
 20
71.8532886727690254
 30
0.0
  0
VERTEX
  5
34F3
  8
0
 10
334.2831824331902908
 20
71.7989620737481857
 30
0.0
  0
VERTEX
  5
34F4
  8
0
 10
334.1879091766107877
 20
71.7358074565429433
 30
0.0
  0
VERTEX
  5
34F5
  8
0
 10
334.0929304246656102
 20
71.6642044531433413
 30
0.0
  0
VERTEX
  5
34F6
  8
0
 10
333.9982292591466262
 20
71.5847657206111734
 30
0.0
  0
VERTEX
  5
34F7
  8
0
 10
333.9037886113939066
 20
71.4981056507471067
 30
0.0
  0
VERTEX
  5
34F8
  8
0
 10
333.7156232562103924
 20
71.3055486735069053
 30
0.0
  0
VERTEX
  5
34F9
  8
0
 10
333.6219718644663885
 20
71.1996535758166544
 30
0.0
  0
VERTEX
  5
34FA
  8
0
 10
333.5288568588554199
 20
71.0850650413950689
 30
0.0
  0
VERTEX
  5
34FB
  8
0
 10
333.43650659855399
 20
70.9595949945928055
 30
0.0
  0
VERTEX
  5
34FC
  8
0
 10
333.345149442738375
 20
70.8210553597605781
 30
0.0
  0
VERTEX
  5
34FD
  8
0
 10
333.2550134692883148
 20
70.6672613522693212
 30
0.0
  0
VERTEX
  5
34FE
  8
0
 10
333.1659872691150781
 20
70.4999999999999858
 30
0.0
  0
SEQEND
  5
34FF
  8
0
  0
POLYLINE
  5
31B1
  8
0
 66
     1
 10
0.0
 20
0.0
 30
0.0
  0
VERTEX
  5
3500
  8
0
 10
339.5438301074133278
 20
51.9999999999999929
 30
0.0
  0
VERTEX
  5
3501
  8
0
 10
339.5157192084217854
 20
52.9477544936516367
 30
0.0
  0
VERTEX
  5
3502
  8
0
 10
339.4817359081330892
 20
53.8906347511009969
 30
0.0
  0
VERTEX
  5
3503
  8
0
 10
339.436849180730519
 20
54.8241567777132772
 30
0.0
  0
VERTEX
  5
3504
  8
0
 10
339.3809966486683152
 20
55.7461356687335297
 30
0.0
  0
VERTEX
  5
3505
  8
0
 10
339.3157947708057804
 20
56.6551688217039313
 30
0.0
  0
VERTEX
  5
3506
  8
0
 10
339.2416210576349158
 20
57.5493280019791769
 30
0.0
  0
VERTEX
  5
3507
  8
0
 10
339.1582227288424747
 20
58.426427682614289
 30
0.0
  0
VERTEX
  5
3508
  8
0
 10
339.0656722411972055
 20
59.2845574284144874
 30
0.0
  0
VERTEX
  5
3509
  8
0
 10
338.9642791548046716
 20
60.122003683531652
 30
0.0
  0
VERTEX
  5
350A
  8
0
 10
338.8543502294493805
 20
60.9370148102941016
 30
0.0
  0
VERTEX
  5
350B
  8
0
 10
338.7361850930457763
 20
61.727801278044943
 30
0.0
  0
VERTEX
  5
350C
  8
0
 10
338.610082717288094
 20
62.4925988754049868
 30
0.0
  0
VERTEX
  5
350D
  8
0
 10
338.5441476163147172
 20
62.8647581622217828
 30
0.0
  0
VERTEX
  5
350E
  8
0
 10
338.4763389847447002
 20
63.2298463897557923
 30
0.0
  0
VERTEX
  5
350F
  8
0
 10
338.4066936292957166
 20
63.5876801431899281
 30
0.0
  0
VERTEX
  5
3510
  8
0
 10
338.3352483576068721
 20
63.9380760111193709
 30
0.0
  0
VERTEX
  5
3511
  8
0
 10
338.262041519105594
 20
64.2808562877011127
 30
0.0
  0
VERTEX
  5
3512
  8
0
 10
338.1871161541758966
 20
64.6158606265181277
 30
0.0
  0
VERTEX
  5
3513
  8
0
 10
338.1105161921004196
 20
64.9429319706229364
 30
0.0
  0
VERTEX
  5
3514
  8
0
 10
338.0322855621615759
 20
65.2619132630680525
 30
0.0
  0
VERTEX
  5
3515
  8
0
 10
337.9524681936421189
 20
65.5726474469060037
 30
0.0
  0
VERTEX
  5
3516
  8
0
 10
337.8711081478246001
 20
65.8749781270042263
 30
0.0
  0
VERTEX
  5
3517
  8
0
 10
337.7882514767828752
 20
66.1687588895398591
 30
0.0
  0
VERTEX
  5
3518
  8
0
 10
337.7039457731635821
 20
66.4538510447200252
 30
0.0
  0
VERTEX
  5
3519
  8
0
 10
337.618238669710081
 20
66.7301161037881343
 30
0.0
  0
VERTEX
  5
351A
  8
0
 10
337.5311777991659028
 20
66.9974155779876952
 30
0.0
  0
VERTEX
  5
351B
  8
0
 10
337.4428107942472934
 20
67.2556109837508842
 30
0.0
  0
VERTEX
  5
351C
  8
0
 10
337.3531852163754934
 20
67.5045775040968437
 30
0.0
  0
VERTEX
  5
351D
  8
0
 10
337.2623484009906747
 20
67.7442336402723413
 30
0.0
  0
VERTEX
  5
351E
  8
0
 10
337.1703476388645981
 20
67.9745064560574548
 30
0.0
  0
VERTEX
  5
351F
  8
0
 10
337.0772302207689108
 20
68.1953230152322334
 30
0.0
  0
VERTEX
  5
3520
  8
0
 10
336.9830434374749757
 20
68.4066103815767548
 30
0.0
  0
VERTEX
  5
3521
  8
0
 10
336.8878346405593902
 20
68.6082921410290254
 30
0.0
  0
VERTEX
  5
3522
  8
0
 10
336.7916522433386035
 20
68.8002311512466349
 30
0.0
  0
VERTEX
  5
3523
  8
0
 10
336.6945455618729284
 20
68.9822386357382129
 30
0.0
  0
VERTEX
  5
3524
  8
0
 10
336.5965639409653249
 20
69.154124174014882
 30
0.0
  0
VERTEX
  5
3525
  8
0
 10
336.4977567254185828
 20
69.3156973455877363
 30
0.0
  0
VERTEX
  5
3526
  8
0
 10
336.3981732602823058
 20
69.466767776551805
 30
0.0
  0
VERTEX
  5
3527
  8
0
 10
336.2978635179770777
 20
69.6072636941452743
 30
0.0
  0
VERTEX
  5
3528
  8
0
 10
336.1968794538635734
 20
69.737488189519766
 30
0.0
  0
VERTEX
  5
3529
  8
0
 10
336.0952734141263818
 20
69.8578182370020926
 30
0.0
  0
VERTEX
  5
352A
  8
0
 10
335.9930977449502052
 20
69.9686308109191089
 30
0.0
  0
VERTEX
  5
352B
  8
0
 10
335.8904047925196892
 20
70.0703028855976129
 30
0.0
  0
VERTEX
  5
352C
  8
0
 10
335.787246894657585
 20
70.1631360143968834
 30
0.0
  0
VERTEX
  5
352D
  8
0
 10
335.6836762686883731
 20
70.2463448865723308
 30
0.0
  0
VERTEX
  5
352E
  8
0
 10
335.5797450414833065
 20
70.3183283276235613
 30
0.0
  0
VERTEX
  5
352F
  8
0
 10
335.4755053377160721
 20
70.3774653435884119
 30
0.0
  0
VERTEX
  5
3530
  8
0
 10
335.3710092820606974
 20
70.4221349405047476
 30
0.0
  0
VERTEX
  5
3531
  8
0
 10
335.2663089986285172
 20
70.4507190961766412
 30
0.0
  0
VERTEX
  5
3532
  8
0
 10
335.1614562815208842
 20
70.4633437065366337
 30
0.0
  0
VERTEX
  5
3533
  8
0
 10
334.9514970358599157
 20
70.4999999999999716
 30
0.0
  0
SEQEND
  5
3534
  8
0
  0
POLYLINE
  5
31B2
  8
0
 66
     1
 10
0.0
 20
0.0
 30
0.0
  0
VERTEX
  5
3535
  8
0
 10
366.8318736743497084
 20
70.5000000000000853
 30
0.0
  0
VERTEX
  5
3536
  8
0
 10
366.7428583047267239
 20
70.6670926170166069
 30
0.0
  0
VERTEX
  5
3537
  8
0
 10
366.6528407173793767
 20
70.8219508596344269
 30
0.0
  0
VERTEX
  5
3538
  8
0
 10
366.5616006361178165
 20
70.9615097758572091
 30
0.0
  0
VERTEX
  5
3539
  8
0
 10
366.4693530397361769
 20
71.0878084229164955
 30
0.0
  0
VERTEX
  5
353A
  8
0
 10
366.3763176014458054
 20
71.2029409070330246
 30
0.0
  0
VERTEX
  5
353B
  8
0
 10
366.2827139944578221
 20
71.3090013344274496
 30
0.0
  0
VERTEX
  5
353C
  8
0
 10
366.0945709807085109
 20
71.5010213969108719
 30
0.0
  0
VERTEX
  5
353D
  8
0
 10
365.9054547201848777
 20
71.6665571829221619
 30
0.0
  0
VERTEX
  5
353E
  8
0
 10
365.8104947494579733
 20
71.7379093318134409
 30
0.0
  0
VERTEX
  5
353F
  8
0
 10
365.7152456405622161
 20
71.8008413495267774
 30
0.0
  0
VERTEX
  5
3540
  8
0
 10
365.6197077524848282
 20
71.854937139899647
 30
0.0
  0
VERTEX
  5
3541
  8
0
 10
365.5239230571688154
 20
71.900268779176713
 30
0.0
  0
VERTEX
  5
3542
  8
0
 10
365.4279400789893089
 20
71.9369852118841635
 30
0.0
  0
VERTEX
  5
3543
  8
0
 10
365.3318073423209853
 20
71.9652353825482152
 30
0.0
  0
VERTEX
  5
3544
  8
0
 10
365.2355733715389761
 20
71.985168235695113
 30
0.0
  0
VERTEX
  5
3545
  8
0
 10
365.1392843046090775
 20
71.996907406605402
 30
0.0
  0
VERTEX
  5
3546
  8
0
 10
365.0429746385677277
 20
72.0004530717787219
 30
0.0
  0
VERTEX
  5
3547
  8
0
 10
364.9466753262678935
 20
71.9957678196041257
 30
0.0
  0
VERTEX
  5
3548
  8
0
 10
364.8504173197216005
 20
71.9828142295483246
 30
0.0
  0
VERTEX
  5
3549
  8
0
 10
364.7542315709404193
 20
71.9615548810779018
 30
0.0
  0
VERTEX
  5
354A
  8
0
 10
364.6581493399102101
 20
71.9319568426799663
 30
0.0
  0
VERTEX
  5
354B
  8
0
 10
364.5622046285333226
 20
71.8940271489335601
 30
0.0
  0
VERTEX
  5
354C
  8
0
 10
364.4664328769638928
 20
71.8477937983381736
 30
0.0
  0
VERTEX
  5
354D
  8
0
 10
364.3708695380553877
 20
71.793284974493659
 30
0.0
  0
VERTEX
  5
354E
  8
0
 10
364.275550064661104
 20
71.7305288609998684
 30
0.0
  0
VERTEX
  5
354F
  8
0
 10
364.18050985948679
 20
71.6595535521497737
 30
0.0
  0
VERTEX
  5
3550
  8
0
 10
364.0857834760878973
 20
71.5803856299945522
 30
0.0
  0
VERTEX
  5
3551
  8
0
 10
363.9914047598136904
 20
71.4930504153501118
 30
0.0
  0
VERTEX
  5
3552
  8
0
 10
363.8974075343462005
 20
71.3975731904459394
 30
0.0
  0
VERTEX
  5
3553
  8
0
 10
363.8038256233679135
 20
71.2939792375114934
 30
0.0
  0
VERTEX
  5
3554
  8
0
 10
363.7106928593469775
 20
71.1822939816028253
 30
0.0
  0
VERTEX
  5
3555
  8
0
 10
363.6180434091129996
 20
71.0625482831186019
 30
0.0
  0
VERTEX
  5
3556
  8
0
 10
363.5259118697223926
 20
70.9347799961878707
 30
0.0
  0
VERTEX
  5
3557
  8
0
 10
363.4343328665738113
 20
70.7990274356659626
 30
0.0
  0
VERTEX
  5
3558
  8
0
 10
363.3433410250656834
 20
70.6553289164082514
 30
0.0
  0
VERTEX
  5
3559
  8
0
 10
363.2529709644144873
 20
70.5037228009437626
 30
0.0
  0
VERTEX
  5
355A
  8
0
 10
363.1632564468278019
 20
70.3442540605969526
 30
0.0
  0
VERTEX
  5
355B
  8
0
 10
363.0742295079884912
 20
70.1769809807315568
 30
0.0
  0
VERTEX
  5
355C
  8
0
 10
362.98592197626391
 20
70.0019634454171182
 30
0.0
  0
VERTEX
  5
355D
  8
0
 10
362.8983656800215272
 20
69.8192613387231233
 30
0.0
  0
VERTEX
  5
355E
  8
0
 10
362.8115924479035925
 20
69.6289345441134202
 30
0.0
  0
VERTEX
  5
355F
  8
0
 10
362.7256356976495795
 20
69.4310394443777028
 30
0.0
  0
VERTEX
  5
3560
  8
0
 10
362.640534175670382
 20
69.2256206835985637
 30
0.0
  0
VERTEX
  5
3561
  8
0
 10
362.5563277440493266
 20
69.0127204481075864
 30
0.0
  0
VERTEX
  5
3562
  8
0
 10
362.4730562648695127
 20
68.7923809242363404
 30
0.0
  0
VERTEX
  5
3563
  8
0
 10
362.3907596002140963
 20
68.5646442983163951
 30
0.0
  0
VERTEX
  5
3564
  8
0
 10
362.2292134622836102
 20
68.0873033358714537
 30
0.0
  0
VERTEX
  5
3565
  8
0
 10
362.0717900790539261
 20
67.581955480868217
 30
0.0
  0
VERTEX
  5
3566
  8
0
 10
361.9185389458992859
 20
67.050076951364403
 30
0.0
  0
VERTEX
  5
3567
  8
0
 10
361.7698426815700827
 20
66.4918827029879509
 30
0.0
  0
VERTEX
  5
3568
  8
0
 10
361.6974900370295245
 20
66.2023488701688763
 30
0.0
  0
VERTEX
  5
3569
  8
0
 10
361.6266311809209242
 20
65.9055155984989796
 30
0.0
  0
VERTEX
  5
356A
  8
0
 10
361.5573859684861873
 20
65.6011372651138345
 30
0.0
  0
VERTEX
  5
356B
  8
0
 10
361.4897107037390924
 20
65.2896005565478674
 30
0.0
  0
VERTEX
  5
356C
  8
0
 10
361.3578617823856121
 20
64.6505942100805839
 30
0.0
  0
VERTEX
  5
356D
  8
0
 10
361.2285594851343262
 20
64.0000000000000284
 30
0.0
  0
SEQEND
  5
356E
  8
0
  0
POLYLINE
  5
31B3
  8
0
 66
     1
 10
0.0
 20
0.0
 30
0.0
  0
VERTEX
  5
356F
  8
0
 10
365.0483779549729206
 20
70.5000000000000711
 30
0.0
  0
VERTEX
  5
3570
  8
0
 10
364.8384132244042917
 20
70.4621986299786016
 30
0.0
  0
VERTEX
  5
3571
  8
0
 10
364.7335678004649253
 20
70.4494132962674797
 30
0.0
  0
VERTEX
  5
3572
  8
0
 10
364.6288863292751898
 20
70.4212510693226648
 30
0.0
  0
VERTEX
  5
3573
  8
0
 10
364.5244198984585182
 20
70.3770703602256731
 30
0.0
  0
VERTEX
  5
3574
  8
0
 10
364.4202178766515203
 20
70.318392749019182
 30
0.0
  0
VERTEX
  5
3575
  8
0
 10
364.3163296178731798
 20
70.2467582115032911
 30
0.0
  0
VERTEX
  5
3576
  8
0
 10
364.2128044761420824
 20
70.1637067234780432
 30
0.0
  0
VERTEX
  5
3577
  8
0
 10
364.1096918093884938
 20
70.0707744934378667
 30
0.0
  0
VERTEX
  5
3578
  8
0
 10
364.0070415677059259
 20
69.9689273443259907
 30
0.0
  0
VERTEX
  5
3579
  8
0
 10
363.9049049215182094
 20
69.8579556510751445
 30
0.0
  0
VERTEX
  5
357A
  8
0
 10
363.8033331917866917
 20
69.7375047869268343
 30
0.0
  0
VERTEX
  5
357B
  8
0
 10
363.7023776994731747
 20
69.6072201251224811
 30
0.0
  0
VERTEX
  5
357C
  8
0
 10
363.6020897655392901
 20
69.4667470389035486
 30
0.0
  0
VERTEX
  5
357D
  8
0
 10
363.5025206242988816
 20
69.3157640697175168
 30
0.0
  0
VERTEX
  5
357E
  8
0
 10
363.4037206640401791
 20
69.1542736125807238
 30
0.0
  0
VERTEX
  5
357F
  8
0
 10
363.3057397951668008
 20
68.9824609936967761
 30
0.0
  0
VERTEX
  5
3580
  8
0
 10
363.2086279226807051
 20
68.8005136071319754
 30
0.0
  0
VERTEX
  5
3581
  8
0
 10
363.1124349515836798
 20
68.6086188469526945
 30
0.0
  0
VERTEX
  5
3582
  8
0
 10
363.0172107855344734
 20
68.4069638421099739
 30
0.0
  0
VERTEX
  5
3583
  8
0
 10
362.9230051506435188
 20
68.1957006720412551
 30
0.0
  0
VERTEX
  5
3584
  8
0
 10
362.8298674197905029
 20
67.9749116855434465
 30
0.0
  0
VERTEX
  5
3585
  8
0
 10
362.7378469240725849
 20
67.7446709832730534
 30
0.0
  0
VERTEX
  5
3586
  8
0
 10
362.6469929945876061
 20
67.5050526658865238
 30
0.0
  0
VERTEX
  5
3587
  8
0
 10
362.5573549624327256
 20
67.2561308340404054
 30
0.0
  0
VERTEX
  5
3588
  8
0
 10
362.4689819332534171
 20
66.9979848333853312
 30
0.0
  0
VERTEX
  5
3589
  8
0
 10
362.3819212691263942
 20
66.7307345725642307
 30
0.0
  0
VERTEX
  5
358A
  8
0
 10
362.2962195193330786
 20
66.454518869376983
 30
0.0
  0
VERTEX
  5
358B
  8
0
 10
362.211923228599801
 20
66.1694766475956015
 30
0.0
  0
VERTEX
  5
358C
  8
0
 10
362.1290789416526081
 20
65.8757468309921705
 30
0.0
  0
VERTEX
  5
358D
  8
0
 10
362.0477331686150251
 20
65.5734684507878853
 30
0.0
  0
VERTEX
  5
358E
  8
0
 10
361.9679303150014107
 20
65.2627870734970941
 30
0.0
  0
VERTEX
  5
358F
  8
0
 10
361.889711507716811
 20
64.9438584464656827
 30
0.0
  0
VERTEX
  5
3590
  8
0
 10
361.813117589702415
 20
64.6168391988127979
 30
0.0
  0
VERTEX
  5
3591
  8
0
 10
361.738189403899014
 20
64.2818859596576573
 30
0.0
  0
VERTEX
  5
3592
  8
0
 10
361.6649677932477971
 20
63.9391553581194501
 30
0.0
  0
VERTEX
  5
3593
  8
0
 10
361.5934938336702089
 20
63.5888072562205409
 30
0.0
  0
VERTEX
  5
3594
  8
0
 10
361.5238100287112957
 20
63.231021326094897
 30
0.0
  0
VERTEX
  5
3595
  8
0
 10
361.4559594224119792
 20
62.8659847399499796
 30
0.0
  0
VERTEX
  5
3596
  8
0
 10
361.3899850598326111
 20
62.4938846841398075
 30
0.0
  0
VERTEX
  5
3597
  8
0
 10
361.263837217434002
 20
61.7292430798369907
 30
0.0
  0
VERTEX
  5
3598
  8
0
 10
361.1457034685304848
 20
60.9386381197095801
 30
0.0
  0
VERTEX
  5
3599
  8
0
 10
361.0359036627257865
 20
60.1237135472554911
 30
0.0
  0
VERTEX
  5
359A
  8
0
 10
360.9347503027598236
 20
59.2861321426074213
 30
0.0
  0
VERTEX
  5
359B
  8
0
 10
360.8423818143697872
 20
58.4277179982228816
 30
0.0
  0
VERTEX
  5
359C
  8
0
 10
360.7587199741270751
 20
57.5504959693270308
 30
0.0
  0
VERTEX
  5
359D
  8
0
 10
360.6837285249087017
 20
56.6564824060553178
 30
0.0
  0
VERTEX
  5
359E
  8
0
 10
360.6181681824675138
 20
55.7473912044386282
 30
0.0
  0
VERTEX
  5
359F
  8
0
 10
360.5633962799607275
 20
54.8247098420327319
 30
0.0
  0
VERTEX
  5
35A0
  8
0
 10
360.5202782779464883
 20
53.8901586744234677
 30
0.0
  0
VERTEX
  5
35A1
  8
0
 10
360.4561698970082944
 20
52.0000000000000497
 30
0.0
  0
SEQEND
  5
35A2
  8
0
  0
POLYLINE
  5
31B4
  8
0
 66
     1
 10
0.0
 20
0.0
 30
0.0
  0
VERTEX
  5
35A3
  8
0
 10
333.1681263622576239
 20
29.4999999999999609
 30
0.0
  0
VERTEX
  5
35A4
  8
0
 10
333.2571417313233724
 20
29.3329073850078785
 30
0.0
  0
VERTEX
  5
35A5
  8
0
 10
333.3471593183555228
 20
29.1780491473387613
 30
0.0
  0
VERTEX
  5
35A6
  8
0
 10
333.4383993993018862
 20
29.0384902361757291
 30
0.0
  0
VERTEX
  5
35A7
  8
0
 10
333.5306469953306987
 20
28.9121915938380809
 30
0.0
  0
VERTEX
  5
35A8
  8
0
 10
333.6236824332117976
 20
28.79705911387531
 30
0.0
  0
VERTEX
  5
35A9
  8
0
 10
333.7172860397150203
 20
28.6909986898369205
 30
0.0
  0
VERTEX
  5
35AA
  8
0
 10
333.9054290522886959
 20
28.4989786318565805
 30
0.0
  0
VERTEX
  5
35AB
  8
0
 10
334.0945453115754162
 20
28.33344284978498
 30
0.0
  0
VERTEX
  5
35AC
  8
0
 10
334.1895052816818179
 20
28.2620907028705801
 30
0.0
  0
VERTEX
  5
35AD
  8
0
 10
334.2847543899638936
 20
28.1991586872204998
 30
0.0
  0
VERTEX
  5
35AE
  8
0
 10
334.3802922774258946
 20
28.1450628988877511
 30
0.0
  0
VERTEX
  5
35AF
  8
0
 10
334.4760769721173119
 20
28.0997312615325399
 30
0.0
  0
VERTEX
  5
35B0
  8
0
 10
334.572059949662389
 20
28.0630148306127687
 30
0.0
  0
VERTEX
  5
35B1
  8
0
 10
334.6681926856857103
 20
28.0347646615863084
 30
0.0
  0
VERTEX
  5
35B2
  8
0
 10
334.7644266558116897
 20
28.0148318099110689
 30
0.0
  0
VERTEX
  5
35B3
  8
0
 10
334.8607157220761223
 20
28.0030926403165985
 30
0.0
  0
VERTEX
  5
35B4
  8
0
 10
334.9570253874460946
 20
27.9995469763346492
 30
0.0
  0
VERTEX
  5
35B5
  8
0
 10
335.0533246990698899
 20
28.0042322295823283
 30
0.0
  0
VERTEX
  5
35B6
  8
0
 10
335.1495827049366198
 20
28.0171858205990887
 30
0.0
  0
VERTEX
  5
35B7
  8
0
 10
335.2457684530356801
 20
28.0384451699244011
 30
0.0
  0
VERTEX
  5
35B8
  8
0
 10
335.3418506833821198
 20
28.0680432090723784
 30
0.0
  0
VERTEX
  5
35B9
  8
0
 10
335.4377953940734756
 20
28.1059729034550685
 30
0.0
  0
VERTEX
  5
35BA
  8
0
 10
335.5335671449561801
 20
28.1522062545728602
 30
0.0
  0
VERTEX
  5
35BB
  8
0
 10
335.6291304831773914
 20
28.2067150788263703
 30
0.0
  0
VERTEX
  5
35BC
  8
0
 10
335.7244499558843245
 20
28.2694711926161908
 30
0.0
  0
VERTEX
  5
35BD
  8
0
 10
335.8194901603715152
 20
28.3404465016499216
 30
0.0
  0
VERTEX
  5
35BE
  8
0
 10
335.9142165430847058
 20
28.4196144238783113
 30
0.0
  0
VERTEX
  5
35BF
  8
0
 10
336.0085952586754274
 20
28.5069496384876189
 30
0.0
  0
VERTEX
  5
35C0
  8
0
 10
336.1025924834618195
 20
28.6024268632505496
 30
0.0
  0
VERTEX
  5
35C1
  8
0
 10
336.1961743937623055
 20
28.7060208159398087
 30
0.0
  0
VERTEX
  5
35C2
  8
0
 10
336.2893071571090786
 20
28.8177060715013909
 30
0.0
  0
VERTEX
  5
35C3
  8
0
 10
336.3819566066733273
 20
28.9374517695368709
 30
0.0
  0
VERTEX
  5
35C4
  8
0
 10
336.4740881453986958
 20
29.0652200559186404
 30
0.0
  0
VERTEX
  5
35C5
  8
0
 10
336.5656671478877229
 20
29.2009726157931517
 30
0.0
  0
VERTEX
  5
35C6
  8
0
 10
336.6566589887416967
 20
29.3446711343068607
 30
0.0
  0
VERTEX
  5
35C7
  8
0
 10
336.7470290487452189
 20
29.4962772489324401
 30
0.0
  0
VERTEX
  5
35C8
  8
0
 10
336.8367435656912789
 20
29.6557459883452097
 30
0.0
  0
VERTEX
  5
35C9
  8
0
 10
336.9257705038976951
 20
29.8230190671826101
 30
0.0
  0
VERTEX
  5
35CA
  8
0
 10
337.0140780349973966
 20
29.9980366013772404
 30
0.0
  0
VERTEX
  5
35CB
  8
0
 10
337.101634330623483
 20
30.1807387068617317
 30
0.0
  0
VERTEX
  5
35CC
  8
0
 10
337.1884075621338752
 20
30.3710655001744314
 30
0.0
  0
VERTEX
  5
35CD
  8
0
 10
337.2743643117893271
 20
30.5689605985288004
 30
0.0
  0
VERTEX
  5
35CE
  8
0
 10
337.3594658331787741
 20
30.774379357844861
 30
0.0
  0
VERTEX
  5
35CF
  8
0
 10
337.4436722642195718
 20
30.9872795917926993
 30
0.0
  0
VERTEX
  5
35D0
  8
0
 10
337.5269437428291894
 20
31.2076191140423589
 30
0.0
  0
VERTEX
  5
35D1
  8
0
 10
337.6092404069248119
 20
31.4353557382639401
 30
0.0
  0
VERTEX
  5
35D2
  8
0
 10
337.7707865437736245
 20
31.9126966970688599
 30
0.0
  0
VERTEX
  5
35D3
  8
0
 10
337.9282099259770007
 20
32.4180445481092718
 30
0.0
  0
VERTEX
  5
35D4
  8
0
 10
338.0814610581583111
 20
32.9499230733607007
 30
0.0
  0
VERTEX
  5
35D5
  8
0
 10
338.230157321552781
 20
33.5081173172765432
 30
0.0
  0
VERTEX
  5
35D6
  8
0
 10
338.3025099656430257
 20
33.7976511477891819
 30
0.0
  0
VERTEX
  5
35D7
  8
0
 10
338.3733688213147843
 20
34.0944844170975827
 30
0.0
  0
VERTEX
  5
35D8
  8
0
 10
338.4426140333288799
 20
34.3988627480603668
 30
0.0
  0
VERTEX
  5
35D9
  8
0
 10
338.5102892976798898
 20
34.7103994541138619
 30
0.0
  0
VERTEX
  5
35DA
  8
0
 10
338.6421382183020228
 20
35.3494057953318617
 30
0.0
  0
VERTEX
  5
35DB
  8
0
 10
338.7714405148657875
 20
35.9999997213578595
 30
0.0
  0
SEQEND
  5
35DC
  8
0
  0
POLYLINE
  5
31B5
  8
0
 66
     1
 10
0.0
 20
0.0
 30
0.0
  0
VERTEX
  5
35DD
  8
0
 10
334.9516220959256998
 20
29.4999999999999716
 30
0.0
  0
VERTEX
  5
35DE
  8
0
 10
335.161586828427005
 20
29.5378013698156288
 30
0.0
  0
VERTEX
  5
35DF
  8
0
 10
335.2664322532955907
 20
29.5505867036897705
 30
0.0
  0
VERTEX
  5
35E0
  8
0
 10
335.3711137253714014
 20
29.5787489310543492
 30
0.0
  0
VERTEX
  5
35E1
  8
0
 10
335.4755801570281051
 20
29.6229296406760199
 30
0.0
  0
VERTEX
  5
35E2
  8
0
 10
335.5797821796302856
 20
29.6816072524767698
 30
0.0
  0
VERTEX
  5
35E3
  8
0
 10
335.6836704391614035
 20
29.7532417906287492
 30
0.0
  0
VERTEX
  5
35E4
  8
0
 10
335.7871955816045784
 20
29.8362932793041189
 30
0.0
  0
VERTEX
  5
35E5
  8
0
 10
335.8903082490319889
 20
29.9292255099837909
 30
0.0
  0
VERTEX
  5
35E6
  8
0
 10
335.9929584913501799
 20
30.0310726597854902
 30
0.0
  0
VERTEX
  5
35E7
  8
0
 10
336.0950951381337859
 20
30.1420443538164093
 30
0.0
  0
VERTEX
  5
35E8
  8
0
 10
336.1966668684186743
 20
30.2624952188434904
 30
0.0
  0
VERTEX
  5
35E9
  8
0
 10
336.2976223612412809
 20
30.3927798816336683
 30
0.0
  0
VERTEX
  5
35EA
  8
0
 10
336.3979102956374732
 20
30.5332529689539385
 30
0.0
  0
VERTEX
  5
35EB
  8
0
 10
336.4974794372911902
 20
30.6842359393516091
 30
0.0
  0
VERTEX
  5
35EC
  8
0
 10
336.5962793979127241
 20
30.8457263977762217
 30
0.0
  0
VERTEX
  5
35ED
  8
0
 10
336.6942602670972065
 20
31.0175390180198782
 30
0.0
  0
VERTEX
  5
35EE
  8
0
 10
336.7913721398413145
 20
31.1994864060138788
 30
0.0
  0
VERTEX
  5
35EF
  8
0
 10
336.8875651111418961
 20
31.3913811676895307
 30
0.0
  0
VERTEX
  5
35F0
  8
0
 10
336.982789277339009
 20
31.5930361740938714
 30
0.0
  0
VERTEX
  5
35F1
  8
0
 10
337.0769949123210267
 20
31.8042993457973289
 30
0.0
  0
VERTEX
  5
35F2
  8
0
 10
337.1701326432068981
 20
32.0250883340067816
 30
0.0
  0
VERTEX
  5
35F3
  8
0
 10
337.2621531388982135
 20
32.2553290380656534
 30
0.0
  0
VERTEX
  5
35F4
  8
0
 10
337.3530070682962219
 20
32.4949473573174075
 30
0.0
  0
VERTEX
  5
35F5
  8
0
 10
337.4426451003022862
 20
32.7438691911055102
 30
0.0
  0
VERTEX
  5
35F6
  8
0
 10
337.5310181292700236
 20
33.002015193776117
 30
0.0
  0
VERTEX
  5
35F7
  8
0
 10
337.6180787931218106
 20
33.2692654566788306
 30
0.0
  0
VERTEX
  5
35F8
  8
0
 10
337.7037805425758279
 20
33.5454811620121873
 30
0.0
  0
VERTEX
  5
35F9
  8
0
 10
337.7880768329051193
 20
33.8305233860027883
 30
0.0
  0
VERTEX
  5
35FA
  8
0
 10
337.8709211193825013
 20
34.1242532048772418
 30
0.0
  0
VERTEX
  5
35FB
  8
0
 10
337.952266891883994
 20
34.4265315874127893
 30
0.0
  0
VERTEX
  5
35FC
  8
0
 10
338.0320697448956935
 20
34.7372129670912599
 30
0.0
  0
VERTEX
  5
35FD
  8
0
 10
338.110288551513122
 20
35.0561415965642809
 30
0.0
  0
VERTEX
  5
35FE
  8
0
 10
338.1868824687953747
 20
35.3831608467107301
 30
0.0
  0
VERTEX
  5
35FF
  8
0
 10
338.2618106538020015
 20
35.7181140884095427
 30
0.0
  0
VERTEX
  5
3600
  8
0
 10
338.3350322635924954
 20
36.0608446925395683
 30
0.0
  0
VERTEX
  5
3601
  8
0
 10
338.4065062222449001
 20
36.411192797074392
 30
0.0
  0
VERTEX
  5
3602
  8
0
 10
338.4761900262118957
 20
36.7689787298743624
 30
0.0
  0
VERTEX
  5
3603
  8
0
 10
338.5440406314490929
 20
37.1340153187299009
 30
0.0
  0
VERTEX
  5
3604
  8
0
 10
338.6100149928931842
 20
37.5061153772849494
 30
0.0
  0
VERTEX
  5
3605
  8
0
 10
338.7361628327881817
 20
38.2707569871719571
 30
0.0
  0
VERTEX
  5
3606
  8
0
 10
338.8542965788723222
 20
39.0613619529814287
 30
0.0
  0
VERTEX
  5
3607
  8
0
 10
338.9640963815645023
 20
39.876286531180611
 30
0.0
  0
VERTEX
  5
3608
  8
0
 10
339.0652497381548187
 20
40.7138679416031835
 30
0.0
  0
VERTEX
  5
3609
  8
0
 10
339.1576182229464962
 20
41.5722820917404619
 30
0.0
  0
VERTEX
  5
360A
  8
0
 10
339.2412800593742759
 20
42.4495041263405284
 30
0.0
  0
VERTEX
  5
360B
  8
0
 10
339.3162715045432947
 20
43.3435176952513004
 30
0.0
  0
VERTEX
  5
360C
  8
0
 10
339.3818318426367
 20
44.2526089024138614
 30
0.0
  0
VERTEX
  5
360D
  8
0
 10
339.4366037404922167
 20
45.1752902702000512
 30
0.0
  0
VERTEX
  5
360E
  8
0
 10
339.4797217376151934
 20
46.1098414429386807
 30
0.0
  0
VERTEX
  5
360F
  8
0
 10
339.5438301042357807
 20
47.9999999999999787
 30
0.0
  0
SEQEND
  5
3610
  8
0
  0
POLYLINE
  5
31B6
  8
0
 66
     1
 10
0.0
 20
0.0
 30
0.0
  0
VERTEX
  5
3611
  8
0
 10
361.2285593859069763
 20
36.0000000000000071
 30
0.0
  0
VERTEX
  5
3612
  8
0
 10
361.3578340084387719
 20
35.348934283398421
 30
0.0
  0
VERTEX
  5
3613
  8
0
 10
361.4896926359215854
 20
34.709606211847472
 30
0.0
  0
VERTEX
  5
3614
  8
0
 10
361.5573984530669236
 20
34.3980117913104593
 30
0.0
  0
VERTEX
  5
3615
  8
0
 10
361.626691436349688
 20
34.0936457803891528
 30
0.0
  0
VERTEX
  5
3616
  8
0
 10
361.6975986252894018
 20
33.7968313391115771
 30
0.0
  0
VERTEX
  5
3617
  8
0
 10
361.7699972280511247
 20
33.5073124518183931
 30
0.0
  0
VERTEX
  5
3618
  8
0
 10
361.9187709617215205
 20
32.9491119729513571
 30
0.0
  0
VERTEX
  5
3619
  8
0
 10
362.0720822871954852
 20
32.4171906464716031
 30
0.0
  0
VERTEX
  5
361A
  8
0
 10
362.2295782758060909
 20
31.9118689642685105
 30
0.0
  0
VERTEX
  5
361B
  8
0
 10
362.3098794526720212
 20
31.6696379293853205
 30
0.0
  0
VERTEX
  5
361C
  8
0
 10
362.3912079097835885
 20
31.4346041586310996
 30
0.0
  0
VERTEX
  5
361D
  8
0
 10
362.4735460160898128
 20
31.2069024956274284
 30
0.0
  0
VERTEX
  5
361E
  8
0
 10
362.5568560738490191
 20
30.9865836756829012
 30
0.0
  0
VERTEX
  5
361F
  8
0
 10
362.6410983600924851
 20
30.7736899454874688
 30
0.0
  0
VERTEX
  5
3620
  8
0
 10
362.7262331518513179
 20
30.5682635517310892
 30
0.0
  0
VERTEX
  5
3621
  8
0
 10
362.8122207277319262
 20
30.3703467448930411
 30
0.0
  0
VERTEX
  5
3622
  8
0
 10
362.8990231910576085
 20
30.1799861647987093
 30
0.0
  0
VERTEX
  5
3623
  8
0
 10
362.9866079867213102
 20
29.9972413003867189
 30
0.0
  0
VERTEX
  5
3624
  8
0
 10
363.0749435319082181
 20
29.8221739794387091
 30
0.0
  0
VERTEX
  5
3625
  8
0
 10
363.1639982438032916
 20
29.6548460297362908
 30
0.0
  0
VERTEX
  5
3626
  8
0
 10
363.2537405395917744
 20
29.4953192790610608
 30
0.0
  0
VERTEX
  5
3627
  8
0
 10
363.3441384561039058
 20
29.3436528518003996
 30
0.0
  0
VERTEX
  5
3628
  8
0
 10
363.4351581377795242
 20
29.1998924220565712
 30
0.0
  0
VERTEX
  5
3629
  8
0
 10
363.5267651416576768
 20
29.0640794889443796
 30
0.0
  0
VERTEX
  5
362A
  8
0
 10
363.6189250245956259
 20
28.9362555502867913
 30
0.0
  0
VERTEX
  5
362B
  8
0
 10
363.7116033434506903
 20
28.8164621039067406
 30
0.0
  0
VERTEX
  5
362C
  8
0
 10
363.8047656960691256
 20
28.7047397131161084
 30
0.0
  0
VERTEX
  5
362D
  8
0
 10
363.8983780430195907
 20
28.6011206714914685
 30
0.0
  0
VERTEX
  5
362E
  8
0
 10
363.9924065341940036
 20
28.5056329562190811
 30
0.0
  0
VERTEX
  5
362F
  8
0
 10
364.0868173211264889
 20
28.4183045070338309
 30
0.0
  0
VERTEX
  5
3630
  8
0
 10
364.1815765553516826
 20
28.3391632636706206
 30
0.0
  0
VERTEX
  5
3631
  8
0
 10
364.2766503384448811
 20
28.2682371939359491
 30
0.0
  0
VERTEX
  5
3632
  8
0
 10
364.3720038456531256
 20
28.2055547861332201
 30
0.0
  0
VERTEX
  5
3633
  8
0
 10
364.4676014349640241
 20
28.1511449877778013
 30
0.0
  0
VERTEX
  5
3634
  8
0
 10
364.5634074363269974
 20
28.10503676213931
 30
0.0
  0
VERTEX
  5
3635
  8
0
 10
364.6593861796919214
 20
28.0672590724873814
 30
0.0
  0
VERTEX
  5
3636
  8
0
 10
364.7555020215837089
 20
28.0378404816915889
 30
0.0
  0
VERTEX
  5
3637
  8
0
 10
364.8517209984373153
 20
28.0167842420893187
 30
0.0
  0
VERTEX
  5
3638
  8
0
 10
364.9480118008706881
 20
28.0040536164941507
 30
0.0
  0
VERTEX
  5
3639
  8
0
 10
365.0443433538038107
 20
27.9996083375925799
 30
0.0
  0
VERTEX
  5
363A
  8
0
 10
365.1406845821559841
 20
28.0034081380711086
 30
0.0
  0
VERTEX
  5
363B
  8
0
 10
365.2370044099299093
 20
28.0154127601896583
 30
0.0
  0
VERTEX
  5
363C
  8
0
 10
365.3332682315622719
 20
28.0356187843584692
 30
0.0
  0
VERTEX
  5
363D
  8
0
 10
365.4294299224420115
 20
28.0641430155390701
 30
0.0
  0
VERTEX
  5
363E
  8
0
 10
365.5254410118910187
 20
28.1011267446378916
 30
0.0
  0
VERTEX
  5
363F
  8
0
 10
365.6212530292318093
 20
28.1467112625613112
 30
0.0
  0
VERTEX
  5
3640
  8
0
 10
365.7168175037866149
 20
28.2010378602157417
 30
0.0
  0
VERTEX
  5
3641
  8
0
 10
365.8120907654724761
 20
28.2641924766051815
 30
0.0
  0
VERTEX
  5
3642
  8
0
 10
365.9070695225984764
 20
28.3357954790955411
 30
0.0
  0
VERTEX
  5
3643
  8
0
 10
366.0017706933451223
 20
28.4152342108394187
 30
0.0
  0
VERTEX
  5
3644
  8
0
 10
366.0962113463413061
 20
28.5018942802848088
 30
0.0
  0
VERTEX
  5
3645
  8
0
 10
366.2843767119052814
 20
28.6944512591548602
 30
0.0
  0
VERTEX
  5
3646
  8
0
 10
366.378028108443516
 20
28.8003463626799814
 30
0.0
  0
VERTEX
  5
3647
  8
0
 10
366.4711431185057791
 20
28.9149349072349615
 30
0.0
  0
VERTEX
  5
3648
  8
0
 10
366.5634933830086197
 20
29.040404967486289
 30
0.0
  0
VERTEX
  5
3649
  8
0
 10
366.6548505428672797
 20
29.1789446181004593
 30
0.0
  0
VERTEX
  5
364A
  8
0
 10
366.7449865203083732
 20
29.332738642562429
 30
0.0
  0
VERTEX
  5
364B
  8
0
 10
366.8340127255258949
 20
29.5000000000000817
 30
0.0
  0
SEQEND
  5
364C
  8
0
  0
POLYLINE
  5
31B7
  8
0
 66
     1
 10
0.0
 20
0.0
 30
0.0
  0
VERTEX
  5
364D
  8
0
 10
360.4561698925866722
 20
48.0000000000000568
 30
0.0
  0
VERTEX
  5
364E
  8
0
 10
360.4842807915521234
 20
47.0522455064039491
 30
0.0
  0
VERTEX
  5
364F
  8
0
 10
360.5182640918006882
 20
46.1093652490072472
 30
0.0
  0
VERTEX
  5
3650
  8
0
 10
360.563150819140219
 20
45.1758432224437314
 30
0.0
  0
VERTEX
  5
3651
  8
0
 10
360.6190033511193178
 20
44.2538643314701616
 30
0.0
  0
VERTEX
  5
3652
  8
0
 10
360.6842052288790228
 20
43.3448311785435791
 30
0.0
  0
VERTEX
  5
3653
  8
0
 10
360.7583789419242066
 20
42.4506719983072429
 30
0.0
  0
VERTEX
  5
3654
  8
0
 10
360.8417772705681728
 20
41.5735723177055618
 30
0.0
  0
VERTEX
  5
3655
  8
0
 10
360.9343277580438212
 20
40.7154425719339272
 30
0.0
  0
VERTEX
  5
3656
  8
0
 10
361.035720844244679
 20
39.8779963168399902
 30
0.0
  0
VERTEX
  5
3657
  8
0
 10
361.1456497693856136
 20
39.0629851900946221
 30
0.0
  0
VERTEX
  5
3658
  8
0
 10
361.2638149055504186
 20
38.2721987223540978
 30
0.0
  0
VERTEX
  5
3659
  8
0
 10
361.389917281043779
 20
37.5074011249975214
 30
0.0
  0
VERTEX
  5
365A
  8
0
 10
361.4558523818756726
 20
37.1352418381801499
 30
0.0
  0
VERTEX
  5
365B
  8
0
 10
361.5236610132981241
 20
36.7701536106440514
 30
0.0
  0
VERTEX
  5
365C
  8
0
 10
361.5933063685936872
 20
36.4123198572063416
 30
0.0
  0
VERTEX
  5
365D
  8
0
 10
361.6647516401234839
 20
36.061923989271861
 30
0.0
  0
VERTEX
  5
365E
  8
0
 10
361.7379584784607118
 20
35.7191437126837599
 30
0.0
  0
VERTEX
  5
365F
  8
0
 10
361.8128838432207885
 20
35.3841393738591421
 30
0.0
  0
VERTEX
  5
3660
  8
0
 10
361.8894838051215856
 20
35.0570680297455368
 30
0.0
  0
VERTEX
  5
3661
  8
0
 10
361.9677144348806905
 20
34.7380867372904802
 30
0.0
  0
VERTEX
  5
3662
  8
0
 10
362.0475318032155769
 20
34.4273525534414517
 30
0.0
  0
VERTEX
  5
3663
  8
0
 10
362.1288918488439208
 20
34.1250218733310717
 30
0.0
  0
VERTEX
  5
3664
  8
0
 10
362.2117485196915823
 20
33.8312411107823507
 30
0.0
  0
VERTEX
  5
3665
  8
0
 10
362.2960542231127192
 20
33.5461489555883432
 30
0.0
  0
VERTEX
  5
3666
  8
0
 10
362.3817613263638009
 20
33.269883896505668
 30
0.0
  0
VERTEX
  5
3667
  8
0
 10
362.468822196701808
 20
33.0025844222909868
 30
0.0
  0
VERTEX
  5
3668
  8
0
 10
362.5571892014103241
 20
32.7443890165121871
 30
0.0
  0
VERTEX
  5
3669
  8
0
 10
362.6468147790686771
 20
32.4954224961504892
 30
0.0
  0
VERTEX
  5
366A
  8
0
 10
362.7376515942365813
 20
32.2557663599592885
 30
0.0
  0
VERTEX
  5
366B
  8
0
 10
362.8296523561429012
 20
32.0254935441584792
 30
0.0
  0
VERTEX
  5
366C
  8
0
 10
362.9227697740159897
 20
31.8046769849679514
 30
0.0
  0
VERTEX
  5
366D
  8
0
 10
363.0169565570845975
 20
31.5933896186075813
 30
0.0
  0
VERTEX
  5
366E
  8
0
 10
363.112165353772582
 20
31.3917078591391707
 30
0.0
  0
VERTEX
  5
366F
  8
0
 10
363.2083477507634939
 20
31.1997688489046183
 30
0.0
  0
VERTEX
  5
3670
  8
0
 10
363.3054544319975889
 20
31.0177613643957315
 30
0.0
  0
VERTEX
  5
3671
  8
0
 10
363.4034360526724754
 20
30.8458758261018993
 30
0.0
  0
VERTEX
  5
3672
  8
0
 10
363.5022432679854774
 20
30.6843026545124999
 30
0.0
  0
VERTEX
  5
3673
  8
0
 10
363.6018267328876732
 20
30.5332322235330409
 30
0.0
  0
VERTEX
  5
3674
  8
0
 10
363.7021364749587065
 20
30.39273630592864
 30
0.0
  0
VERTEX
  5
3675
  8
0
 10
363.8031205388380727
 20
30.2625118105486415
 30
0.0
  0
VERTEX
  5
3676
  8
0
 10
363.9047265783416947
 20
30.1421817630644995
 30
0.0
  0
VERTEX
  5
3677
  8
0
 10
364.0069022472848133
 20
30.0313691891476608
 30
0.0
  0
VERTEX
  5
3678
  8
0
 10
364.1095951994828965
 20
29.9296971144696009
 30
0.0
  0
VERTEX
  5
3679
  8
0
 10
364.2127530971134206
 20
29.8368639856654383
 30
0.0
  0
VERTEX
  5
367A
  8
0
 10
364.3163237228525873
 20
29.7536551134661096
 30
0.0
  0
VERTEX
  5
367B
  8
0
 10
364.4202549498305075
 20
29.6816716723765488
 30
0.0
  0
VERTEX
  5
367C
  8
0
 10
364.5244946533740062
 20
29.6225346563653105
 30
0.0
  0
VERTEX
  5
367D
  8
0
 10
364.6289907088104769
 20
29.5778650594009314
 30
0.0
  0
VERTEX
  5
367E
  8
0
 10
364.7336909920297217
 20
29.5492809036864799
 30
0.0
  0
VERTEX
  5
367F
  8
0
 10
364.8385437089299899
 20
29.5366562933422401
 30
0.0
  0
VERTEX
  5
3680
  8
0
 10
365.0485029541874269
 20
29.5000000000000817
 30
0.0
  0
SEQEND
  5
3681
  8
0
  0
LINE
  5
31C2
  8
3
 10
352.25
 20
74.2330000000000041
 30
0.0
 11
347.75
 21
74.2330000000000041
 31
0.0
  0
LINE
  5
3249
  8
0
 10
258.2499999999993747
 20
67.6000000000000512
 30
0.0
 11
258.2499999999993747
 21
67.1737444955955993
 31
0.0
  0
ARC
  5
324A
  8
0
 10
258.8999999999992951
 20
67.6000000000002217
 30
0.0
 40
0.6499999999998636
 50
89.9999999999869686
 51
180.0000000000129887
  0
LINE
  5
3263
  8
0
 10
266.4820508075681005
 20
147.0000000000007958
 30
0.0
 11
268.2141016151371105
 21
150.0000000000007958
 31
0.0
  0
LINE
  5
3264
  8
0
 10
268.2141016151371105
 20
150.0000000000007958
 30
0.0
 11
266.4820508075681005
 21
153.0000000000003979
 31
0.0
  0
LINE
  5
3265
  8
0
 10
266.4820508075681005
 20
153.0000000000003979
 30
0.0
 11
263.01794919242991
 21
153.0000000000003979
 31
0.0
  0
LINE
  5
3266
  8
0
 10
263.01794919242991
 20
153.0000000000003979
 30
0.0
 11
261.2858983848615821
 21
150.0000000000003979
 31
0.0
  0
LINE
  5
3267
  8
0
 10
261.2858983848615821
 20
150.0000000000003979
 30
0.0
 11
263.0179491924308763
 21
147.0000000000001137
 31
0.0
  0
LINE
  5
3268
  8
0
 10
263.0179491924308763
 20
147.0000000000001137
 30
0.0
 11
266.4820508075681005
 21
147.0000000000007958
 31
0.0
  0
LINE
  5
3269
  8
0
 10
202.2320508075681005
 20
147.0000000000007958
 30
0.0
 11
203.9641016151369968
 21
150.0000000000007958
 31
0.0
  0
LINE
  5
326A
  8
0
 10
203.9641016151369968
 20
150.0000000000007958
 30
0.0
 11
202.2320508075681005
 21
153.0000000000005116
 31
0.0
  0
LINE
  5
326B
  8
0
 10
202.2320508075681005
 20
153.0000000000005116
 30
0.0
 11
198.7679491924297963
 21
153.0000000000005116
 31
0.0
  0
LINE
  5
326C
  8
0
 10
198.7679491924297963
 20
153.0000000000005116
 30
0.0
 11
197.0358983848616106
 21
150.0000000000005116
 31
0.0
  0
LINE
  5
326D
  8
0
 10
197.0358983848616106
 20
150.0000000000005116
 30
0.0
 11
198.7679491924309048
 21
147.0000000000001137
 31
0.0
  0
LINE
  5
326E
  8
0
 10
198.7679491924309048
 20
147.0000000000001137
 30
0.0
 11
202.2320508075681005
 21
147.0000000000007958
 31
0.0
  0
ENDSEC
  0
EOF
