  0
SECTION
  2
HEADER
  9
$ACADVER
  1
AC1009
  9
$INSBASE
 10
0.0
 20
0.0
 30
0.0
  9
$EXTMIN
 10
0.0
 20
-2.960436562073669
 30
0.0
  9
$EXTMAX
 10
250.6519923197543
 20
183.5
 30
0.0
  9
$LIMMIN
 10
0.0
 20
0.0
  9
$LIMMAX
 10
750.0
 20
540.0
  9
$ORTHOMODE
 70
     1
  9
$REGENMODE
 70
     1
  9
$FILLMODE
 70
     1
  9
$QTEXTMODE
 70
     0
  9
$MIRRTEXT
 70
     0
  9
$DRAGMODE
 70
     2
  9
$LTSCALE
 40
20.0
  9
$OSMODE
 70
    55
  9
$ATTMODE
 70
     1
  9
$TEXTSIZE
 40
0.2
  9
$TRACEWID
 40
0.05
  9
$TEXTSTYLE
  7
STANDARD
  9
$CLAYER
  8
0
  9
$CELTYPE
  6
BYLAYER
  9
$CECOLOR
 62
   256
  9
$DIMSCALE
 40
1.0
  9
$DIMASZ
 40
3.0
  9
$DIMEXO
 40
2.0
  9
$DIMDLI
 40
0.38
  9
$DIMRND
 40
0.0
  9
$DIMDLE
 40
0.0
  9
$DIMEXE
 40
2.0
  9
$DIMTP
 40
0.0
  9
$DIMTM
 40
0.0
  9
$DIMTXT
 40
3.2000000000000002
  9
$DIMCEN
 40
0.0
  9
$DIMTSZ
 40
0.0
  9
$DIMTOL
 70
     0
  9
$DIMLIM
 70
     0
  9
$DIMTIH
 70
     0
  9
$DIMTOH
 70
     0
  9
$DIMSE1
 70
     0
  9
$DIMSE2
 70
     0
  9
$DIMTAD
 70
     1
  9
$DIMZIN
 70
     0
  9
$DIMBLK
  1

  9
$DIMASO
 70
     0
  9
$DIMSHO
 70
     0
  9
$DIMPOST
  1

  9
$DIMAPOST
  1

  9
$DIMALT
 70
     0
  9
$DIMALTD
 70
     2
  9
$DIMALTF
 40
25.399999999999999
  9
$DIMLFAC
 40
1.0
  9
$DIMTOFL
 70
     0
  9
$DIMTVP
 40
1.6000000000000001
  9
$DIMTIX
 70
     1
  9
$DIMSOXD
 70
     0
  9
$DIMSAH
 70
     0
  9
$DIMBLK1
  1

  9
$DIMBLK2
  1

  9
$DIMSTYLE
  2
STANDARD
  9
$DIMCLRD
 70
     0
  9
$DIMCLRE
 70
     0
  9
$DIMCLRT
 70
     0
  9
$DIMTFAC
 40
1.0
  9
$DIMGAP
 40
0.09
  9
$LUNITS
 70
     2
  9
$LUPREC
 70
     4
  9
$SKETCHINC
 40
0.1
  9
$FILLETRAD
 40
0.0
  9
$AUNITS
 70
     0
  9
$AUPREC
 70
     4
  9
$MENU
  1
E:\r13\win\SUPPORT\ACAD
  9
$ELEVATION
 40
0.0
  9
$PELEVATION
 40
0.0
  9
$THICKNESS
 40
0.0
  9
$LIMCHECK
 70
     0
  9
$BLIPMODE
 70
     0
  9
$CHAMFERA
 40
0.0
  9
$CHAMFERB
 40
0.0
  9
$SKPOLY
 70
     0
  9
$TDCREATE
 40
2449840.6227546302
  9
$TDUPDATE
 40
2456598.4369109259
  9
$TDINDWG
 40
0.0870294329
  9
$TDUSRTIMER
 40
0.0870294329
  9
$USRTIMER
 70
     1
  9
$ANGBASE
 50
0.0
  9
$ANGDIR
 70
     0
  9
$PDMODE
 70
     0
  9
$PDSIZE
 40
0.0
  9
$PLINEWID
 40
0.0
  9
$COORDS
 70
     1
  9
$SPLFRAME
 70
     0
  9
$SPLINETYPE
 70
     6
  9
$SPLINESEGS
 70
     8
  9
$ATTDIA
 70
     0
  9
$ATTREQ
 70
     1
  9
$HANDLING
 70
     1
  9
$HANDSEED
  5
72BA
  9
$SURFTAB1
 70
     6
  9
$SURFTAB2
 70
     6
  9
$SURFTYPE
 70
     6
  9
$SURFU
 70
     6
  9
$SURFV
 70
     6
  9
$UCSNAME
  2

  9
$UCSORG
 10
0.0
 20
0.0
 30
0.0
  9
$UCSXDIR
 10
1.0
 20
0.0
 30
0.0
  9
$UCSYDIR
 10
0.0
 20
1.0
 30
0.0
  9
$PUCSNAME
  2

  9
$PUCSORG
 10
0.0
 20
0.0
 30
0.0
  9
$PUCSXDIR
 10
1.0
 20
0.0
 30
0.0
  9
$PUCSYDIR
 10
0.0
 20
1.0
 30
0.0
  9
$USERI1
 70
     0
  9
$USERI2
 70
     1
  9
$USERI3
 70
     0
  9
$USERI4
 70
     0
  9
$USERI5
 70
     0
  9
$USERR1
 40
0.0
  9
$USERR2
 40
0.0
  9
$USERR3
 40
0.0
  9
$USERR4
 40
0.0
  9
$USERR5
 40
0.0
  9
$WORLDVIEW
 70
     1
  9
$SHADEDGE
 70
     3
  9
$SHADEDIF
 70
    70
  9
$TILEMODE
 70
     1
  9
$MAXACTVP
 70
    16
  9
$PLIMCHECK
 70
     0
  9
$PEXTMIN
 10
1.0000000000000000E+020
 20
1.0000000000000000E+020
 30
1.0000000000000000E+020
  9
$PEXTMAX
 10
-1.0000000000000000E+020
 20
-1.0000000000000000E+020
 30
-1.0000000000000000E+020
  9
$PLIMMIN
 10
0.0
 20
0.0
  9
$PLIMMAX
 10
12.0
 20
9.0
  9
$UNITMODE
 70
     0
  9
$VISRETAIN
 70
     0
  9
$PLINEGEN
 70
     0
  9
$PSLTSCALE
 70
     0
  0
ENDSEC
  0
SECTION
  2
TABLES
  0
TABLE
  2
VPORT
 70
     1
  0
VPORT
  2
*ACTIVE
 70
     0
 10
0.0
 20
0.0
 11
1.0
 21
1.0
 12
374.98855678130462
 22
394.89452070385119
 13
0.0
 23
0.0
 14
20.0
 24
20.0
 15
20.0
 25
20.0
 16
0.0
 26
0.0
 36
1.0
 17
0.0
 27
0.0
 37
0.0
 40
802.76084457946263
 41
1.7807262569832401
 42
50.0
 43
0.0
 44
0.0
 50
0.0
 51
0.0
 71
     0
 72
   100
 73
     1
 74
     0
 75
     0
 76
     0
 77
     0
 78
     2
  0
ENDTAB
  0
TABLE
  2
LTYPE
 70
     4
  0
LTYPE
  2
CONTINUOUS
 70
     0
  3
Solid Line
 72
    65
 73
     0
 40
0.0
  0
LTYPE
  2
CENTER
 70
     0
  3
____ _ ____ _ ____ _ ____ _ ____ _ ____ _ ____
 72
    65
 73
     4
 40
2.0
 49
1.25
 49
-0.25
 49
0.25
 49
-0.25
  0
LTYPE
  2
HIDDEN
 70
     0
  3
_ _ _ _ _ _ _ _ _ _ _ _ _ _ _ _ _ _ _ _ _ _ _
 72
    65
 73
     2
 40
0.375
 49
0.25
 49
-0.125
  0
LTYPE
  2
PHANTOM2
 70
     0
  3
___ _ _ ___ _ _ ___ _ _ ___ _ _
 72
    65
 73
     6
 40
1.25
 49
0.625
 49
-0.125
 49
0.125
 49
-0.125
 49
0.125
 49
-0.125
  0
ENDTAB
  0
TABLE
  2
LAYER
 70
     5
  0
LAYER
  2
0
 70
     0
 62
     7
  6
CONTINUOUS
  0
LAYER
  2
1
 70
     0
 62
     1
  6
CENTER
  0
LAYER
  2
2
 70
     0
 62
     2
  6
HIDDEN
  0
LAYER
  2
3
 70
     0
 62
     3
  6
CONTINUOUS
  0
LAYER
  2
DEFPOINTS
 70
     0
 62
     7
  6
CONTINUOUS
  0
ENDTAB
  0
TABLE
  2
STYLE
 70
     2
  0
STYLE
  2
STANDARD
 70
     0
 40
0.0
 41
1.0
 50
0.0
 71
     0
 42
0.2
  3
TXT
  4
BIGFONT
  0
STYLE
  2
STANDARD1
 70
     0
 40
0.0
 41
1.0
 50
0.0
 71
     0
 42
3.0
  3
txt
  4

  0
ENDTAB
  0
TABLE
  2
VIEW
 70
     1
  0
VIEW
  2
ALL
 70
     0
 40
540.0
 10
441.98319299999991
 20
270.0
 41
0.0
 11
0.0
 21
0.0
 31
1.0
 12
0.0
 22
0.0
 32
0.0
 42
0.0
 43
0.0
 44
0.0
 50
0.0
 71
     0
  0
ENDTAB
  0
TABLE
  2
UCS
 70
     0
  0
ENDTAB
  0
TABLE
  2
APPID
 70
     6
  0
APPID
  2
ACAD
 70
     0
  0
APPID
  2
ACAD_NAV_VCDISPLAY
 70
     0
  0
APPID
  2
ACAD_EXEMPT_FROM_CAD_STANDARDS
 70
     0
  0
APPID
  2
ACAD_DSTYLE_DIMJAG
 70
     0
  0
APPID
  2
ACAD_DSTYLE_DIMTALN
 70
     0
  0
APPID
  2
ACAD_MLEADERVER
 70
     0
  0
ENDTAB
  0
TABLE
  2
DIMSTYLE
 70
     1
  0
DIMSTYLE
  2
STANDARD
 70
     0
  3

  4

  5

  6

  7

 40
1.0
 41
0.18
 42
0.0625
 43
0.38
 44
0.18
 45
0.0
 46
0.0
 47
0.0
 48
0.0
140
0.18
141
0.09
142
0.0
143
25.399999999999999
144
1.0
145
0.0
146
1.0
147
0.09
 71
     0
 72
     0
 73
     1
 74
     1
 75
     0
 76
     0
 77
     0
 78
     0
170
     0
171
     2
172
     0
173
     0
174
     0
175
     0
176
     0
177
     0
178
     0
  0
ENDTAB
  0
ENDSEC
  0
SECTION
  2
BLOCKS
  0
BLOCK
  8
0
  2
$MODEL_SPACE
 70
     0
 10
0.0
 20
0.0
 30
0.0
  3
$MODEL_SPACE
  1

  0
ENDBLK
  5
11D
  8
0
  0
BLOCK
 67
     1
  8
0
  2
$PAPER_SPACE
 70
     0
 10
0.0
 20
0.0
 30
0.0
  3
$PAPER_SPACE
  1

  0
ENDBLK
  5
11B
 67
     1
  8
0
  0
ENDSEC
  0
SECTION
  2
ENTITIES
  0
LINE
  5
6E80
  8
1
 10
99.999999999999091
 20
183.5
 30
0.0
 11
100.0
 21
45.000000000000021
 31
0.0
1001
ACAD
1000
ASC_BOUNDS
1002
{
1070
    19
1002
}
  0
LINE
  5
6E82
  8
0
 10
124.4999999999982
 20
101.5000000000009
 30
0.0
 11
124.4999999999973
 21
70.499999999999091
 31
0.0
1001
ACAD
1000
ASC_BOUNDS
1002
{
1070
    19
1005
0
1002
}
  0
LINE
  5
6E83
  8
0
 10
115.4999999999991
 20
101.5000000000009
 30
0.0
 11
115.4999999999982
 21
70.499999999999091
 31
0.0
1001
ACAD
1000
ASC_BOUNDS
1002
{
1070
    19
1005
0
1002
}
  0
LINE
  5
6E84
  8
1
 10
79.999999999999091
 20
63.0
 30
0.0
 11
79.999999999999091
 21
109.0
 31
0.0
  0
LINE
  5
6E85
  8
0
 10
69.999999999999091
 20
58.5
 30
0.0
 11
69.999999999999091
 21
113.5
 31
0.0
  0
LINE
  5
6E86
  8
0
 10
75.5
 20
101.5000000000009
 30
0.0
 11
75.500000000000909
 21
70.499999999999091
 31
0.0
1001
ACAD
1000
ASC_BOUNDS
1002
{
1070
    19
1005
0
1002
}
  0
LINE
  5
6E87
  8
0
 10
84.499999999999076
 20
101.5000000000009
 30
0.0
 11
84.500000000000014
 21
70.499999999999091
 31
0.0
1001
ACAD
1000
ASC_BOUNDS
1002
{
1070
    19
1005
0
1002
}
  0
LINE
  5
6E88
  8
0
 10
129.99999999999909
 20
113.5
 30
0.0
 11
129.99999999999909
 21
58.5
 31
0.0
  0
LINE
  5
6E89
  8
0
 10
129.99999999999909
 20
113.5
 30
0.0
 11
129.99999999999909
 21
58.5
 31
0.0
  0
LINE
  5
6E8A
  8
0
 10
125.0
 20
53.5
 30
0.0
 11
75.0
 21
53.5
 31
0.0
1001
ACAD
1000
ASC_BOUNDS
1002
{
1070
    19
1005
0
1005
0
1005
0
1005
0
1005
0
1005
0
1005
0
1002
}
  0
LINE
  5
6E8C
  8
1
 10
73.120851129217954
 20
70.499999999999091
 30
0.0
 11
86.879148870780213
 21
70.499999999999091
 31
0.0
  0
ARC
  5
6E8D
  8
0
 10
74.999999999999091
 20
58.5
 30
0.0
 40
5.0
 50
180.0
 51
270.0
1001
ACAD
1000
ASC_BOUNDS
1002
{
1070
    19
1005
0
1002
}
  0
ARC
  5
6E8E
  8
0
 10
79.999999999999091
 20
70.499999999999091
 30
0.0
 40
4.4999999999990896
 50
180.0
 51
0.0
  0
ARC
  5
6E8F
  8
0
 10
119.9999999999991
 20
70.499999999999091
 30
0.0
 40
4.4999999999990896
 50
180.0
 51
0.0
  0
ARC
  5
6E91
  8
0
 10
124.9999999999991
 20
58.5
 30
0.0
 40
5.0
 50
270.0
 51
0.0
1001
ACAD
1000
ASC_BOUNDS
1002
{
1070
    19
1005
0
1002
}
  0
LINE
  5
6E93
  8
0
 10
90.999999999999091
 20
145.0
 30
0.0
 11
108.9999999999991
 21
145.0
 31
0.0
  0
LINE
  5
6E94
  8
0
 10
74.999999999999091
 20
118.5
 30
0.0
 11
124.9999999999991
 21
118.5
 31
0.0
1001
ACAD
1000
ASC_BOUNDS
1002
{
1070
    19
1005
0
1005
0
1005
0
1005
0
1005
0
1005
0
1005
0
1005
0
1005
0
1005
0
1005
0
1005
0
1005
0
1005
0
1005
0
1005
0
1005
0
1005
0
1005
0
1005
0
1005
0
1005
0
1005
0
1005
0
1002
}
  0
LINE
  5
6E95
  8
0
 10
90.999999999999091
 20
118.5
 30
0.0
 11
90.999999999999091
 21
145.0
 31
0.0
  0
LINE
  5
6E96
  8
1
 10
73.120851129217954
 20
101.5000000000009
 30
0.0
 11
86.879148870780213
 21
101.5000000000009
 31
0.0
  0
ARC
  5
6E97
  8
0
 10
74.999999999999091
 20
113.5
 30
0.0
 40
5.0
 50
90.0
 51
180.0
1001
ACAD
1000
ASC_BOUNDS
1002
{
1070
    19
1005
0
1002
}
  0
ARC
  5
6E98
  8
0
 10
79.999999999999091
 20
101.5000000000009
 30
0.0
 40
4.4999999999990896
 50
0.0
 51
180.0
  0
LINE
  5
6E99
  8
0
 10
90.999999999999091
 20
145.0
 30
0.0
 11
91.499999999999091
 21
145.5
 31
0.0
  0
LINE
  5
6E9A
  8
0
 10
108.9999999999991
 20
118.5
 30
0.0
 11
108.9999999999991
 21
145.0
 31
0.0
  0
ARC
  5
6E9B
  8
0
 10
119.9999999999991
 20
101.5000000000009
 30
0.0
 40
4.4999999999990896
 50
0.0
 51
180.0
  0
ARC
  5
6E9C
  8
0
 10
124.9999999999991
 20
113.5
 30
0.0
 40
5.0
 50
0.0
 51
90.0
1001
ACAD
1000
ASC_BOUNDS
1002
{
1070
    19
1005
0
1002
}
  0
LINE
  5
6E9E
  8
0
 10
108.9999999999991
 20
145.0
 30
0.0
 11
108.4999999999991
 21
145.5
 31
0.0
  0
LINE
  5
6EA0
  8
0
 10
247.65199231975339
 20
53.500000000000448
 30
0.0
 11
212.65199231975339
 21
53.500000000000448
 31
0.0
  0
LINE
  5
6EA4
  8
2
 10
212.6519923197543
 20
66.0
 30
0.0
 11
247.65199231975421
 21
66.0
 31
0.0
  0
LINE
  5
6EA5
  8
2
 10
212.6519923197543
 20
105.9999999999995
 30
0.0
 11
247.65199231975421
 21
105.9999999999995
 31
0.0
  0
LINE
  5
6EA9
  8
0
 10
247.65199231975421
 20
118.5
 30
0.0
 11
212.6519923197543
 21
118.5
 31
0.0
1001
ACAD
1000
ASC_BOUNDS
1002
{
1070
    19
1005
0
1005
0
1005
0
1005
0
1005
0
1005
0
1002
}
  0
LINE
  5
6EAB
  8
1
 10
230.15199231975339
 20
45.0
 30
0.0
 11
230.15199231975339
 21
183.49999999999989
 31
0.0
  0
LINE
  5
6EAC
  8
0
 10
212.6519923197543
 20
118.5
 30
0.0
 11
212.6519923197543
 21
53.5
 31
0.0
1001
ACAD
1000
ASC_BOUNDS
1002
{
1070
    19
1005
0
1002
}
  0
LINE
  5
6EAF
  8
0
 10
221.1519923197533
 20
118.5000000000004
 30
0.0
 11
221.1519923197533
 21
145.0000000000002
 31
0.0
  0
LINE
  5
6EB0
  8
0
 10
239.15199231975339
 20
118.5000000000004
 30
0.0
 11
239.15199231975311
 21
145.00000000000071
 31
0.0
  0
LINE
  5
6EB1
  8
0
 10
221.1519923197533
 20
145.0000000000004
 30
0.0
 11
239.15199231975339
 21
145.0000000000004
 31
0.0
  0
LINE
  5
6EB2
  8
0
 10
221.1519923197533
 20
145.0000000000004
 30
0.0
 11
221.65199231975339
 21
145.5000000000004
 31
0.0
  0
LINE
  5
6EB4
  8
0
 10
239.15199231975339
 20
145.0000000000004
 30
0.0
 11
238.65199231975339
 21
145.5000000000004
 31
0.0
  0
LINE
  5
6EB5
  8
0
 10
247.65199231975421
 20
53.5
 30
0.0
 11
247.65199231975421
 21
118.5
 31
0.0
1001
ACAD
1000
ASC_BOUNDS
1002
{
1070
    19
1005
0
1002
}
  0
LINE
  5
6EB6
  8
0
 10
117.4999999999991
 20
50.0
 30
0.0
 11
82.499999999999091
 21
50.0
 31
0.0
1001
ACAD
1000
ASC_BOUNDS
1002
{
1070
    19
1002
}
  0
LINE
  5
6EB7
  8
0
 10
82.499999999999091
 20
50.0
 30
0.0
 11
82.499999999999091
 21
53.5
 31
0.0
  0
LINE
  5
6EB8
  8
0
 10
117.4999999999991
 20
50.0
 30
0.0
 11
117.4999999999991
 21
53.5
 31
0.0
1001
ACAD
1000
ASC_BOUNDS
1002
{
1070
    19
1002
}
  0
LINE
  5
6EB9
  8
0
 10
92.911276560620067
 20
50.0
 30
0.0
 11
92.911276560620195
 21
53.5
 31
0.0
  0
LINE
  5
6EBA
  8
0
 10
89.687955259137652
 20
50.0
 30
0.0
 11
89.687955259137652
 21
53.5
 31
0.0
  0
LINE
  5
6EBB
  8
0
 10
110.3120447408607
 20
50.0
 30
0.0
 11
110.3120447408607
 21
53.5
 31
0.0
  0
LINE
  5
6EBC
  8
0
 10
107.0887234393783
 20
50.0
 30
0.0
 11
107.0887234393782
 21
53.5
 31
0.0
  0
LINE
  5
6EBF
  8
0
 10
231.7636529704946
 20
50.0
 30
0.0
 11
231.7636529704948
 21
53.500000000000007
 31
0.0
  0
LINE
  5
6EC0
  8
0
 10
228.54033166901209
 20
50.0
 30
0.0
 11
228.54033166901209
 21
53.500000000000007
 31
0.0
  0
LINE
  5
6EC3
  8
0
 10
214.15199231975339
 20
53.5
 30
0.0
 11
214.15199231975339
 21
50.0
 31
0.0
  0
LINE
  5
6EC4
  8
0
 10
246.1519923197533
 20
53.5
 30
0.0
 11
246.1519923197533
 21
50.0
 31
0.0
  0
LINE
  5
6EC5
  8
0
 10
129.99999999999949
 20
58.5
 30
0.0
 11
129.99999999999949
 21
113.5
 31
0.0
  0
LINE
  5
6ED7
  8
0
 10
214.15199231975339
 20
50.0
 30
0.0
 11
246.1519923197533
 21
50.0
 31
0.0
  0
ARC
  5
6F40
  8
0
 10
99.999999999999318
 20
143.5
 30
0.0
 40
35.0
 50
3.275828959802856
 51
176.72417104019709
  0
LINE
  5
6F41
  8
0
 10
65.057189580687009
 20
145.5
 30
0.0
 11
134.9428104193116
 21
145.5
 31
0.0
1001
ACAD
1000
ASC_BOUNDS
1002
{
1070
    19
1005
0
1002
}
  0
ARC
  5
6F42
  8
0
 10
99.999999999999318
 20
143.5
 30
0.0
 40
32.0
 50
3.583321698471972
 51
176.41667830152801
  0
LINE
  5
6F44
  8
0
 10
226.65199231975339
 20
178.5
 30
0.0
 11
233.65199231975339
 21
178.5
 31
0.0
  0
LINE
  5
6F45
  8
0
 10
222.15199231975339
 20
175.5
 30
0.0
 11
226.65199231975339
 21
175.5
 31
0.0
  0
LINE
  5
6F46
  8
0
 10
233.65199231975339
 20
175.5
 30
0.0
 11
238.15199231975339
 21
175.5
 31
0.0
  0
LINE
  5
6F48
  8
0
 10
221.65199231975339
 20
145.5000000000004
 30
0.0
 11
238.65199231975339
 21
145.5000000000004
 31
0.0
  0
LINE
  5
6F49
  8
0
 10
226.65199231975339
 20
178.5000000000004
 30
0.0
 11
226.65199231975339
 21
145.5000000000004
 31
0.0
  0
LINE
  5
6F4A
  8
0
 10
222.15199231975339
 20
175.5000000000004
 30
0.0
 11
222.15199231975339
 21
145.5000000000004
 31
0.0
  0
LINE
  5
6F4C
  8
0
 10
238.15199231975339
 20
175.5000000000004
 30
0.0
 11
238.15199231975339
 21
145.5000000000004
 31
0.0
  0
LINE
  5
6F4D
  8
0
 10
233.65199231975339
 20
178.5000000000004
 30
0.0
 11
233.65199231975339
 21
145.5000000000004
 31
0.0
  0
CIRCLE
  5
6F50
  8
3
 10
230.15199231975339
 20
111.0
 30
0.0
 40
3.25
  0
LINE
  5
6F51
  8
1
 10
223.15199231975339
 20
111.0
 30
0.0
 11
237.15199231975339
 21
111.0
 31
0.0
  0
POLYLINE
  5
6F52
  8
0
 66
     1
 10
0.0
 20
0.0
 30
0.0
 70
     1
  0
VERTEX
  5
72AF
  8
0
 10
228.99729178137409
 20
113.0
 30
0.0
  0
VERTEX
  5
72B0
  8
0
 10
227.8425912429949
 20
111.0
 30
0.0
  0
VERTEX
  5
72B1
  8
0
 10
228.99729178137409
 20
109.0
 30
0.0
  0
VERTEX
  5
72B2
  8
0
 10
231.30669285813269
 20
109.0
 30
0.0
  0
VERTEX
  5
72B3
  8
0
 10
232.46139339651191
 20
111.0
 30
0.0
  0
VERTEX
  5
72B4
  8
0
 10
231.30669285813269
 20
113.0
 30
0.0
  0
SEQEND
  5
72B5
  8
0
  0
LINE
  5
711B
  8
1
 10
119.9999999999991
 20
63.0
 30
0.0
 11
119.9999999999991
 21
109.0
 31
0.0
  0
LINE
  5
711C
  8
1
 10
113.1208511292179
 20
70.499999999999091
 30
0.0
 11
126.8791488707802
 21
70.499999999999091
 31
0.0
  0
LINE
  5
711D
  8
1
 10
113.1208511292179
 20
101.5000000000009
 30
0.0
 11
126.8791488707802
 21
101.5000000000009
 31
0.0
  0
LINE
  5
7120
  8
1
 10
209.6519923197543
 20
101.5000000000009
 30
0.0
 11
250.6519923197543
 21
101.5000000000009
 31
0.0
  0
LINE
  5
7121
  8
1
 10
209.6519923197543
 20
70.499999999999091
 30
0.0
 11
250.6519923197543
 21
70.499999999999091
 31
0.0
  0
CIRCLE
  5
7125
  8
0
 10
230.15199231975339
 20
111.0
 30
0.0
 40
4.0
  0
TEXT
  5
7253
  8
0
 62
     3
 10
0.0
 20
0.0
 30
0.0
 40
10.0
  1
TC-TBV40L
  7
STANDARD1
  0
ENDSEC
  0
EOF
