  0
SECTION
  2
HEADER
  9
$ACADVER
  1
AC1009
  9
$INSBASE
 10
0.0
 20
0.0
 30
0.0
  9
$EXTMIN
 10
0.0
 20
-1.4802182810368341
 30
0.0
  9
$EXTMAX
 10
94.70000160322445
 20
42.931033398050587
 30
0.0
  9
$LIMMIN
 10
0.0
 20
0.0
  9
$LIMMAX
 10
187.5
 20
135.0
  9
$ORTHOMODE
 70
     1
  9
$REGENMODE
 70
     1
  9
$FILLMODE
 70
     1
  9
$QTEXTMODE
 70
     0
  9
$MIRRTEXT
 70
     0
  9
$DRAGMODE
 70
     2
  9
$LTSCALE
 40
5.0
  9
$OSMODE
 70
  3071
  9
$ATTMODE
 70
     1
  9
$TEXTSIZE
 40
2.0
  9
$TRACEWID
 40
0.05
  9
$TEXTSTYLE
  7
STANDARD
  9
$CLAYER
  8
0
  9
$CELTYPE
  6
BYLAYER
  9
$CECOLOR
 62
   256
  9
$DIMSCALE
 40
0.5
  9
$DIMASZ
 40
3.0
  9
$DIMEXO
 40
2.0
  9
$DIMDLI
 40
10.0
  9
$DIMRND
 40
0.0
  9
$DIMDLE
 40
0.0
  9
$DIMEXE
 40
2.0
  9
$DIMTP
 40
0.0
  9
$DIMTM
 40
0.0
  9
$DIMTXT
 40
3.2000000000000002
  9
$DIMCEN
 40
0.09
  9
$DIMTSZ
 40
0.0
  9
$DIMTOL
 70
     0
  9
$DIMLIM
 70
     0
  9
$DIMTIH
 70
     0
  9
$DIMTOH
 70
     0
  9
$DIMSE1
 70
     0
  9
$DIMSE2
 70
     0
  9
$DIMTAD
 70
     1
  9
$DIMZIN
 70
     0
  9
$DIMBLK
  1

  9
$DIMASO
 70
     0
  9
$DIMSHO
 70
     0
  9
$DIMPOST
  1

  9
$DIMAPOST
  1

  9
$DIMALT
 70
     0
  9
$DIMALTD
 70
     2
  9
$DIMALTF
 40
25.399999999999999
  9
$DIMLFAC
 40
1.0
  9
$DIMTOFL
 70
     1
  9
$DIMTVP
 40
1.6000000000000001
  9
$DIMTIX
 70
     1
  9
$DIMSOXD
 70
     0
  9
$DIMSAH
 70
     0
  9
$DIMBLK1
  1

  9
$DIMBLK2
  1

  9
$DIMSTYLE
  2
STANDARD
  9
$DIMCLRD
 70
     0
  9
$DIMCLRE
 70
     0
  9
$DIMCLRT
 70
     0
  9
$DIMTFAC
 40
1.0
  9
$DIMGAP
 40
0.09
  9
$LUNITS
 70
     2
  9
$LUPREC
 70
     4
  9
$SKETCHINC
 40
0.1
  9
$FILLETRAD
 40
0.0
  9
$AUNITS
 70
     0
  9
$AUPREC
 70
     0
  9
$MENU
  1
E:\r13\win\SUPPORT\ACAD
  9
$ELEVATION
 40
0.0
  9
$PELEVATION
 40
0.0
  9
$THICKNESS
 40
0.0
  9
$LIMCHECK
 70
     0
  9
$BLIPMODE
 70
     0
  9
$CHAMFERA
 40
0.0
  9
$CHAMFERB
 40
0.0
  9
$SKPOLY
 70
     0
  9
$TDCREATE
 40
2449840.5950925932
  9
$TDUPDATE
 40
2456602.6145700701
  9
$TDINDWG
 40
0.0077644907
  9
$TDUSRTIMER
 40
2456598.3341957638
  9
$USRTIMER
 70
     1
  9
$ANGBASE
 50
0.0
  9
$ANGDIR
 70
     0
  9
$PDMODE
 70
     0
  9
$PDSIZE
 40
0.0
  9
$PLINEWID
 40
0.0
  9
$COORDS
 70
     1
  9
$SPLFRAME
 70
     0
  9
$SPLINETYPE
 70
     6
  9
$SPLINESEGS
 70
     8
  9
$ATTDIA
 70
     0
  9
$ATTREQ
 70
     1
  9
$HANDLING
 70
     1
  9
$HANDSEED
  5
61C
  9
$SURFTAB1
 70
     6
  9
$SURFTAB2
 70
     6
  9
$SURFTYPE
 70
     6
  9
$SURFU
 70
     6
  9
$SURFV
 70
     6
  9
$UCSNAME
  2

  9
$UCSORG
 10
0.0
 20
0.0
 30
0.0
  9
$UCSXDIR
 10
1.0
 20
0.0
 30
0.0
  9
$UCSYDIR
 10
0.0
 20
1.0
 30
0.0
  9
$PUCSNAME
  2

  9
$PUCSORG
 10
0.0
 20
0.0
 30
0.0
  9
$PUCSXDIR
 10
1.0
 20
0.0
 30
0.0
  9
$PUCSYDIR
 10
0.0
 20
1.0
 30
0.0
  9
$USERI1
 70
     0
  9
$USERI2
 70
     1
  9
$USERI3
 70
     0
  9
$USERI4
 70
     0
  9
$USERI5
 70
     0
  9
$USERR1
 40
0.0
  9
$USERR2
 40
0.0
  9
$USERR3
 40
0.0
  9
$USERR4
 40
0.0
  9
$USERR5
 40
0.0
  9
$WORLDVIEW
 70
     1
  9
$SHADEDGE
 70
     3
  9
$SHADEDIF
 70
    70
  9
$TILEMODE
 70
     1
  9
$MAXACTVP
 70
    16
  9
$PLIMCHECK
 70
     0
  9
$PEXTMIN
 10
1.0000000000000000E+020
 20
1.0000000000000000E+020
 30
1.0000000000000000E+020
  9
$PEXTMAX
 10
-1.0000000000000000E+020
 20
-1.0000000000000000E+020
 30
-1.0000000000000000E+020
  9
$PLIMMIN
 10
0.0
 20
0.0
  9
$PLIMMAX
 10
12.0
 20
9.0
  9
$UNITMODE
 70
     0
  9
$VISRETAIN
 70
     0
  9
$PLINEGEN
 70
     0
  9
$PSLTSCALE
 70
     0
  0
ENDSEC
  0
SECTION
  2
TABLES
  0
TABLE
  2
VPORT
 70
     1
  0
VPORT
  2
*ACTIVE
 70
     0
 10
0.0
 20
0.0
 11
1.0
 21
1.0
 12
93.747139195326156
 22
95.708553997498456
 13
0.0
 23
0.0
 14
5.0
 24
5.0
 15
5.0
 25
5.0
 16
0.0
 26
0.0
 36
1.0
 17
0.0
 27
0.0
 37
0.0
 40
196.1527818239488
 41
1.831871345029239
 42
50.0
 43
0.0
 44
0.0
 50
0.0
 51
0.0
 71
     0
 72
   100
 73
     1
 74
     0
 75
     0
 76
     0
 77
     0
 78
     0
  0
ENDTAB
  0
TABLE
  2
LTYPE
 70
     3
  0
LTYPE
  2
CONTINUOUS
 70
     0
  3
Solid Line
 72
    65
 73
     0
 40
0.0
  0
LTYPE
  2
CENTER
 70
     0
  3
____ _ ____ _ ____ _ ____ _ ____ _ ____ _ ____
 72
    65
 73
     4
 40
2.0
 49
1.25
 49
-0.25
 49
0.25
 49
-0.25
  0
LTYPE
  2
PHANTOM2
 70
     0
  3
___ _ _ ___ _ _ ___ _ _ ___ _ _
 72
    65
 73
     6
 40
1.25
 49
0.625
 49
-0.125
 49
0.125
 49
-0.125
 49
0.125
 49
-0.125
  0
ENDTAB
  0
TABLE
  2
LAYER
 70
     3
  0
LAYER
  2
0
 70
     0
 62
     7
  6
CONTINUOUS
  0
LAYER
  2
1
 70
     0
 62
     1
  6
CENTER
  0
LAYER
  2
3
 70
     0
 62
     3
  6
CONTINUOUS
  0
ENDTAB
  0
TABLE
  2
STYLE
 70
     2
  0
STYLE
  2
STANDARD
 70
     0
 40
0.0
 41
1.0
 50
0.0
 71
     0
 42
2.0
  3
TXT
  4
BIGFONT
  0
STYLE
  2
STANDARD1
 70
     0
 40
0.0
 41
1.0
 50
0.0
 71
     0
 42
3.0
  3
txt
  4

  0
ENDTAB
  0
TABLE
  2
VIEW
 70
     1
  0
VIEW
  2
ALL
 70
     0
 40
135.0
 10
110.49579799999999
 20
67.5
 41
0.0
 11
0.0
 21
0.0
 31
1.0
 12
0.0
 22
0.0
 32
0.0
 42
0.0
 43
0.0
 44
0.0
 50
0.0
 71
     0
  0
ENDTAB
  0
TABLE
  2
UCS
 70
     0
  0
ENDTAB
  0
TABLE
  2
APPID
 70
     3
  0
APPID
  2
ACAD
 70
     0
  0
APPID
  2
ACAD_MLEADERVER
 70
     0
  0
APPID
  2
ACAD_NAV_VCDISPLAY
 70
     0
  0
ENDTAB
  0
TABLE
  2
DIMSTYLE
 70
     1
  0
DIMSTYLE
  2
STANDARD
 70
     0
  3

  4

  5

  6

  7

 40
1.0
 41
0.18
 42
0.0625
 43
0.38
 44
0.18
 45
0.0
 46
0.0
 47
0.0
 48
0.0
140
0.18
141
0.09
142
0.0
143
25.399999999999999
144
1.0
145
0.0
146
1.0
147
0.09
 71
     0
 72
     0
 73
     1
 74
     1
 75
     0
 76
     0
 77
     0
 78
     0
170
     0
171
     2
172
     0
173
     0
174
     0
175
     0
176
     0
177
     0
178
     0
  0
ENDTAB
  0
ENDSEC
  0
SECTION
  2
BLOCKS
  0
BLOCK
  8
0
  2
$MODEL_SPACE
 70
     0
 10
0.0
 20
0.0
 30
0.0
  3
$MODEL_SPACE
  1

  0
ENDBLK
  5
116
  8
0
  0
BLOCK
 67
     1
  8
0
  2
$PAPER_SPACE
 70
     0
 10
0.0
 20
0.0
 30
0.0
  3
$PAPER_SPACE
  1

  0
ENDBLK
  5
114
 67
     1
  8
0
  0
ENDSEC
  0
SECTION
  2
ENTITIES
  0
LINE
  5
2C0
  8
0
 10
33.00891279544544
 20
31.931033398050602
 30
0.0
 11
33.633279745245893
 21
32.822721812883771
 31
0.0
  0
LINE
  5
2C1
  8
0
 10
33.633279745245893
 20
37.039344983217433
 30
0.0
 11
33.00891279544544
 21
37.931033398050602
 31
0.0
  0
ARC
  5
2C2
  8
0
 10
33.00891279544544
 20
37.550033398050601
 30
0.0
 40
0.3810000000000002
 50
90.0
 51
180.0
  0
ARC
  5
2C3
  8
0
 10
33.00891279544544
 20
32.312033398050602
 30
0.0
 40
0.3810000000000073
 50
180.0
 51
270.0
  0
ARC
  5
2C4
  8
0
 10
33.841344364495278
 20
32.677033398050611
 30
0.0
 40
0.2540000000000021
 50
90.0
 51
145.00000000000131
  0
ARC
  5
2C5
  8
0
 10
33.841344364495278
 20
37.185033398050621
 30
0.0
 40
0.2540000000000021
 50
214.99999999999989
 51
270.0
  0
LINE
  5
2C6
  8
0
 10
33.841344364495278
 20
32.931033398050602
 30
0.0
 11
34.127912795445468
 21
32.931033398050602
 31
0.0
  0
LINE
  5
2C7
  8
0
 10
34.127912795445468
 20
36.931033398050602
 30
0.0
 11
33.841344364495278
 21
36.931033398050602
 31
0.0
  0
LINE
  5
34C
  8
0
 10
33.00891279544544
 20
31.931033398050602
 30
0.0
 11
33.00891279544544
 21
37.931033398050602
 31
0.0
  0
LINE
  5
34D
  8
0
 10
32.627912795445468
 20
37.548551879020209
 30
0.0
 11
32.627912795445468
 21
37.550033398050601
 31
0.0
  0
LINE
  5
34E
  8
0
 10
32.627912795445468
 20
32.312033398050602
 30
0.0
 11
32.627912795445468
 21
37.548551879020209
 31
0.0
  0
LINE
  5
394
  8
0
 10
33.633279745245893
 20
32.822721812883771
 30
0.0
 11
33.633279745245893
 21
37.039344983217433
 31
0.0
  0
LINE
  5
395
  8
0
 10
33.841344364495278
 20
36.931033398050602
 30
0.0
 11
33.841344364495278
 21
32.931033398050602
 31
0.0
  0
CIRCLE
  5
3E6
  8
0
 10
15.05582398766648
 20
34.931033398050602
 30
0.0
 40
2.9999999999999951
  0
CIRCLE
  5
3E7
  8
0
 10
15.05582398766648
 20
34.931033398050602
 30
0.0
 40
3.6143595000000062
  0
CIRCLE
  5
3E8
  8
3
 10
15.05582398766648
 20
34.931033398050602
 30
0.0
 40
4.1879994999999894
  0
CIRCLE
  5
3EA
  8
0
 10
15.05582398766648
 20
34.931033398050602
 30
0.0
 40
4.9999999999999956
  0
CIRCLE
  5
40B
  8
0
 10
86.70000160322445
 20
34.931033398050602
 30
0.0
 40
3.6143595000000062
  0
CIRCLE
  5
40C
  8
3
 10
86.70000160322445
 20
34.931033398050602
 30
0.0
 40
4.1879994999999894
  0
ARC
  5
40D
  8
0
 10
86.70000160322445
 20
34.931033398050602
 30
0.0
 40
2.5781000000000072
 50
105.86109517616561
 51
134.13890482383289
  0
LINE
  5
40E
  8
0
 10
84.904612102500366
 20
36.781216132455476
 30
0.0
 11
84.20000160322445
 21
36.374409071024679
 31
0.0
  0
LINE
  5
40F
  8
0
 10
84.20000160322445
 20
36.374409071024679
 30
0.0
 11
84.20000160322445
 21
35.560794948163021
 31
0.0
  0
ARC
  5
410
  8
0
 10
86.70000160322445
 20
34.931033398050602
 30
0.0
 40
2.5781000000000551
 50
165.8610951761672
 51
194.13890482383971
  0
LINE
  5
411
  8
0
 10
84.20000160322445
 20
34.301271847937947
 30
0.0
 11
84.20000160322445
 21
33.487657725076531
 31
0.0
  0
LINE
  5
412
  8
0
 10
84.20000160322445
 20
33.487657725076531
 30
0.0
 11
84.904612102500366
 21
33.08085066364572
 31
0.0
  0
ARC
  5
413
  8
0
 10
86.70000160322445
 20
34.931033398050602
 30
0.0
 40
2.5781000000000041
 50
225.86109517616711
 51
254.13890482383439
  0
LINE
  5
414
  8
0
 10
85.995391103948464
 20
32.4510891135333
 30
0.0
 11
86.700001603224393
 21
32.044282052102488
 31
0.0
  0
LINE
  5
415
  8
0
 10
86.700001603224393
 20
32.044282052102488
 30
0.0
 11
87.404612102500366
 21
32.4510891135333
 31
0.0
  0
ARC
  5
416
  8
0
 10
86.70000160322445
 20
34.931033398050602
 30
0.0
 40
2.5781000000000041
 50
285.86109517616859
 51
314.13890482383408
  0
LINE
  5
417
  8
0
 10
88.495391103948464
 20
33.08085066364572
 30
0.0
 11
89.20000160322445
 21
33.487657725076531
 31
0.0
  0
LINE
  5
418
  8
0
 10
89.20000160322445
 20
33.487657725076531
 30
0.0
 11
89.20000160322445
 21
34.301271847938153
 31
0.0
  0
ARC
  5
419
  8
0
 10
86.70000160322445
 20
34.931033398050602
 30
0.0
 40
2.5781000000000032
 50
345.8610951761674
 51
14.138904823832659
  0
LINE
  5
41A
  8
0
 10
89.20000160322445
 20
35.56079494816305
 30
0.0
 11
89.20000160322445
 21
36.374409071024679
 31
0.0
  0
LINE
  5
41B
  8
0
 10
89.20000160322445
 20
36.374409071024679
 30
0.0
 11
88.495391103948464
 21
36.781216132455476
 31
0.0
  0
ARC
  5
41C
  8
0
 10
86.70000160322445
 20
34.931033398050602
 30
0.0
 40
2.5781000000000112
 50
45.86109517616697
 51
74.138904823834366
  0
LINE
  5
41D
  8
0
 10
87.404612102500437
 20
37.410977682567932
 30
0.0
 11
86.70000160322445
 21
37.81778474399875
 31
0.0
  0
LINE
  5
41E
  8
0
 10
86.70000160322445
 20
37.81778474399875
 30
0.0
 11
85.995391103948464
 21
37.410977682567932
 31
0.0
  0
CIRCLE
  5
41F
  8
0
 10
86.70000160322445
 20
34.931033398050602
 30
0.0
 40
5.0000000000000142
  0
ARC
  5
420
  8
0
 10
86.70000160322445
 20
34.931033398050602
 30
0.0
 40
2.5781000000000098
 50
14.138904823832659
 51
45.86109517616697
  0
ARC
  5
421
  8
0
 10
86.70000160322445
 20
34.931033398050602
 30
0.0
 40
2.5781000000000041
 50
314.13890482383408
 51
345.8610951761674
  0
ARC
  5
422
  8
0
 10
86.70000160322445
 20
34.931033398050602
 30
0.0
 40
2.5781000000000001
 50
254.13890482383431
 51
285.86109517616859
  0
ARC
  5
423
  8
0
 10
86.70000160322445
 20
34.931033398050602
 30
0.0
 40
2.5781000000000112
 50
74.138904823834366
 51
105.86109517616561
  0
ARC
  5
424
  8
0
 10
86.70000160322445
 20
34.931033398050602
 30
0.0
 40
2.5781000000000041
 50
134.13890482383289
 51
165.86109517616731
  0
ARC
  5
425
  8
0
 10
86.70000160322445
 20
34.931033398050602
 30
0.0
 40
2.5781000000000041
 50
194.13890482383511
 51
225.86109517616711
  0
LINE
  5
43D
  8
0
 10
69.127912795445454
 20
38.545392898050608
 30
0.0
 11
69.127912795445454
 21
31.316673898050588
 31
0.0
  0
LINE
  5
43E
  8
0
 10
34.927912795445479
 20
39.931032898050603
 30
0.0
 11
68.327912795445457
 21
39.931032898050603
 31
0.0
  0
LINE
  5
43F
  8
3
 10
68.796720795445481
 20
39.119032898050591
 30
0.0
 11
34.459104795445462
 21
39.119032898050591
 31
0.0
  0
LINE
  5
440
  8
0
 10
68.327912795445457
 20
39.931032898050603
 30
0.0
 11
68.327912795445457
 21
29.931032898050599
 31
0.0
  0
LINE
  5
441
  8
0
 10
68.327912795445457
 20
39.931032898050603
 30
0.0
 11
69.127912795445454
 21
38.545392898050608
 31
0.0
  0
LINE
  5
442
  8
0
 10
34.927912795445479
 20
39.931032898050603
 30
0.0
 11
34.127912795445468
 21
38.545392898050608
 31
0.0
  0
LINE
  5
443
  8
0
 10
34.927912795445479
 20
39.931032898050603
 30
0.0
 11
34.927912795445479
 21
29.931032898050599
 31
0.0
  0
LINE
  5
444
  8
0
 10
34.127912795445468
 20
38.545392898050608
 30
0.0
 11
34.127912795445468
 21
31.316673898050588
 31
0.0
  0
LINE
  5
445
  8
0
 10
68.327912795445457
 20
29.931032898050599
 30
0.0
 11
34.927912795445479
 21
29.931032898050599
 31
0.0
  0
LINE
  5
446
  8
3
 10
68.796720795445481
 20
30.74303289805059
 30
0.0
 11
34.459104795445462
 21
30.74303289805059
 31
0.0
  0
LINE
  5
447
  8
0
 10
34.927912795445479
 20
29.931032898050599
 30
0.0
 11
34.127912795445468
 21
31.316673898050588
 31
0.0
  0
LINE
  5
448
  8
0
 10
68.327912795445457
 20
29.931032898050599
 30
0.0
 11
69.127912795445454
 21
31.316673898050588
 31
0.0
  0
LINE
  5
449
  8
1
 10
94.70000160322445
 20
34.931033398050602
 30
0.0
 11
78.70000160322445
 21
34.931033398050602
 31
0.0
  0
LINE
  5
44A
  8
1
 10
15.05582398766648
 20
26.931033398050602
 30
0.0
 11
15.05582398766648
 21
42.931033398050587
 31
0.0
  0
LINE
  5
44B
  8
1
 10
86.70000160322445
 20
26.931033398050602
 30
0.0
 11
86.70000160322445
 21
42.931033398050587
 31
0.0
  0
LINE
  5
451
  8
1
 10
72.127912795445454
 20
34.931033398050602
 30
0.0
 11
29.627912795445472
 21
34.931033398050602
 31
0.0
  0
LINE
  5
452
  8
1
 10
23.055823987666489
 20
34.931033398050602
 30
0.0
 11
7.0558239876664848
 21
34.931033398050602
 31
0.0
  0
TEXT
  5
576
  8
0
 62
     3
 10
0.0
 20
0.0
 30
0.0
 40
5.0
  1
TBU-10035-DS
  7
STANDARD1
  0
ENDSEC
  0
EOF
