  0
SECTION
  2
HEADER
  9
$ACADVER
  1
AC1009
  9
$INSBASE
 10
0.0
 20
0.0
 30
0.0
  9
$EXTMIN
 10
0.0
 20
-1.4802182810368341
 30
0.0
  9
$EXTMAX
 10
65.5
 20
133.5
 30
0.0
  9
$LIMMIN
 10
0.0
 20
0.0
  9
$LIMMAX
 10
192.5
 20
135.0
  9
$ORTHOMODE
 70
     0
  9
$REGENMODE
 70
     1
  9
$FILLMODE
 70
     1
  9
$QTEXTMODE
 70
     0
  9
$MIRRTEXT
 70
     0
  9
$DRAGMODE
 70
     2
  9
$LTSCALE
 40
5.0
  9
$OSMODE
 70
    37
  9
$ATTMODE
 70
     1
  9
$TEXTSIZE
 40
2.0
  9
$TRACEWID
 40
0.05
  9
$TEXTSTYLE
  7
STANDARD
  9
$CLAYER
  8
0
  9
$CELTYPE
  6
BYLAYER
  9
$CECOLOR
 62
   256
  9
$DIMSCALE
 40
0.5
  9
$DIMASZ
 40
3.0
  9
$DIMEXO
 40
2.0
  9
$DIMDLI
 40
0.38
  9
$DIMRND
 40
0.0
  9
$DIMDLE
 40
0.0
  9
$DIMEXE
 40
2.0
  9
$DIMTP
 40
0.0
  9
$DIMTM
 40
0.0
  9
$DIMTXT
 40
3.0
  9
$DIMCEN
 40
0.0
  9
$DIMTSZ
 40
0.0
  9
$DIMTOL
 70
     0
  9
$DIMLIM
 70
     0
  9
$DIMTIH
 70
     0
  9
$DIMTOH
 70
     0
  9
$DIMSE1
 70
     0
  9
$DIMSE2
 70
     0
  9
$DIMTAD
 70
     1
  9
$DIMZIN
 70
     0
  9
$DIMBLK
  1

  9
$DIMASO
 70
     0
  9
$DIMSHO
 70
     0
  9
$DIMPOST
  1

  9
$DIMAPOST
  1

  9
$DIMALT
 70
     0
  9
$DIMALTD
 70
     2
  9
$DIMALTF
 40
25.399999999999999
  9
$DIMLFAC
 40
1.0
  9
$DIMTOFL
 70
     1
  9
$DIMTVP
 40
1.6000000000000001
  9
$DIMTIX
 70
     1
  9
$DIMSOXD
 70
     0
  9
$DIMSAH
 70
     0
  9
$DIMBLK1
  1

  9
$DIMBLK2
  1

  9
$DIMSTYLE
  2
STANDARD
  9
$DIMCLRD
 70
     0
  9
$DIMCLRE
 70
     0
  9
$DIMCLRT
 70
     0
  9
$DIMTFAC
 40
1.0
  9
$DIMGAP
 40
0.09
  9
$LUNITS
 70
     2
  9
$LUPREC
 70
     4
  9
$SKETCHINC
 40
0.1
  9
$FILLETRAD
 40
0.4
  9
$AUNITS
 70
     0
  9
$AUPREC
 70
     4
  9
$MENU
  1
E:\r13\win\SUPPORT\ACAD
  9
$ELEVATION
 40
0.0
  9
$PELEVATION
 40
0.0
  9
$THICKNESS
 40
0.0
  9
$LIMCHECK
 70
     0
  9
$BLIPMODE
 70
     0
  9
$CHAMFERA
 40
0.0
  9
$CHAMFERB
 40
0.0
  9
$SKPOLY
 70
     0
  9
$TDCREATE
 40
2448328.489641204
  9
$TDUPDATE
 40
2456793.365805625
  9
$TDINDWG
 40
0.6818831829000001
  9
$TDUSRTIMER
 40
0.6818831829000001
  9
$USRTIMER
 70
     1
  9
$ANGBASE
 50
0.0
  9
$ANGDIR
 70
     0
  9
$PDMODE
 70
    35
  9
$PDSIZE
 40
0.0
  9
$PLINEWID
 40
0.0
  9
$COORDS
 70
     1
  9
$SPLFRAME
 70
     0
  9
$SPLINETYPE
 70
     6
  9
$SPLINESEGS
 70
     8
  9
$ATTDIA
 70
     0
  9
$ATTREQ
 70
     1
  9
$HANDLING
 70
     1
  9
$HANDSEED
  5
15CE
  9
$SURFTAB1
 70
     6
  9
$SURFTAB2
 70
     6
  9
$SURFTYPE
 70
     6
  9
$SURFU
 70
     6
  9
$SURFV
 70
     6
  9
$UCSNAME
  2

  9
$UCSORG
 10
0.0
 20
0.0
 30
0.0
  9
$UCSXDIR
 10
1.0
 20
0.0
 30
0.0
  9
$UCSYDIR
 10
0.0
 20
1.0
 30
0.0
  9
$PUCSNAME
  2

  9
$PUCSORG
 10
0.0
 20
0.0
 30
0.0
  9
$PUCSXDIR
 10
1.0
 20
0.0
 30
0.0
  9
$PUCSYDIR
 10
0.0
 20
1.0
 30
0.0
  9
$USERI1
 70
     3
  9
$USERI2
 70
     1
  9
$USERI3
 70
     1
  9
$USERI4
 70
     0
  9
$USERI5
 70
     0
  9
$USERR1
 40
0.5
  9
$USERR2
 40
3.0
  9
$USERR3
 40
3.0
  9
$USERR4
 40
3.0
  9
$USERR5
 40
10.0
  9
$WORLDVIEW
 70
     1
  9
$SHADEDGE
 70
     3
  9
$SHADEDIF
 70
    70
  9
$TILEMODE
 70
     1
  9
$MAXACTVP
 70
    16
  9
$PLIMCHECK
 70
     0
  9
$PEXTMIN
 10
1.0000000000000000E+020
 20
1.0000000000000000E+020
 30
1.0000000000000000E+020
  9
$PEXTMAX
 10
-1.0000000000000000E+020
 20
-1.0000000000000000E+020
 30
-1.0000000000000000E+020
  9
$PLIMMIN
 10
0.0
 20
0.0
  9
$PLIMMAX
 10
12.0
 20
9.0
  9
$UNITMODE
 70
     0
  9
$VISRETAIN
 70
     0
  9
$PLINEGEN
 70
     1
  9
$PSLTSCALE
 70
     0
  0
ENDSEC
  0
SECTION
  2
TABLES
  0
TABLE
  2
VPORT
 70
     1
  0
VPORT
  2
*ACTIVE
 70
     0
 10
0.0
 20
0.0
 11
1.0
 21
1.0
 12
157.0931849791377
 22
90.0
 13
0.0
 23
0.0
 14
2.5
 24
2.5
 15
5.0
 25
5.0
 16
0.0
 26
0.0
 36
1.0
 17
0.0
 27
0.0
 37
0.0
 40
180.0
 41
1.7454798331015291
 42
50.0
 43
0.0
 44
0.0
 50
0.0
 51
0.0
 71
     0
 72
   500
 73
     1
 74
     0
 75
     0
 76
     0
 77
     0
 78
     2
  0
ENDTAB
  0
TABLE
  2
LTYPE
 70
     4
  0
LTYPE
  2
CONTINUOUS
 70
     0
  3
Solid Line
 72
    65
 73
     0
 40
0.0
  0
LTYPE
  2
CENTER
 70
     0
  3
____ _ ____ _ ____ _ ____ _ ____ _ ____ _ ____
 72
    65
 73
     4
 40
2.0
 49
1.25
 49
-0.25
 49
0.25
 49
-0.25
  0
LTYPE
  2
HIDDEN
 70
     0
  3
_ _ _ _ _ _ _ _ _ _ _ _ _ _ _ _ _ _ _ _ _ _ _
 72
    65
 73
     2
 40
0.375
 49
0.25
 49
-0.125
  0
LTYPE
  2
PHANTOM2
 70
     0
  3
___ _ _ ___ _ _ ___ _ _ ___ _ _
 72
    65
 73
     6
 40
1.25
 49
0.625
 49
-0.125
 49
0.125
 49
-0.125
 49
0.125
 49
-0.125
  0
ENDTAB
  0
TABLE
  2
LAYER
 70
     3
  0
LAYER
  2
0
 70
     0
 62
     7
  6
CONTINUOUS
  0
LAYER
  2
1
 70
     0
 62
     1
  6
CENTER
  0
LAYER
  2
2
 70
     0
 62
     2
  6
HIDDEN
  0
ENDTAB
  0
TABLE
  2
STYLE
 70
     2
  0
STYLE
  2
STANDARD
 70
     0
 40
0.0
 41
1.0
 50
0.0
 71
     0
 42
2.0
  3
simplex
  4
bigfont
  0
STYLE
  2
STANDARD1
 70
     0
 40
0.0
 41
1.0
 50
0.0
 71
     0
 42
3.0
  3
txt
  4

  0
ENDTAB
  0
TABLE
  2
VIEW
 70
     1
  0
VIEW
  2
ALL
 70
     0
 40
87.5
 10
71.617647058823522
 20
43.75
 41
1.0
 11
0.0
 21
0.0
 31
1.0
 12
0.0
 22
0.0
 32
0.0
 42
50.0
 43
0.0
 44
0.0
 50
0.0
 71
     0
  0
ENDTAB
  0
TABLE
  2
UCS
 70
     0
  0
ENDTAB
  0
TABLE
  2
APPID
 70
     5
  0
APPID
  2
ACAD
 70
     0
  0
APPID
  2
ACAD_MLEADERVER
 70
     0
  0
APPID
  2
ACAD_NAV_VCDISPLAY
 70
     0
  0
APPID
  2
ACAD_EXEMPT_FROM_CAD_STANDARDS
 70
     0
  0
APPID
  2
ACADANNOTATIVE
 70
     0
  0
ENDTAB
  0
TABLE
  2
DIMSTYLE
 70
     1
  0
DIMSTYLE
  2
STANDARD
 70
     0
  3

  4

  5

  6

  7

 40
1.0
 41
0.18
 42
0.0625
 43
0.38
 44
0.18
 45
0.0
 46
0.0
 47
0.0
 48
0.0
140
0.18
141
0.09
142
0.0
143
25.399999999999999
144
1.0
145
0.0
146
1.0
147
0.09
 71
     0
 72
     0
 73
     1
 74
     1
 75
     0
 76
     0
 77
     0
 78
     0
170
     0
171
     2
172
     0
173
     0
174
     0
175
     0
176
     0
177
     0
178
     0
  0
ENDTAB
  0
ENDSEC
  0
SECTION
  2
BLOCKS
  0
BLOCK
  8
0
  2
$MODEL_SPACE
 70
     0
 10
0.0
 20
0.0
 30
0.0
  3
$MODEL_SPACE
  1

  0
ENDBLK
  5
BAA
  8
0
  0
BLOCK
 67
     1
  8
0
  2
$PAPER_SPACE
 70
     0
 10
0.0
 20
0.0
 30
0.0
  3
$PAPER_SPACE
  1

  0
ENDBLK
  5
BA8
 67
     1
  8
0
  0
ENDSEC
  0
SECTION
  2
ENTITIES
  0
TEXT
  5
C61
  8
0
 62
     3
 10
0.0
 20
0.0
 30
0.0
 40
5.0
  1
TBKTP2-M8
  7
STANDARD1
  0
LINE
  5
1423
  8
1
 10
34.5
 20
50.0
 30
0.0
 11
65.5
 21
50.0
 31
0.0
  0
LINE
  5
1424
  8
1
 10
50.0
 20
34.499999999999993
 30
0.0
 11
50.0
 21
65.5
 31
0.0
  0
CIRCLE
  5
1425
  8
0
 10
50.0
 20
50.0
 30
0.0
 40
12.5
  0
LINE
  5
1441
  8
1
 10
34.5
 20
118.0
 30
0.0
 11
65.5
 21
118.0
 31
0.0
  0
LINE
  5
1442
  8
1
 10
50.0
 20
102.5
 30
0.0
 11
50.0
 21
133.5
 31
0.0
  0
ARC
  5
1443
  8
0
 10
50.0
 20
118.0
 30
0.0
 40
2.7400000000000002
 50
105.00000000000119
 51
74.999999999998792
  0
LINE
  5
1444
  8
0
 10
49.210601912437312
 20
120.9460737701816
 30
0.0
 11
49.290835816419083
 21
120.646636764032
 31
0.0
  0
LINE
  5
1445
  8
0
 10
50.789398087562688
 20
120.9460737701816
 30
0.0
 11
50.709164183580917
 21
120.646636764032
 31
0.0
  0
CIRCLE
  5
1446
  8
0
 10
50.0
 20
118.0
 30
0.0
 40
3.0499999999999989
  0
CIRCLE
  5
1447
  8
0
 10
50.0
 20
118.0
 30
0.0
 40
3.5828000000000002
  0
CIRCLE
  5
1449
  8
0
 10
50.0
 20
118.0
 30
0.0
 40
6.0
  0
CIRCLE
  5
144C
  8
0
 10
50.0
 20
118.0
 30
0.0
 40
12.5
  0
ARC
  5
1464
  8
2
 10
46.949999999999989
 20
86.666666666666657
 30
0.0
 40
0.3100000000000005
 50
90.0
 51
270.0
  0
LINE
  5
1465
  8
2
 10
50.0
 20
81.739081678971644
 30
0.0
 11
53.050000000000011
 21
83.499999999999986
 31
0.0
  0
LINE
  5
1466
  8
2
 10
46.949999999999989
 20
83.499999999999986
 30
0.0
 11
50.0
 21
81.739081678971644
 31
0.0
  0
LINE
  5
1467
  8
2
 10
53.050000000000011
 20
86.976666666666631
 30
0.0
 11
53.050000000000011
 21
87.467199999999991
 31
0.0
  0
LINE
  5
1468
  8
2
 10
46.949999999999989
 20
87.467199999999991
 30
0.0
 11
46.949999999999989
 21
86.976666666666659
 31
0.0
  0
LINE
  5
1469
  8
2
 10
53.050000000000011
 20
87.467199999999991
 30
0.0
 11
53.58280000000002
 21
88.0
 31
0.0
  0
LINE
  5
146A
  8
2
 10
46.41719999999998
 20
88.0
 30
0.0
 11
46.949999999999989
 21
87.467199999999991
 31
0.0
  0
LINE
  5
146B
  8
2
 10
53.050000000000011
 20
83.499999999999986
 30
0.0
 11
53.050000000000011
 21
86.356666666666655
 31
0.0
  0
LINE
  5
146C
  8
2
 10
46.949999999999989
 20
86.356666666666655
 30
0.0
 11
46.949999999999989
 21
83.499999999999986
 31
0.0
  0
ARC
  5
146D
  8
2
 10
53.050000000000061
 20
86.666666666666657
 30
0.0
 40
0.3100000000000005
 50
269.99999999999352
 51
89.999999999993491
  0
LINE
  5
146F
  8
2
 10
53.050000000000011
 20
86.976666666666659
 30
0.0
 11
46.949999999999989
 21
86.976666666666659
 31
0.0
  0
LINE
  5
1471
  8
2
 10
46.949999999999989
 20
83.499999999999986
 30
0.0
 11
53.050000000000011
 21
83.499999999999986
 31
0.0
  0
LINE
  5
1473
  8
2
 10
53.050000000000011
 20
86.356666666666655
 30
0.0
 11
46.949999999999989
 21
86.356666666666655
 31
0.0
  0
LINE
  5
1478
  8
1
 10
49.999999999999943
 20
91.0
 30
0.0
 11
50.000000000000057
 21
77.0
 31
0.0
  0
LINE
  5
147B
  8
0
 10
56.0
 20
87.467199999999991
 30
0.0
 11
55.467199999999991
 21
88.0
 31
0.0
  0
LINE
  5
147C
  8
0
 10
44.532800000000009
 20
88.0
 30
0.0
 11
44.0
 21
87.467199999999991
 31
0.0
  0
LINE
  5
147D
  8
0
 10
56.0
 20
86.080000000000027
 30
0.0
 11
56.0
 21
87.467199999999991
 31
0.0
  0
LINE
  5
147E
  8
0
 10
44.0
 20
87.467199999999991
 30
0.0
 11
44.0
 21
86.080000000000027
 31
0.0
  0
ARC
  5
147F
  8
0
 10
41.920000000000009
 20
86.080000000000027
 30
0.0
 40
2.0800000000000032
 50
270.0
 51
0.0
  0
ARC
  5
1480
  8
0
 10
58.079999999999977
 20
86.079999999999984
 30
0.0
 40
2.0800000000000018
 50
180.0
 51
270.0
  0
LINE
  5
1481
  8
0
 10
62.5
 20
83.467199999999991
 30
0.0
 11
61.967199999999991
 21
84.0
 31
0.0
  0
LINE
  5
1482
  8
0
 10
38.032800000000009
 20
84.0
 30
0.0
 11
37.5
 21
83.467199999999991
 31
0.0
  0
LINE
  5
1483
  8
0
 10
62.5
 20
80.532799999999995
 30
0.0
 11
62.5
 21
83.467199999999991
 31
0.0
  0
LINE
  5
1484
  8
0
 10
37.5
 20
83.467199999999991
 30
0.0
 11
37.5
 21
80.532799999999995
 31
0.0
  0
LINE
  5
1485
  8
0
 10
61.967199999999991
 20
80.0
 30
0.0
 11
62.5
 21
80.532799999999995
 31
0.0
  0
LINE
  5
1486
  8
0
 10
37.5
 20
80.532799999999995
 30
0.0
 11
38.032800000000009
 21
80.0
 31
0.0
  0
LINE
  5
1487
  8
0
 10
44.532800000000009
 20
88.0
 30
0.0
 11
55.467199999999991
 21
88.0
 31
0.0
  0
LINE
  5
1488
  8
0
 10
44.0
 20
87.467199999999991
 30
0.0
 11
56.0
 21
87.467199999999991
 31
0.0
  0
LINE
  5
148A
  8
0
 10
38.032800000000009
 20
84.0
 30
0.0
 11
61.967199999999991
 21
84.0
 31
0.0
  0
LINE
  5
148B
  8
0
 10
37.5
 20
83.467199999999991
 30
0.0
 11
62.5
 21
83.467199999999991
 31
0.0
  0
LINE
  5
148C
  8
0
 10
37.5
 20
80.532799999999995
 30
0.0
 11
62.5
 21
80.532799999999995
 31
0.0
  0
LINE
  5
148D
  8
0
 10
38.032800000000009
 20
80.0
 30
0.0
 11
61.967199999999991
 21
80.0
 31
0.0
  0
LINE
  5
14D6
  8
2
 10
53.049999999999891
 20
87.467199999999991
 30
0.0
 11
46.949999999999868
 21
87.467199999999991
 31
0.0
  0
ENDSEC
  0
EOF
