  0
SECTION
  2
HEADER
  9
$ACADVER
  1
AC1009
  9
$INSBASE
 10
0.0
 20
0.0
 30
0.0
  9
$EXTMIN
 10
0.0
 20
-1.4802182810368341
 30
0.0
  9
$EXTMAX
 10
75.0
 20
171.0
 30
0.0
  9
$LIMMIN
 10
0.0
 20
0.0
  9
$LIMMAX
 10
192.5
 20
135.0
  9
$ORTHOMODE
 70
     1
  9
$REGENMODE
 70
     1
  9
$FILLMODE
 70
     1
  9
$QTEXTMODE
 70
     0
  9
$MIRRTEXT
 70
     0
  9
$DRAGMODE
 70
     2
  9
$LTSCALE
 40
5.0
  9
$OSMODE
 70
    37
  9
$ATTMODE
 70
     1
  9
$TEXTSIZE
 40
2.0
  9
$TRACEWID
 40
0.05
  9
$TEXTSTYLE
  7
STANDARD
  9
$CLAYER
  8
0
  9
$CELTYPE
  6
BYLAYER
  9
$CECOLOR
 62
   256
  9
$DIMSCALE
 40
0.5
  9
$DIMASZ
 40
3.0
  9
$DIMEXO
 40
2.0
  9
$DIMDLI
 40
0.38
  9
$DIMRND
 40
0.0
  9
$DIMDLE
 40
0.0
  9
$DIMEXE
 40
2.0
  9
$DIMTP
 40
0.0
  9
$DIMTM
 40
0.0
  9
$DIMTXT
 40
3.0
  9
$DIMCEN
 40
0.0
  9
$DIMTSZ
 40
0.0
  9
$DIMTOL
 70
     0
  9
$DIMLIM
 70
     0
  9
$DIMTIH
 70
     0
  9
$DIMTOH
 70
     0
  9
$DIMSE1
 70
     0
  9
$DIMSE2
 70
     0
  9
$DIMTAD
 70
     1
  9
$DIMZIN
 70
     0
  9
$DIMBLK
  1

  9
$DIMASO
 70
     0
  9
$DIMSHO
 70
     0
  9
$DIMPOST
  1

  9
$DIMAPOST
  1

  9
$DIMALT
 70
     0
  9
$DIMALTD
 70
     2
  9
$DIMALTF
 40
25.399999999999999
  9
$DIMLFAC
 40
1.0
  9
$DIMTOFL
 70
     1
  9
$DIMTVP
 40
1.6000000000000001
  9
$DIMTIX
 70
     1
  9
$DIMSOXD
 70
     0
  9
$DIMSAH
 70
     0
  9
$DIMBLK1
  1

  9
$DIMBLK2
  1

  9
$DIMSTYLE
  2
STANDARD
  9
$DIMCLRD
 70
     0
  9
$DIMCLRE
 70
     0
  9
$DIMCLRT
 70
     0
  9
$DIMTFAC
 40
1.0
  9
$DIMGAP
 40
0.09
  9
$LUNITS
 70
     2
  9
$LUPREC
 70
     4
  9
$SKETCHINC
 40
0.1
  9
$FILLETRAD
 40
0.4
  9
$AUNITS
 70
     0
  9
$AUPREC
 70
     4
  9
$MENU
  1
E:\r13\win\SUPPORT\ACAD
  9
$ELEVATION
 40
0.0
  9
$PELEVATION
 40
0.0
  9
$THICKNESS
 40
0.0
  9
$LIMCHECK
 70
     0
  9
$BLIPMODE
 70
     0
  9
$CHAMFERA
 40
0.0
  9
$CHAMFERB
 40
0.0
  9
$SKPOLY
 70
     0
  9
$TDCREATE
 40
2448328.489641204
  9
$TDUPDATE
 40
2456793.365754711
  9
$TDINDWG
 40
0.6826592245000001
  9
$TDUSRTIMER
 40
0.6826592245000001
  9
$USRTIMER
 70
     1
  9
$ANGBASE
 50
0.0
  9
$ANGDIR
 70
     0
  9
$PDMODE
 70
    35
  9
$PDSIZE
 40
0.0
  9
$PLINEWID
 40
0.0
  9
$COORDS
 70
     1
  9
$SPLFRAME
 70
     0
  9
$SPLINETYPE
 70
     6
  9
$SPLINESEGS
 70
     8
  9
$ATTDIA
 70
     0
  9
$ATTREQ
 70
     1
  9
$HANDLING
 70
     1
  9
$HANDSEED
  5
159B
  9
$SURFTAB1
 70
     6
  9
$SURFTAB2
 70
     6
  9
$SURFTYPE
 70
     6
  9
$SURFU
 70
     6
  9
$SURFV
 70
     6
  9
$UCSNAME
  2

  9
$UCSORG
 10
0.0
 20
0.0
 30
0.0
  9
$UCSXDIR
 10
1.0
 20
0.0
 30
0.0
  9
$UCSYDIR
 10
0.0
 20
1.0
 30
0.0
  9
$PUCSNAME
  2

  9
$PUCSORG
 10
0.0
 20
0.0
 30
0.0
  9
$PUCSXDIR
 10
1.0
 20
0.0
 30
0.0
  9
$PUCSYDIR
 10
0.0
 20
1.0
 30
0.0
  9
$USERI1
 70
     3
  9
$USERI2
 70
     1
  9
$USERI3
 70
     1
  9
$USERI4
 70
     0
  9
$USERI5
 70
     0
  9
$USERR1
 40
0.5
  9
$USERR2
 40
3.0
  9
$USERR3
 40
3.0
  9
$USERR4
 40
3.0
  9
$USERR5
 40
10.0
  9
$WORLDVIEW
 70
     1
  9
$SHADEDGE
 70
     3
  9
$SHADEDIF
 70
    70
  9
$TILEMODE
 70
     1
  9
$MAXACTVP
 70
    16
  9
$PLIMCHECK
 70
     0
  9
$PEXTMIN
 10
1.0000000000000000E+020
 20
1.0000000000000000E+020
 30
1.0000000000000000E+020
  9
$PEXTMAX
 10
-1.0000000000000000E+020
 20
-1.0000000000000000E+020
 30
-1.0000000000000000E+020
  9
$PLIMMIN
 10
0.0
 20
0.0
  9
$PLIMMAX
 10
12.0
 20
9.0
  9
$UNITMODE
 70
     0
  9
$VISRETAIN
 70
     0
  9
$PLINEGEN
 70
     1
  9
$PSLTSCALE
 70
     0
  0
ENDSEC
  0
SECTION
  2
TABLES
  0
TABLE
  2
VPORT
 70
     1
  0
VPORT
  2
*ACTIVE
 70
     0
 10
0.0
 20
0.0
 11
1.0
 21
1.0
 12
157.0931849791377
 22
90.0
 13
0.0
 23
0.0
 14
2.5
 24
2.5
 15
5.0
 25
5.0
 16
0.0
 26
0.0
 36
1.0
 17
0.0
 27
0.0
 37
0.0
 40
180.0
 41
1.7454798331015291
 42
50.0
 43
0.0
 44
0.0
 50
0.0
 51
0.0
 71
     0
 72
   500
 73
     1
 74
     0
 75
     0
 76
     0
 77
     0
 78
     2
  0
ENDTAB
  0
TABLE
  2
LTYPE
 70
     4
  0
LTYPE
  2
CONTINUOUS
 70
     0
  3
Solid Line
 72
    65
 73
     0
 40
0.0
  0
LTYPE
  2
CENTER
 70
     0
  3
____ _ ____ _ ____ _ ____ _ ____ _ ____ _ ____
 72
    65
 73
     4
 40
2.0
 49
1.25
 49
-0.25
 49
0.25
 49
-0.25
  0
LTYPE
  2
HIDDEN
 70
     0
  3
_ _ _ _ _ _ _ _ _ _ _ _ _ _ _ _ _ _ _ _ _ _ _
 72
    65
 73
     2
 40
0.375
 49
0.25
 49
-0.125
  0
LTYPE
  2
PHANTOM2
 70
     0
  3
___ _ _ ___ _ _ ___ _ _ ___ _ _
 72
    65
 73
     6
 40
1.25
 49
0.625
 49
-0.125
 49
0.125
 49
-0.125
 49
0.125
 49
-0.125
  0
ENDTAB
  0
TABLE
  2
LAYER
 70
     3
  0
LAYER
  2
0
 70
     0
 62
     7
  6
CONTINUOUS
  0
LAYER
  2
1
 70
     0
 62
     1
  6
CENTER
  0
LAYER
  2
2
 70
     0
 62
     2
  6
HIDDEN
  0
ENDTAB
  0
TABLE
  2
STYLE
 70
     2
  0
STYLE
  2
STANDARD
 70
     0
 40
0.0
 41
1.0
 50
0.0
 71
     0
 42
2.0
  3
simplex
  4
bigfont
  0
STYLE
  2
STANDARD1
 70
     0
 40
0.0
 41
1.0
 50
0.0
 71
     0
 42
3.0
  3
txt
  4

  0
ENDTAB
  0
TABLE
  2
VIEW
 70
     1
  0
VIEW
  2
ALL
 70
     0
 40
87.5
 10
71.617647058823522
 20
43.75
 41
1.0
 11
0.0
 21
0.0
 31
1.0
 12
0.0
 22
0.0
 32
0.0
 42
50.0
 43
0.0
 44
0.0
 50
0.0
 71
     0
  0
ENDTAB
  0
TABLE
  2
UCS
 70
     0
  0
ENDTAB
  0
TABLE
  2
APPID
 70
     5
  0
APPID
  2
ACAD
 70
     0
  0
APPID
  2
ACAD_MLEADERVER
 70
     0
  0
APPID
  2
ACAD_NAV_VCDISPLAY
 70
     0
  0
APPID
  2
ACAD_EXEMPT_FROM_CAD_STANDARDS
 70
     0
  0
APPID
  2
ACADANNOTATIVE
 70
     0
  0
ENDTAB
  0
TABLE
  2
DIMSTYLE
 70
     1
  0
DIMSTYLE
  2
STANDARD
 70
     0
  3

  4

  5

  6

  7

 40
1.0
 41
0.18
 42
0.0625
 43
0.38
 44
0.18
 45
0.0
 46
0.0
 47
0.0
 48
0.0
140
0.18
141
0.09
142
0.0
143
25.399999999999999
144
1.0
145
0.0
146
1.0
147
0.09
 71
     0
 72
     0
 73
     1
 74
     1
 75
     0
 76
     0
 77
     0
 78
     0
170
     0
171
     2
172
     0
173
     0
174
     0
175
     0
176
     0
177
     0
178
     0
  0
ENDTAB
  0
ENDSEC
  0
SECTION
  2
BLOCKS
  0
BLOCK
  8
0
  2
$MODEL_SPACE
 70
     0
 10
0.0
 20
0.0
 30
0.0
  3
$MODEL_SPACE
  1

  0
ENDBLK
  5
BAA
  8
0
  0
BLOCK
 67
     1
  8
0
  2
$PAPER_SPACE
 70
     0
 10
0.0
 20
0.0
 30
0.0
  3
$PAPER_SPACE
  1

  0
ENDBLK
  5
BA8
 67
     1
  8
0
  0
ENDSEC
  0
SECTION
  2
ENTITIES
  0
TEXT
  5
C61
  8
0
 62
     3
 10
0.0
 20
0.0
 30
0.0
 40
5.0
  1
TBKTP1-M20
  7
STANDARD1
  0
LINE
  5
142C
  8
1
 10
25.0
 20
50.0
 30
0.0
 11
75.0
 21
50.0
 31
0.0
  0
LINE
  5
142D
  8
1
 10
50.0
 20
25.0
 30
0.0
 11
50.0
 21
75.0
 31
0.0
  0
CIRCLE
  5
142E
  8
0
 10
50.0
 20
50.0
 30
0.0
 40
20.0
  0
CIRCLE
  5
1430
  8
0
 10
50.0
 20
50.0
 30
0.0
 40
7.8000000000000007
  0
LINE
  5
144B
  8
1
 10
25.0
 20
146.0
 30
0.0
 11
75.0
 21
146.0
 31
0.0
  0
LINE
  5
144C
  8
1
 10
50.0
 20
121.0
 30
0.0
 11
50.0
 21
171.0
 31
0.0
  0
ARC
  5
144D
  8
0
 10
50.000000000000057
 20
146.0
 30
0.0
 40
6.9899999999999984
 50
105.00000000000119
 51
74.999999999998764
  0
CIRCLE
  5
144E
  8
0
 10
50.000000000000057
 20
146.0
 30
0.0
 40
8.8656000000000006
  0
CIRCLE
  5
1450
  8
0
 10
50.0
 20
146.0
 30
0.0
 40
14.0
  0
CIRCLE
  5
1453
  8
0
 10
50.0
 20
146.0
 30
0.0
 40
20.0
  0
CIRCLE
  5
1454
  8
0
 10
50.000000000000057
 20
146.0
 30
0.0
 40
7.7999999999999989
  0
LINE
  5
1455
  8
0
 10
47.981211448200384
 20
153.5342214450547
 30
0.0
 11
48.190854874733411
 21
152.75182152576059
 31
0.0
  0
LINE
  5
1456
  8
0
 10
52.01878855179973
 20
153.5342214450547
 30
0.0
 11
51.809145125266689
 21
152.75182152576059
 31
0.0
  0
LINE
  5
146E
  8
2
 10
50.0
 20
93.496667900320915
 30
0.0
 11
57.800000000000011
 21
98.0
 31
0.0
  0
LINE
  5
146F
  8
2
 10
42.199999999999982
 20
98.0
 30
0.0
 11
50.0
 21
93.496667900320915
 31
0.0
  0
LINE
  5
1470
  8
2
 10
57.800000000000011
 20
98.0
 30
0.0
 11
57.800000000000011
 21
102.5233333333333
 31
0.0
  0
LINE
  5
1471
  8
2
 10
42.199999999999982
 20
102.5233333333333
 30
0.0
 11
42.199999999999982
 21
98.0
 31
0.0
  0
LINE
  5
1472
  8
2
 10
57.800000000000011
 20
104.9344
 30
0.0
 11
58.865599999999972
 21
106.0
 31
0.0
  0
LINE
  5
1473
  8
2
 10
41.134400000000028
 20
106.0
 30
0.0
 11
42.199999999999982
 21
104.9344
 31
0.0
  0
LINE
  5
1474
  8
2
 10
57.800000000000011
 20
90.0
 30
0.0
 11
57.800000000000011
 21
91.065599999999989
 31
0.0
  0
LINE
  5
1475
  8
2
 10
42.199999999999982
 20
91.065599999999989
 30
0.0
 11
42.199999999999982
 21
90.0
 31
0.0
  0
LINE
  5
1476
  8
2
 10
57.800000000000011
 20
104.1433333333333
 30
0.0
 11
57.800000000000011
 21
104.9344
 31
0.0
  0
LINE
  5
1477
  8
2
 10
42.199999999999982
 20
104.9344
 30
0.0
 11
42.199999999999982
 21
104.1433333333333
 31
0.0
  0
LINE
  5
1479
  8
2
 10
42.199999999999982
 20
98.0
 30
0.0
 11
57.800000000000011
 21
98.0
 31
0.0
  0
ARC
  5
147D
  8
2
 10
57.800000000000011
 20
103.3333333333333
 30
0.0
 40
0.8099999999999987
 50
270.0
 51
90.0
  0
LINE
  5
147E
  8
2
 10
57.800000000000011
 20
102.5233333333333
 30
0.0
 11
42.199999999999982
 21
102.5233333333333
 31
0.0
  0
LINE
  5
147F
  8
2
 10
57.800000000000011
 20
104.1433333333333
 30
0.0
 11
42.199999999999982
 21
104.1433333333333
 31
0.0
  0
LINE
  5
1484
  8
1
 10
50.0
 20
111.0
 30
0.0
 11
50.0
 21
85.0
 31
0.0
  0
LINE
  5
1489
  8
0
 10
64.0
 20
104.9344
 30
0.0
 11
62.934399999999982
 21
106.0
 31
0.0
  0
LINE
  5
148A
  8
0
 10
37.065600000000018
 20
106.0
 30
0.0
 11
36.0
 21
104.9344
 31
0.0
  0
LINE
  5
148B
  8
0
 10
64.0
 20
100.92
 30
0.0
 11
64.0
 21
104.9344
 31
0.0
  0
LINE
  5
148C
  8
0
 10
36.0
 20
104.9344
 30
0.0
 11
36.0
 21
100.92
 31
0.0
  0
ARC
  5
148D
  8
0
 10
34.079999999999991
 20
100.92
 30
0.0
 40
1.919999999999997
 50
270.0
 51
0.0
  0
ARC
  5
148E
  8
0
 10
65.920000000000016
 20
100.92
 30
0.0
 40
1.919999999999999
 50
180.0
 51
270.0
  0
LINE
  5
148F
  8
0
 10
70.0
 20
97.934400000000025
 30
0.0
 11
68.934399999999982
 21
99.0
 31
0.0
  0
LINE
  5
1490
  8
0
 10
31.065600000000021
 20
99.0
 30
0.0
 11
30.0
 21
97.934400000000025
 31
0.0
  0
LINE
  5
1491
  8
0
 10
70.0
 20
91.065599999999989
 30
0.0
 11
70.0
 21
97.934400000000025
 31
0.0
  0
LINE
  5
1492
  8
0
 10
30.0
 20
97.934400000000025
 30
0.0
 11
30.0
 21
91.065599999999989
 31
0.0
  0
LINE
  5
1493
  8
0
 10
68.934399999999982
 20
90.0
 30
0.0
 11
70.0
 21
91.065599999999989
 31
0.0
  0
LINE
  5
1494
  8
0
 10
30.0
 20
91.065599999999989
 30
0.0
 11
31.065600000000021
 21
90.0
 31
0.0
  0
LINE
  5
1495
  8
0
 10
37.065600000000018
 20
106.0
 30
0.0
 11
62.934399999999982
 21
106.0
 31
0.0
  0
LINE
  5
1496
  8
0
 10
36.0
 20
104.9344
 30
0.0
 11
64.0
 21
104.9344
 31
0.0
  0
LINE
  5
1498
  8
0
 10
31.065600000000021
 20
99.0
 30
0.0
 11
68.934399999999982
 21
99.0
 31
0.0
  0
LINE
  5
1499
  8
0
 10
30.0
 20
97.934400000000025
 30
0.0
 11
70.0
 21
97.934400000000025
 31
0.0
  0
LINE
  5
149A
  8
0
 10
30.0
 20
91.065599999999989
 30
0.0
 11
70.0
 21
91.065599999999989
 31
0.0
  0
LINE
  5
149B
  8
0
 10
31.065600000000021
 20
90.0
 30
0.0
 11
68.934399999999982
 21
90.0
 31
0.0
  0
ARC
  5
149F
  8
2
 10
42.200000000000053
 20
103.3333333333333
 30
0.0
 40
0.8099999999999987
 50
90.0
 51
270.0
  0
LINE
  5
14A0
  8
2
 10
42.199999999999982
 20
104.9344
 30
0.0
 11
57.800000000000011
 21
104.9344
 31
0.0
  0
LINE
  5
14A1
  8
2
 10
42.199999999999932
 20
91.065599999999989
 30
0.0
 11
57.799999999999947
 21
91.065599999999989
 31
0.0
  0
ENDSEC
  0
EOF
