  0
SECTION
  2
HEADER
  9
$ACADVER
  1
AC1009
  9
$INSBASE
 10
0.0
 20
0.0
 30
0.0
  9
$EXTMIN
 10
0.0
 20
-2.960436562073669
 30
0.0
  9
$EXTMAX
 10
191.76879521118451
 20
192.21163910488411
 30
0.0
  9
$LIMMIN
 10
0.0
 20
0.0
  9
$LIMMAX
 10
420.0
 20
297.0
  9
$ORTHOMODE
 70
     1
  9
$REGENMODE
 70
     1
  9
$FILLMODE
 70
     1
  9
$QTEXTMODE
 70
     0
  9
$MIRRTEXT
 70
     0
  9
$DRAGMODE
 70
     2
  9
$LTSCALE
 40
5.0
  9
$OSMODE
 70
    37
  9
$ATTMODE
 70
     1
  9
$TEXTSIZE
 40
2.5
  9
$TRACEWID
 40
1.0
  9
$TEXTSTYLE
  7
STANDARD
  9
$CLAYER
  8
0
  9
$CELTYPE
  6
BYLAYER
  9
$CECOLOR
 62
   256
  9
$DIMSCALE
 40
1.0
  9
$DIMASZ
 40
2.5
  9
$DIMEXO
 40
0.625
  9
$DIMDLI
 40
3.75
  9
$DIMRND
 40
0.0
  9
$DIMDLE
 40
0.0
  9
$DIMEXE
 40
1.25
  9
$DIMTP
 40
0.0
  9
$DIMTM
 40
0.0
  9
$DIMTXT
 40
2.5
  9
$DIMCEN
 40
2.5
  9
$DIMTSZ
 40
0.0
  9
$DIMTOL
 70
     0
  9
$DIMLIM
 70
     0
  9
$DIMTIH
 70
     0
  9
$DIMTOH
 70
     0
  9
$DIMSE1
 70
     0
  9
$DIMSE2
 70
     0
  9
$DIMTAD
 70
     1
  9
$DIMZIN
 70
     8
  9
$DIMBLK
  1

  9
$DIMASO
 70
     1
  9
$DIMSHO
 70
     1
  9
$DIMPOST
  1

  9
$DIMAPOST
  1

  9
$DIMALT
 70
     0
  9
$DIMALTD
 70
     3
  9
$DIMALTF
 40
0.03937007874016
  9
$DIMLFAC
 40
1.0
  9
$DIMTOFL
 70
     1
  9
$DIMTVP
 40
0.0
  9
$DIMTIX
 70
     0
  9
$DIMSOXD
 70
     0
  9
$DIMSAH
 70
     0
  9
$DIMBLK1
  1

  9
$DIMBLK2
  1

  9
$DIMSTYLE
  2
ISO-25
  9
$DIMCLRD
 70
     0
  9
$DIMCLRE
 70
     0
  9
$DIMCLRT
 70
     0
  9
$DIMTFAC
 40
1.0
  9
$DIMGAP
 40
0.625
  9
$LUNITS
 70
     2
  9
$LUPREC
 70
     4
  9
$SKETCHINC
 40
1.0
  9
$FILLETRAD
 40
0.0
  9
$AUNITS
 70
     0
  9
$AUPREC
 70
     0
  9
$MENU
  1
.
  9
$ELEVATION
 40
0.0
  9
$PELEVATION
 40
0.0
  9
$THICKNESS
 40
0.0
  9
$LIMCHECK
 70
     0
  9
$BLIPMODE
 70
     0
  9
$CHAMFERA
 40
0.0
  9
$CHAMFERB
 40
0.0
  9
$SKPOLY
 70
     0
  9
$TDCREATE
 40
2454979.4917406249
  9
$TDUPDATE
 40
2456776.587662199
  9
$TDINDWG
 40
0.1614024769
  9
$TDUSRTIMER
 40
0.1614023032
  9
$USRTIMER
 70
     1
  9
$ANGBASE
 50
0.0
  9
$ANGDIR
 70
     0
  9
$PDMODE
 70
     0
  9
$PDSIZE
 40
0.0
  9
$PLINEWID
 40
0.0
  9
$COORDS
 70
     1
  9
$SPLFRAME
 70
     0
  9
$SPLINETYPE
 70
     6
  9
$SPLINESEGS
 70
     8
  9
$ATTDIA
 70
     0
  9
$ATTREQ
 70
     1
  9
$HANDLING
 70
     1
  9
$HANDSEED
  5
1F32
  9
$SURFTAB1
 70
     6
  9
$SURFTAB2
 70
     6
  9
$SURFTYPE
 70
     6
  9
$SURFU
 70
     6
  9
$SURFV
 70
     6
  9
$UCSNAME
  2

  9
$UCSORG
 10
0.0
 20
0.0
 30
0.0
  9
$UCSXDIR
 10
1.0
 20
0.0
 30
0.0
  9
$UCSYDIR
 10
0.0
 20
1.0
 30
0.0
  9
$PUCSNAME
  2

  9
$PUCSORG
 10
0.0
 20
0.0
 30
0.0
  9
$PUCSXDIR
 10
1.0
 20
0.0
 30
0.0
  9
$PUCSYDIR
 10
0.0
 20
1.0
 30
0.0
  9
$USERI1
 70
     0
  9
$USERI2
 70
     0
  9
$USERI3
 70
     0
  9
$USERI4
 70
     0
  9
$USERI5
 70
     0
  9
$USERR1
 40
0.0
  9
$USERR2
 40
0.0
  9
$USERR3
 40
0.0
  9
$USERR4
 40
0.0
  9
$USERR5
 40
0.0
  9
$WORLDVIEW
 70
     1
  9
$SHADEDGE
 70
     3
  9
$SHADEDIF
 70
    70
  9
$TILEMODE
 70
     1
  9
$MAXACTVP
 70
    64
  9
$PLIMCHECK
 70
     0
  9
$PEXTMIN
 10
0.0
 20
0.0
 30
0.0
  9
$PEXTMAX
 10
0.0
 20
0.0
 30
0.0
  9
$PLIMMIN
 10
0.0
 20
0.0
  9
$PLIMMAX
 10
12.0
 20
9.0
  9
$UNITMODE
 70
     0
  9
$VISRETAIN
 70
     1
  9
$PLINEGEN
 70
     0
  9
$PSLTSCALE
 70
     1
  0
ENDSEC
  0
SECTION
  2
TABLES
  0
TABLE
  2
VPORT
 70
     1
  0
VPORT
  2
*ACTIVE
 70
     0
 10
0.0
 20
0.0
 11
1.0
 21
1.0
 12
235.63977746870651
 22
135.0
 13
0.0
 23
0.0
 14
10.0
 24
10.0
 15
10.0
 25
10.0
 16
0.0
 26
0.0
 36
1.0
 17
0.0
 27
0.0
 37
0.0
 40
270.0
 41
1.7454798331015291
 42
50.0
 43
0.0
 44
0.0
 50
0.0
 51
0.0
 71
     0
 72
  1000
 73
     1
 74
     3
 75
     0
 76
     0
 77
     0
 78
     0
  0
ENDTAB
  0
TABLE
  2
LTYPE
 70
     2
  0
LTYPE
  2
CONTINUOUS
 70
     0
  3
Solid line
 72
    65
 73
     0
 40
0.0
  0
LTYPE
  2
CENTER
 70
     0
  3
____ _ ____ _ ____ _ ____ _ ____ _ ____ _ ____
 72
    65
 73
     4
 40
2.0
 49
1.25
 49
-0.25
 49
0.25
 49
-0.25
  0
ENDTAB
  0
TABLE
  2
LAYER
 70
     3
  0
LAYER
  2
0
 70
     0
 62
     7
  6
CONTINUOUS
  0
LAYER
  2
1
 70
     0
 62
     1
  6
CENTER
  0
LAYER
  2
3
 70
     0
 62
     3
  6
CONTINUOUS
  0
ENDTAB
  0
TABLE
  2
STYLE
 70
     2
  0
STYLE
  2
STANDARD
 70
     0
 40
0.0
 41
1.0
 50
0.0
 71
     0
 42
2.5
  3
txt
  4

  0
STYLE
  2
STANDARD1
 70
     0
 40
0.0
 41
1.0
 50
0.0
 71
     0
 42
3.0
  3
txt
  4

  0
ENDTAB
  0
TABLE
  2
VIEW
 70
     0
  0
ENDTAB
  0
TABLE
  2
UCS
 70
     0
  0
ENDTAB
  0
TABLE
  2
APPID
 70
     5
  0
APPID
  2
ACAD
 70
     0
  0
APPID
  2
ACAD_MLEADERVER
 70
     0
  0
APPID
  2
ACAD_NAV_VCDISPLAY
 70
     0
  0
APPID
  2
ACAD_EXEMPT_FROM_CAD_STANDARDS
 70
     0
  0
APPID
  2
ACADANNOTATIVE
 70
     0
  0
ENDTAB
  0
TABLE
  2
DIMSTYLE
 70
     2
  0
DIMSTYLE
  2
ISO-25
 70
     0
  3

  4

  5

  6

  7

 40
1.0
 41
2.5
 42
0.625
 43
3.75
 44
1.25
 45
0.0
 46
0.0
 47
0.0
 48
0.0
140
2.5
141
2.5
142
0.0
143
0.03937007874016
144
1.0
145
0.0
146
1.0
147
0.625
 71
     0
 72
     0
 73
     0
 74
     0
 75
     0
 76
     0
 77
     1
 78
     8
170
     0
171
     3
172
     1
173
     0
174
     0
175
     0
176
     0
177
     0
178
     0
  0
DIMSTYLE
  2
STANDARD
 70
     0
  3

  4

  5

  6

  7

 40
1.0
 41
0.18
 42
0.0625
 43
0.38
 44
0.18
 45
0.0
 46
0.0
 47
0.0
 48
0.0
140
0.18
141
0.09
142
0.0
143
25.399999999999999
144
1.0
145
0.0
146
1.0
147
0.09
 71
     0
 72
     0
 73
     1
 74
     1
 75
     0
 76
     0
 77
     0
 78
     0
170
     0
171
     2
172
     0
173
     0
174
     0
175
     0
176
     0
177
     0
178
     0
  0
ENDTAB
  0
ENDSEC
  0
SECTION
  2
BLOCKS
  0
BLOCK
  8
0
  2
$MODEL_SPACE
 70
     0
 10
0.0
 20
0.0
 30
0.0
  3
$MODEL_SPACE
  1

  0
ENDBLK
  5
21
  8
0
  0
BLOCK
 67
     1
  8
0
  2
$PAPER_SPACE
 70
     0
 10
0.0
 20
0.0
 30
0.0
  3
$PAPER_SPACE
  1

  0
ENDBLK
  5
53
 67
     1
  8
0
  0
ENDSEC
  0
SECTION
  2
ENTITIES
  0
TEXT
  5
749
  8
0
 62
     3
 10
0.0
 20
0.0
 30
0.0
 40
10.0
  1
TBKM10X40
  7
STANDARD1
  0
LINE
  5
1D56
  8
1
 10
90.368795211178394
 20
133.2116391048842
 30
0.0
 11
90.368795211178394
 21
51.211639104884163
 31
0.0
  0
LINE
  5
1D57
  8
1
 10
45.368795211178387
 20
120.2116391048842
 30
0.0
 11
135.36879521117839
 21
120.2116391048841
 31
0.0
  0
LINE
  5
1D58
  8
0
 10
86.768795211178386
 20
64.403348728018685
 30
0.0
 11
86.768795211178386
 21
60.711639104884149
 31
0.0
  0
LINE
  5
1D59
  8
0
 10
93.968795211178417
 20
60.711639104884149
 30
0.0
 11
93.968795211178417
 21
64.403348728018685
 31
0.0
  0
ARC
  5
1D5A
  8
0
 10
90.368795211178394
 20
62.211639104884149
 30
0.0
 40
5.9999999999999991
 50
228.1896851042199
 51
311.81031489577998
  0
LINE
  5
1D5B
  8
0
 10
86.368795211178394
 20
60.711639104884149
 30
0.0
 11
86.368795211178394
 21
57.73950314988457
 31
0.0
  0
LINE
  5
1D5C
  8
0
 10
94.368795211178394
 20
57.73950314988457
 30
0.0
 11
94.368795211178394
 21
60.711639104884149
 31
0.0
  0
LINE
  5
1D5D
  8
0
 10
94.368795211178394
 20
57.73950314988457
 30
0.0
 11
86.368795211178394
 21
57.73950314988457
 31
0.0
  0
LINE
  5
1D5E
  8
0
 10
94.368795211178394
 20
60.711639104884149
 30
0.0
 11
86.368795211178394
 21
60.711639104884149
 31
0.0
  0
LINE
  5
1D5F
  8
0
 10
58.268795211178372
 20
116.2116391048841
 30
0.0
 11
81.368795211178394
 21
116.2116391048841
 31
0.0
  0
LINE
  5
1D60
  8
0
 10
81.368795211178394
 20
124.2116391048841
 30
0.0
 11
58.268795211178372
 21
124.2116391048841
 31
0.0
  0
LINE
  5
1D61
  8
0
 10
99.368795211178394
 20
116.2116391048841
 30
0.0
 11
122.4687952111784
 21
116.2116391048841
 31
0.0
  0
LINE
  5
1D62
  8
0
 10
122.4687952111784
 20
124.2116391048841
 30
0.0
 11
99.368795211178394
 21
124.2116391048841
 31
0.0
  0
LINE
  5
1D63
  8
0
 10
85.368795211178394
 20
96.211639104884156
 30
0.0
 11
85.368795211178394
 21
65.211639104884156
 31
0.0
  0
LINE
  5
1D64
  8
0
 10
95.368795211178394
 20
65.211639104884156
 30
0.0
 11
95.368795211178394
 21
96.211639104884156
 31
0.0
  0
LINE
  5
1D65
  8
0
 10
93.968795211178417
 20
64.403348728018685
 30
0.0
 11
95.368795211178394
 21
65.211639104884156
 31
0.0
  0
LINE
  5
1D66
  8
0
 10
85.368795211178394
 20
65.211639104884156
 30
0.0
 11
86.768795211178386
 21
64.403348728018685
 31
0.0
  0
LINE
  5
1D67
  8
0
 10
93.968795211178417
 20
64.403348728018685
 30
0.0
 11
86.768795211178386
 21
64.403348728018685
 31
0.0
  0
LINE
  5
1D68
  8
0
 10
95.368795211178394
 20
65.211639104884156
 30
0.0
 11
85.368795211178394
 21
65.211639104884156
 31
0.0
  0
LINE
  5
1D69
  8
0
 10
122.4687952111784
 20
125.81163910488409
 30
0.0
 11
122.4687952111784
 21
114.61163910488411
 31
0.0
  0
ARC
  5
1D6A
  8
0
 10
123.2687952111783
 20
114.61163910488411
 30
0.0
 40
0.7999999999999546
 50
180.0
 51
270.0
  0
ARC
  5
1D6B
  8
0
 10
123.2687952111783
 20
125.81163910488409
 30
0.0
 40
0.799999999999983
 50
90.0
 51
180.0
  0
LINE
  5
1D6C
  8
0
 10
130.36879521117839
 20
125.8116391168051
 30
0.0
 11
130.36879521117839
 21
114.6116390929632
 31
0.0
  0
ARC
  5
1D6D
  8
0
 10
129.56879521117841
 20
114.61163910488411
 30
0.0
 40
0.799999999999976
 50
270.0
 51
0.0
  0
ARC
  5
1D6E
  8
0
 10
129.56879521117841
 20
125.81163910488409
 30
0.0
 40
0.8000000000000113
 50
0.0
 51
90.0
  0
LINE
  5
1D6F
  8
0
 10
123.2687952111783
 20
113.81163910488409
 30
0.0
 11
129.56879521117841
 21
113.81163910488409
 31
0.0
  0
LINE
  5
1D70
  8
0
 10
129.56879521117841
 20
126.61163910488411
 30
0.0
 11
123.2687952111783
 21
126.61163910488411
 31
0.0
  0
LINE
  5
1D71
  8
0
 10
58.268795211178372
 20
125.8116391168051
 30
0.0
 11
58.268795211178372
 21
114.6116390929632
 31
0.0
  0
ARC
  5
1D72
  8
0
 10
57.468795211178417
 20
114.61163910488411
 30
0.0
 40
0.7999999999999546
 50
270.0
 51
0.0
  0
ARC
  5
1D73
  8
0
 10
57.468795211178417
 20
125.81163910488409
 30
0.0
 40
0.7999999999999972
 50
0.0
 51
90.0
  0
LINE
  5
1D74
  8
0
 10
50.368795211178387
 20
125.81163910488409
 30
0.0
 11
50.368795211178387
 21
114.61163910488411
 31
0.0
  0
ARC
  5
1D75
  8
0
 10
51.168795211178349
 20
114.61163910488411
 30
0.0
 40
0.799999999999983
 50
180.0
 51
270.0
  0
ARC
  5
1D76
  8
0
 10
51.168795211178413
 20
125.81163910488409
 30
0.0
 40
0.8000000000000255
 50
90.0
 51
180.0
  0
LINE
  5
1D77
  8
0
 10
51.168795211178349
 20
113.81163910488409
 30
0.0
 11
57.468795211178417
 21
113.81163910488409
 31
0.0
  0
LINE
  5
1D78
  8
0
 10
57.468795211178417
 20
126.61163910488411
 30
0.0
 11
51.168795211178349
 21
126.61163910488411
 31
0.0
  0
LINE
  5
1D79
  8
0
 10
98.661688429991855
 20
96.211639104884156
 30
0.0
 11
99.368795211178394
 21
96.918745886070695
 31
0.0
  0
LINE
  5
1D7A
  8
0
 10
81.368795211178394
 20
96.918745886070695
 30
0.0
 11
82.075901992364948
 21
96.211639104884156
 31
0.0
  0
LINE
  5
1D7B
  8
0
 10
98.661688429991855
 20
96.211639104884156
 30
0.0
 11
82.075901992364948
 21
96.211639104884156
 31
0.0
  0
LINE
  5
1D7C
  8
0
 10
82.075901992364948
 20
128.2116391048842
 30
0.0
 11
81.368795211178394
 21
127.5045323236976
 31
0.0
  0
LINE
  5
1D7D
  8
0
 10
99.368795211178394
 20
127.5045323236976
 30
0.0
 11
98.661688429991855
 21
128.2116391048842
 31
0.0
  0
LINE
  5
1D7E
  8
0
 10
98.661688429991855
 20
128.2116391048842
 30
0.0
 11
82.075901992364948
 21
128.2116391048842
 31
0.0
  0
LINE
  5
1D7F
  8
0
 10
81.368795211178394
 20
127.5045323236976
 30
0.0
 11
81.368795211178394
 21
124.20646712623279
 31
0.0
  0
LINE
  5
1D80
  8
0
 10
81.368795211178394
 20
116.22563209325619
 30
0.0
 11
81.368795211178394
 21
96.918745886070695
 31
0.0
  0
LINE
  5
1D81
  8
0
 10
99.368795211178394
 20
96.918745886070695
 30
0.0
 11
99.368795211178394
 21
116.2168110835355
 31
0.0
  0
LINE
  5
1D82
  8
0
 10
99.368795211178394
 20
124.1976461165121
 30
0.0
 11
99.368795211178394
 21
127.5045323236976
 31
0.0
  0
LINE
  5
1D83
  8
0
 10
99.368795211178394
 20
96.918745886070695
 30
0.0
 11
81.368795211178394
 21
96.918745886070695
 31
0.0
  0
POLYLINE
  5
1D84
  8
0
 66
     1
 10
0.0
 20
0.0
 30
0.0
  0
VERTEX
  5
1F06
  8
0
 10
99.368795211090571
 20
124.2116391046865
 30
0.0
  0
VERTEX
  5
1F07
  8
0
 10
99.364382681171222
 20
124.2017010004305
 30
0.0
  0
VERTEX
  5
1F08
  8
0
 10
99.325034229833193
 20
124.112179754496
 30
0.0
  0
VERTEX
  5
1F09
  8
0
 10
99.245761902858547
 20
123.9265465929918
 30
0.0
  0
VERTEX
  5
1F0A
  8
0
 10
99.136059236195536
 20
123.6561882022785
 30
0.0
  0
VERTEX
  5
1F0B
  8
0
 10
99.001565151554985
 20
123.2978531032112
 30
0.0
  0
VERTEX
  5
1F0C
  8
0
 10
98.849227949251954
 20
122.8417986865425
 30
0.0
  0
VERTEX
  5
1F0D
  8
0
 10
98.697050313695755
 20
122.29966042963299
 30
0.0
  0
VERTEX
  5
1F0E
  8
0
 10
98.564977884691018
 20
121.6872442070672
 30
0.0
  0
VERTEX
  5
1F0F
  8
0
 10
98.469757161644225
 20
121.0025781182694
 30
0.0
  0
VERTEX
  5
1F10
  8
0
 10
98.432433887319476
 20
120.3608661110142
 30
0.0
  0
VERTEX
  5
1F11
  8
0
 10
98.447757491873986
 20
119.6923785412919
 30
0.0
  0
VERTEX
  5
1F12
  8
0
 10
98.506202883595734
 20
119.10827895193491
 30
0.0
  0
VERTEX
  5
1F13
  8
0
 10
98.602844491764316
 20
118.5384482744296
 30
0.0
  0
VERTEX
  5
1F14
  8
0
 10
98.728464808853801
 20
118.001644584009
 30
0.0
  0
VERTEX
  5
1F15
  8
0
 10
98.872180632731656
 20
117.5083885379769
 30
0.0
  0
VERTEX
  5
1F16
  8
0
 10
99.026831986833272
 20
117.0554387296558
 30
0.0
  0
VERTEX
  5
1F17
  8
0
 10
99.170657004177315
 20
116.6799580571316
 30
0.0
  0
VERTEX
  5
1F18
  8
0
 10
99.281251560303076
 20
116.4127079163717
 30
0.0
  0
VERTEX
  5
1F19
  8
0
 10
99.351263265461526
 20
116.2512436263724
 30
0.0
  0
VERTEX
  5
1F1A
  8
0
 10
99.368795210963015
 20
116.2116391053688
 30
0.0
  0
SEQEND
  5
1F1B
  8
0
  0
LINE
  5
1D85
  8
0
 10
99.368795211178394
 20
127.5045323236976
 30
0.0
 11
81.368795211178394
 21
127.5045323236976
 31
0.0
  0
POLYLINE
  5
1D86
  8
0
 66
     1
 10
0.0
 20
0.0
 30
0.0
  0
VERTEX
  5
1F1C
  8
0
 10
81.368795211266203
 20
116.2116391050818
 30
0.0
  0
VERTEX
  5
1F1D
  8
0
 10
81.373207741185581
 20
116.2215772093378
 30
0.0
  0
VERTEX
  5
1F1E
  8
0
 10
81.412556192523596
 20
116.3110984552722
 30
0.0
  0
VERTEX
  5
1F1F
  8
0
 10
81.491828519498256
 20
116.4967316167765
 30
0.0
  0
VERTEX
  5
1F20
  8
0
 10
81.601531186161253
 20
116.7670900074898
 30
0.0
  0
VERTEX
  5
1F21
  8
0
 10
81.736025270801804
 20
117.1254251065571
 30
0.0
  0
VERTEX
  5
1F22
  8
0
 10
81.888362473104849
 20
117.58147952322579
 30
0.0
  0
VERTEX
  5
1F23
  8
0
 10
82.040540108661048
 20
118.12361778013531
 30
0.0
  0
VERTEX
  5
1F24
  8
0
 10
82.172612537665785
 20
118.736034002701
 30
0.0
  0
VERTEX
  5
1F25
  8
0
 10
82.267833260712564
 20
119.4207000914988
 30
0.0
  0
VERTEX
  5
1F26
  8
0
 10
82.305156535037327
 20
120.06241209875409
 30
0.0
  0
VERTEX
  5
1F27
  8
0
 10
82.289832930482817
 20
120.7308996684764
 30
0.0
  0
VERTEX
  5
1F28
  8
0
 10
82.231387538761055
 20
121.31499925783341
 30
0.0
  0
VERTEX
  5
1F29
  8
0
 10
82.134745930592487
 20
121.8848299353387
 30
0.0
  0
VERTEX
  5
1F2A
  8
0
 10
82.009125613503045
 20
122.4216336257592
 30
0.0
  0
VERTEX
  5
1F2B
  8
0
 10
81.865409789625105
 20
122.9148896717914
 30
0.0
  0
VERTEX
  5
1F2C
  8
0
 10
81.71075843552353
 20
123.36783948011249
 30
0.0
  0
VERTEX
  5
1F2D
  8
0
 10
81.566933418179474
 20
123.7433201526367
 30
0.0
  0
VERTEX
  5
1F2E
  8
0
 10
81.456338862053727
 20
124.0105702933966
 30
0.0
  0
VERTEX
  5
1F2F
  8
0
 10
81.386327156895277
 20
124.1720345833959
 30
0.0
  0
VERTEX
  5
1F30
  8
0
 10
81.368795211393774
 20
124.2116391043995
 30
0.0
  0
SEQEND
  5
1F31
  8
0
  0
LINE
  5
1D87
  8
1
 10
90.368795211178394
 20
164.21163910488411
 30
0.0
 11
90.368795211178394
 21
192.21163910488411
 31
0.0
  0
LINE
  5
1D88
  8
1
 10
45.368795211178387
 20
178.21163910488411
 30
0.0
 11
135.36879521117831
 21
178.2116391048842
 31
0.0
  0
LINE
  5
1D89
  8
0
 10
58.268795211178372
 20
174.21163910488411
 30
0.0
 11
82.306537462879817
 21
174.21163910488411
 31
0.0
  0
LINE
  5
1D8A
  8
0
 10
82.306537462879874
 20
182.2116391048842
 30
0.0
 11
58.268795211178372
 21
182.2116391048842
 31
0.0
  0
LINE
  5
1D8B
  8
0
 10
98.431052959476972
 20
174.21163910488411
 30
0.0
 11
122.4687952111784
 21
174.21163910488411
 31
0.0
  0
LINE
  5
1D8C
  8
0
 10
122.4687952111784
 20
182.2116391048842
 30
0.0
 11
98.431052959476915
 21
182.2116391048842
 31
0.0
  0
LINE
  5
1D8D
  8
0
 10
122.4687952111784
 20
183.81163910488419
 30
0.0
 11
122.4687952111784
 21
172.61163910489711
 31
0.0
  0
ARC
  5
1D8E
  8
0
 10
123.2687952111783
 20
172.61163910488409
 30
0.0
 40
0.7999999999999689
 50
180.0
 51
270.0
  0
ARC
  5
1D8F
  8
0
 10
123.2687952111783
 20
183.81163910488419
 30
0.0
 40
0.799999999999984
 50
90.0
 51
180.0
  0
LINE
  5
1D90
  8
0
 10
130.36879521117839
 20
183.81163911680511
 30
0.0
 11
130.36879521117839
 21
172.61163909297611
 31
0.0
  0
ARC
  5
1D91
  8
0
 10
129.56879521117841
 20
172.61163910488409
 30
0.0
 40
0.7999999999999706
 50
270.0
 51
0.0
  0
ARC
  5
1D92
  8
0
 10
129.56879521117841
 20
183.81163910488419
 30
0.0
 40
0.7999999999999689
 50
0.0
 51
90.0
  0
LINE
  5
1D93
  8
0
 10
123.2687952111783
 20
171.81163910488419
 30
0.0
 11
129.56879521117841
 21
171.81163910488419
 31
0.0
  0
LINE
  5
1D94
  8
0
 10
129.56879521117841
 20
184.61163910488409
 30
0.0
 11
123.2687952111783
 21
184.61163910488409
 31
0.0
  0
LINE
  5
1D95
  8
0
 10
58.268795211178372
 20
183.81163911680511
 30
0.0
 11
58.268795211178372
 21
172.61163909297611
 31
0.0
  0
ARC
  5
1D96
  8
0
 10
57.468795211178417
 20
172.61163910488409
 30
0.0
 40
0.7999999999999741
 50
270.0
 51
0.0
  0
ARC
  5
1D97
  8
0
 10
57.468795211178417
 20
183.81163910488419
 30
0.0
 40
0.7999999999999741
 50
0.0
 51
90.0
  0
LINE
  5
1D98
  8
0
 10
51.168795211178349
 20
171.81163910488411
 30
0.0
 11
57.468795211178417
 21
171.81163910488411
 31
0.0
  0
LINE
  5
1D99
  8
0
 10
57.468795211178417
 20
184.61163910488409
 30
0.0
 11
51.168795211178349
 21
184.61163910488409
 31
0.0
  0
LINE
  5
1D9A
  8
0
 10
50.368795211178387
 20
183.81163910488419
 30
0.0
 11
50.368795211178387
 21
172.61163910489711
 31
0.0
  0
ARC
  5
1D9B
  8
0
 10
51.168795211178413
 20
172.61163910488409
 30
0.0
 40
0.7999999999999901
 50
180.0
 51
270.0
  0
ARC
  5
1D9C
  8
0
 10
51.168795211178413
 20
183.81163910488419
 30
0.0
 40
0.7999999999999857
 50
90.0
 51
180.0
  0
CIRCLE
  5
1D9D
  8
0
 10
90.368795211178394
 20
178.2116391048842
 30
0.0
 40
9.0000000000000018
  0
LINE
  5
1D9F
  8
1
 10
168.9687952111845
 20
120.2116391048841
 30
0.0
 11
191.76879521118451
 21
120.2116391048841
 31
0.0
  0
LINE
  5
1DA0
  8
1
 10
180.36879521118459
 20
133.2116391048842
 30
0.0
 11
180.36879521118439
 21
51.211639104884163
 31
0.0
  0
LINE
  5
1DA1
  8
0
 10
176.76879521118451
 20
64.40334872801867
 30
0.0
 11
176.76879521118451
 21
60.711639104884149
 31
0.0
  0
LINE
  5
1DA2
  8
0
 10
183.9687952111845
 20
60.711639104884149
 30
0.0
 11
183.9687952111845
 21
64.40334872801867
 31
0.0
  0
LINE
  5
1DA3
  8
0
 10
184.3687952111845
 20
60.711639104884149
 30
0.0
 11
176.3687952111845
 21
60.711639104884149
 31
0.0
  0
LINE
  5
1DA4
  8
0
 10
176.3687952111845
 20
60.711639104884149
 30
0.0
 11
176.3687952111845
 21
57.73950314988457
 31
0.0
  0
LINE
  5
1DA5
  8
0
 10
184.3687952111845
 20
57.73950314988457
 30
0.0
 11
184.3687952111845
 21
60.711639104884149
 31
0.0
  0
LINE
  5
1DA6
  8
0
 10
184.3687952111845
 20
57.73950314988457
 30
0.0
 11
176.3687952111845
 21
57.73950314988457
 31
0.0
  0
ARC
  5
1DA7
  8
0
 10
180.3687952111845
 20
62.211639104884149
 30
0.0
 40
5.9999999999999991
 50
228.1896851042199
 51
311.81031489577998
  0
LINE
  5
1DA8
  8
0
 10
175.3687952111845
 20
96.211639104884156
 30
0.0
 11
175.3687952111845
 21
65.211639104884156
 31
0.0
  0
LINE
  5
1DA9
  8
0
 10
185.3687952111845
 20
65.211639104884156
 30
0.0
 11
185.3687952111845
 21
96.211639104884156
 31
0.0
  0
LINE
  5
1DAA
  8
0
 10
183.9687952111845
 20
64.40334872801867
 30
0.0
 11
176.76879521118451
 21
64.40334872801867
 31
0.0
  0
LINE
  5
1DAB
  8
0
 10
185.3687952111845
 20
65.211639104884156
 30
0.0
 11
175.3687952111845
 21
65.211639104884156
 31
0.0
  0
LINE
  5
1DAC
  8
0
 10
183.9687952111845
 20
64.40334872801867
 30
0.0
 11
185.3687952111845
 21
65.211639104884156
 31
0.0
  0
LINE
  5
1DAD
  8
0
 10
175.3687952111845
 20
65.211639104884156
 30
0.0
 11
176.76879521118451
 21
64.40334872801867
 31
0.0
  0
LINE
  5
1DAE
  8
0
 10
188.66168842999789
 20
128.2116391048842
 30
0.0
 11
172.07590199237109
 21
128.2116391048842
 31
0.0
  0
LINE
  5
1DAF
  8
0
 10
172.07590199237109
 20
128.2116391048842
 30
0.0
 11
171.3687952111845
 21
127.5045323236976
 31
0.0
  0
LINE
  5
1DB0
  8
0
 10
189.3687952111845
 20
127.5045323236976
 30
0.0
 11
188.66168842999789
 21
128.2116391048842
 31
0.0
  0
LINE
  5
1DB1
  8
0
 10
188.66168842999789
 20
96.211639104884156
 30
0.0
 11
172.07590199237109
 21
96.211639104884156
 31
0.0
  0
LINE
  5
1DB2
  8
0
 10
188.66168842999789
 20
96.211639104884156
 30
0.0
 11
189.3687952111845
 21
96.918745886070695
 31
0.0
  0
LINE
  5
1DB3
  8
0
 10
171.3687952111845
 20
96.918745886070695
 30
0.0
 11
172.07590199237109
 21
96.211639104884156
 31
0.0
  0
LINE
  5
1DB4
  8
0
 10
189.3687952111845
 20
96.918745886070695
 30
0.0
 11
171.3687952111845
 21
96.918745886070695
 31
0.0
  0
LINE
  5
1DB5
  8
0
 10
189.3687952111845
 20
127.5045323236976
 30
0.0
 11
171.3687952111845
 21
127.5045323236976
 31
0.0
  0
LINE
  5
1DB6
  8
0
 10
171.3687952111845
 20
127.5045323236976
 30
0.0
 11
171.3687952111845
 21
96.918745886070695
 31
0.0
  0
LINE
  5
1DB7
  8
0
 10
189.3687952111845
 20
96.918745886070695
 30
0.0
 11
189.3687952111845
 21
127.5045323236976
 31
0.0
  0
CIRCLE
  5
1DB8
  8
0
 10
180.3687952111845
 20
120.2116391048841
 30
0.0
 40
6.4000000000000021
  0
LINE
  5
1DCD
  8
3
 10
94.448795211178378
 20
64.680476857229678
 30
0.0
 11
94.448795211178378
 21
86.211639104884142
 31
0.0
  0
LINE
  5
1DCE
  8
0
 10
95.368795211178394
 20
86.211639104884142
 30
0.0
 11
85.368795211178394
 21
86.211639104884142
 31
0.0
  0
LINE
  5
1DCF
  8
3
 10
86.28879521117841
 20
64.680476857229706
 30
0.0
 11
86.28879521117841
 21
86.211639104884142
 31
0.0
  0
LINE
  5
1DD0
  8
3
 10
86.28879521117841
 20
86.211639104884114
 30
0.0
 11
85.368795211178394
 21
87.805125847847478
 31
0.0
  0
LINE
  5
1DD1
  8
3
 10
94.448795211178378
 20
86.211639104884114
 30
0.0
 11
95.368795211178394
 21
87.805125847847435
 31
0.0
  0
LINE
  5
1DD2
  8
3
 10
184.44879521118429
 20
64.680476857229564
 30
0.0
 11
184.4487952111844
 21
86.211639104884142
 31
0.0
  0
LINE
  5
1DD3
  8
0
 10
185.36879521118439
 20
86.211639104884142
 30
0.0
 11
175.36879521118439
 21
86.211639104884142
 31
0.0
  0
LINE
  5
1DD4
  8
3
 10
176.28879521118441
 20
64.680476857229763
 30
0.0
 11
176.28879521118441
 21
86.211639104884142
 31
0.0
  0
LINE
  5
1DD5
  8
3
 10
176.28879521118441
 20
86.211639104884114
 30
0.0
 11
175.36879521118439
 21
87.805125847847478
 31
0.0
  0
LINE
  5
1DD6
  8
3
 10
184.4487952111844
 20
86.211639104884114
 30
0.0
 11
185.36879521118439
 21
87.805125847847435
 31
0.0
  0
ENDSEC
  0
EOF
