  0
SECTION
  2
HEADER
  9
$ACADVER
  1
AC1009
  9
$INSBASE
 10
0.0
 20
0.0
 30
0.0
  9
$EXTMIN
 10
0.0
 20
-2.960436562073669
 30
0.0
  9
$EXTMAX
 10
178.36879521117839
 20
180.2116391048842
 30
0.0
  9
$LIMMIN
 10
0.0
 20
0.0
  9
$LIMMAX
 10
420.0
 20
297.0
  9
$ORTHOMODE
 70
     1
  9
$REGENMODE
 70
     1
  9
$FILLMODE
 70
     1
  9
$QTEXTMODE
 70
     0
  9
$MIRRTEXT
 70
     0
  9
$DRAGMODE
 70
     2
  9
$LTSCALE
 40
5.0
  9
$OSMODE
 70
    37
  9
$ATTMODE
 70
     1
  9
$TEXTSIZE
 40
2.5
  9
$TRACEWID
 40
1.0
  9
$TEXTSTYLE
  7
STANDARD
  9
$CLAYER
  8
0
  9
$CELTYPE
  6
BYLAYER
  9
$CECOLOR
 62
   256
  9
$DIMSCALE
 40
1.0
  9
$DIMASZ
 40
2.5
  9
$DIMEXO
 40
0.625
  9
$DIMDLI
 40
3.75
  9
$DIMRND
 40
0.0
  9
$DIMDLE
 40
0.0
  9
$DIMEXE
 40
1.25
  9
$DIMTP
 40
0.0
  9
$DIMTM
 40
0.0
  9
$DIMTXT
 40
2.5
  9
$DIMCEN
 40
2.5
  9
$DIMTSZ
 40
0.0
  9
$DIMTOL
 70
     0
  9
$DIMLIM
 70
     0
  9
$DIMTIH
 70
     0
  9
$DIMTOH
 70
     0
  9
$DIMSE1
 70
     0
  9
$DIMSE2
 70
     0
  9
$DIMTAD
 70
     1
  9
$DIMZIN
 70
     8
  9
$DIMBLK
  1

  9
$DIMASO
 70
     1
  9
$DIMSHO
 70
     1
  9
$DIMPOST
  1

  9
$DIMAPOST
  1

  9
$DIMALT
 70
     0
  9
$DIMALTD
 70
     3
  9
$DIMALTF
 40
0.03937007874016
  9
$DIMLFAC
 40
1.0
  9
$DIMTOFL
 70
     1
  9
$DIMTVP
 40
0.0
  9
$DIMTIX
 70
     0
  9
$DIMSOXD
 70
     0
  9
$DIMSAH
 70
     0
  9
$DIMBLK1
  1

  9
$DIMBLK2
  1

  9
$DIMSTYLE
  2
ISO-25
  9
$DIMCLRD
 70
     0
  9
$DIMCLRE
 70
     0
  9
$DIMCLRT
 70
     0
  9
$DIMTFAC
 40
1.0
  9
$DIMGAP
 40
0.625
  9
$LUNITS
 70
     2
  9
$LUPREC
 70
     4
  9
$SKETCHINC
 40
1.0
  9
$FILLETRAD
 40
0.0
  9
$AUNITS
 70
     0
  9
$AUPREC
 70
     0
  9
$MENU
  1
.
  9
$ELEVATION
 40
0.0
  9
$PELEVATION
 40
0.0
  9
$THICKNESS
 40
0.0
  9
$LIMCHECK
 70
     0
  9
$BLIPMODE
 70
     0
  9
$CHAMFERA
 40
0.0
  9
$CHAMFERB
 40
0.0
  9
$SKPOLY
 70
     0
  9
$TDCREATE
 40
2454979.4917406249
  9
$TDUPDATE
 40
2456776.5876436001
  9
$TDINDWG
 40
0.1528993056
  9
$TDUSRTIMER
 40
0.1528991319
  9
$USRTIMER
 70
     1
  9
$ANGBASE
 50
0.0
  9
$ANGDIR
 70
     0
  9
$PDMODE
 70
     0
  9
$PDSIZE
 40
0.0
  9
$PLINEWID
 40
0.0
  9
$COORDS
 70
     1
  9
$SPLFRAME
 70
     0
  9
$SPLINETYPE
 70
     6
  9
$SPLINESEGS
 70
     8
  9
$ATTDIA
 70
     0
  9
$ATTREQ
 70
     1
  9
$HANDLING
 70
     1
  9
$HANDSEED
  5
22E1
  9
$SURFTAB1
 70
     6
  9
$SURFTAB2
 70
     6
  9
$SURFTYPE
 70
     6
  9
$SURFU
 70
     6
  9
$SURFV
 70
     6
  9
$UCSNAME
  2

  9
$UCSORG
 10
0.0
 20
0.0
 30
0.0
  9
$UCSXDIR
 10
1.0
 20
0.0
 30
0.0
  9
$UCSYDIR
 10
0.0
 20
1.0
 30
0.0
  9
$PUCSNAME
  2

  9
$PUCSORG
 10
0.0
 20
0.0
 30
0.0
  9
$PUCSXDIR
 10
1.0
 20
0.0
 30
0.0
  9
$PUCSYDIR
 10
0.0
 20
1.0
 30
0.0
  9
$USERI1
 70
     0
  9
$USERI2
 70
     0
  9
$USERI3
 70
     0
  9
$USERI4
 70
     0
  9
$USERI5
 70
     0
  9
$USERR1
 40
0.0
  9
$USERR2
 40
0.0
  9
$USERR3
 40
0.0
  9
$USERR4
 40
0.0
  9
$USERR5
 40
0.0
  9
$WORLDVIEW
 70
     1
  9
$SHADEDGE
 70
     3
  9
$SHADEDIF
 70
    70
  9
$TILEMODE
 70
     1
  9
$MAXACTVP
 70
    64
  9
$PLIMCHECK
 70
     0
  9
$PEXTMIN
 10
0.0
 20
0.0
 30
0.0
  9
$PEXTMAX
 10
0.0
 20
0.0
 30
0.0
  9
$PLIMMIN
 10
0.0
 20
0.0
  9
$PLIMMAX
 10
12.0
 20
9.0
  9
$UNITMODE
 70
     0
  9
$VISRETAIN
 70
     1
  9
$PLINEGEN
 70
     0
  9
$PSLTSCALE
 70
     1
  0
ENDSEC
  0
SECTION
  2
TABLES
  0
TABLE
  2
VPORT
 70
     1
  0
VPORT
  2
*ACTIVE
 70
     0
 10
0.0
 20
0.0
 11
1.0
 21
1.0
 12
235.63977746870651
 22
135.0
 13
0.0
 23
0.0
 14
10.0
 24
10.0
 15
10.0
 25
10.0
 16
0.0
 26
0.0
 36
1.0
 17
0.0
 27
0.0
 37
0.0
 40
270.0
 41
1.7454798331015291
 42
50.0
 43
0.0
 44
0.0
 50
0.0
 51
0.0
 71
     0
 72
  1000
 73
     1
 74
     3
 75
     0
 76
     0
 77
     0
 78
     0
  0
ENDTAB
  0
TABLE
  2
LTYPE
 70
     2
  0
LTYPE
  2
CONTINUOUS
 70
     0
  3
Solid line
 72
    65
 73
     0
 40
0.0
  0
LTYPE
  2
CENTER
 70
     0
  3
____ _ ____ _ ____ _ ____ _ ____ _ ____ _ ____
 72
    65
 73
     4
 40
2.0
 49
1.25
 49
-0.25
 49
0.25
 49
-0.25
  0
ENDTAB
  0
TABLE
  2
LAYER
 70
     3
  0
LAYER
  2
0
 70
     0
 62
     7
  6
CONTINUOUS
  0
LAYER
  2
1
 70
     0
 62
     1
  6
CENTER
  0
LAYER
  2
3
 70
     0
 62
     3
  6
CONTINUOUS
  0
ENDTAB
  0
TABLE
  2
STYLE
 70
     2
  0
STYLE
  2
STANDARD
 70
     0
 40
0.0
 41
1.0
 50
0.0
 71
     0
 42
2.5
  3
txt
  4

  0
STYLE
  2
STANDARD1
 70
     0
 40
0.0
 41
1.0
 50
0.0
 71
     0
 42
3.0
  3
txt
  4

  0
ENDTAB
  0
TABLE
  2
VIEW
 70
     0
  0
ENDTAB
  0
TABLE
  2
UCS
 70
     0
  0
ENDTAB
  0
TABLE
  2
APPID
 70
     5
  0
APPID
  2
ACAD
 70
     0
  0
APPID
  2
ACAD_MLEADERVER
 70
     0
  0
APPID
  2
ACAD_NAV_VCDISPLAY
 70
     0
  0
APPID
  2
ACAD_EXEMPT_FROM_CAD_STANDARDS
 70
     0
  0
APPID
  2
ACADANNOTATIVE
 70
     0
  0
ENDTAB
  0
TABLE
  2
DIMSTYLE
 70
     2
  0
DIMSTYLE
  2
ISO-25
 70
     0
  3

  4

  5

  6

  7

 40
1.0
 41
2.5
 42
0.625
 43
3.75
 44
1.25
 45
0.0
 46
0.0
 47
0.0
 48
0.0
140
2.5
141
2.5
142
0.0
143
0.03937007874016
144
1.0
145
0.0
146
1.0
147
0.625
 71
     0
 72
     0
 73
     0
 74
     0
 75
     0
 76
     0
 77
     1
 78
     8
170
     0
171
     3
172
     1
173
     0
174
     0
175
     0
176
     0
177
     0
178
     0
  0
DIMSTYLE
  2
STANDARD
 70
     0
  3

  4

  5

  6

  7

 40
1.0
 41
0.18
 42
0.0625
 43
0.38
 44
0.18
 45
0.0
 46
0.0
 47
0.0
 48
0.0
140
0.18
141
0.09
142
0.0
143
25.399999999999999
144
1.0
145
0.0
146
1.0
147
0.09
 71
     0
 72
     0
 73
     1
 74
     1
 75
     0
 76
     0
 77
     0
 78
     0
170
     0
171
     2
172
     0
173
     0
174
     0
175
     0
176
     0
177
     0
178
     0
  0
ENDTAB
  0
ENDSEC
  0
SECTION
  2
BLOCKS
  0
BLOCK
  8
0
  2
$MODEL_SPACE
 70
     0
 10
0.0
 20
0.0
 30
0.0
  3
$MODEL_SPACE
  1

  0
ENDBLK
  5
21
  8
0
  0
BLOCK
 67
     1
  8
0
  2
$PAPER_SPACE
 70
     0
 10
0.0
 20
0.0
 30
0.0
  3
$PAPER_SPACE
  1

  0
ENDBLK
  5
53
 67
     1
  8
0
  0
ENDSEC
  0
SECTION
  2
ENTITIES
  0
TEXT
  5
749
  8
0
 62
     3
 10
0.0
 20
0.0
 30
0.0
 40
10.0
  1
TBKF8X50
  7
STANDARD1
  0
LINE
  5
20EC
  8
1
 10
90.368795211178508
 20
123.2116391048842
 30
0.0
 11
90.368795211178437
 21
51.211639104884192
 31
0.0
  0
LINE
  5
20ED
  8
1
 10
55.368795211178451
 20
112.2116391048842
 30
0.0
 11
125.36879521117839
 21
112.2116391048842
 31
0.0
  0
LINE
  5
20EE
  8
0
 10
87.668795211178463
 20
62.96108375493769
 30
0.0
 11
87.668795211178463
 21
59.211639104884199
 31
0.0
  0
LINE
  5
20EF
  8
0
 10
93.06879521117844
 20
59.211639104884199
 30
0.0
 11
93.06879521117844
 21
62.96108375493769
 31
0.0
  0
ARC
  5
20F0
  8
0
 10
90.368795211178437
 20
61.211639104884192
 30
0.0
 40
5.0000000000000044
 50
233.13010235415439
 51
306.8698976458457
  0
LINE
  5
20F1
  8
0
 10
87.368795211178451
 20
59.211639104884199
 30
0.0
 11
87.368795211178451
 21
57.211639104884199
 31
0.0
  0
LINE
  5
20F2
  8
0
 10
93.368795211178451
 20
57.211639104884199
 30
0.0
 11
93.368795211178451
 21
59.211639104884199
 31
0.0
  0
LINE
  5
20F3
  8
0
 10
93.368795211178451
 20
57.211639104884199
 30
0.0
 11
87.368795211178451
 21
57.211639104884199
 31
0.0
  0
LINE
  5
20F4
  8
0
 10
93.368795211178451
 20
59.211639104884199
 30
0.0
 11
87.368795211178451
 21
59.211639104884199
 31
0.0
  0
LINE
  5
20F5
  8
0
 10
120.36879521117839
 20
114.9116391048842
 30
0.0
 11
120.0687952111784
 21
115.2116391048842
 31
0.0
  0
LINE
  5
20F6
  8
0
 10
120.0687952111784
 20
109.2116391048842
 30
0.0
 11
120.36879521117839
 21
109.5116391048842
 31
0.0
  0
LINE
  5
20F7
  8
0
 10
120.36879521117839
 20
114.9116391048842
 30
0.0
 11
120.36879521117839
 21
109.5116391048842
 31
0.0
  0
LINE
  5
20F8
  8
0
 10
60.668795211178463
 20
109.2116391048842
 30
0.0
 11
83.373334019707514
 21
109.2116391048842
 31
0.0
  0
LINE
  5
20F9
  8
0
 10
83.371212418525374
 20
115.2116391048842
 30
0.0
 11
60.668795211178463
 21
115.2116391048842
 31
0.0
  0
LINE
  5
20FA
  8
0
 10
60.368795211178451
 20
109.5116391048842
 30
0.0
 11
60.668795211178463
 21
109.2116391048842
 31
0.0
  0
LINE
  5
20FB
  8
0
 10
60.668795211178463
 20
115.2116391048842
 30
0.0
 11
60.368795211178451
 21
114.9116391048842
 31
0.0
  0
LINE
  5
20FC
  8
0
 10
60.668795211178463
 20
115.2116391048842
 30
0.0
 11
60.668795211178463
 21
109.2116391048842
 31
0.0
  0
LINE
  5
20FD
  8
0
 10
60.368795211178451
 20
114.9116391048842
 30
0.0
 11
60.368795211178451
 21
109.5116391048842
 31
0.0
  0
LINE
  5
20FE
  8
0
 10
97.366378003831528
 20
109.2116391048842
 30
0.0
 11
120.0687952111784
 21
109.2116391048842
 31
0.0
  0
LINE
  5
20FF
  8
0
 10
120.0687952111784
 20
115.2116391048842
 30
0.0
 11
97.364256402649403
 21
115.2116391048842
 31
0.0
  0
LINE
  5
2100
  8
0
 10
120.0687952111784
 20
115.2116391048842
 30
0.0
 11
120.0687952111784
 21
109.2116391048842
 31
0.0
  0
LINE
  5
2101
  8
0
 10
93.06879521117844
 20
62.96108375493769
 30
0.0
 11
94.368795211178451
 21
63.711639104884192
 31
0.0
  0
LINE
  5
2102
  8
0
 10
86.368795211178465
 20
63.711639104884192
 30
0.0
 11
87.668795211178463
 21
62.96108375493769
 31
0.0
  0
LINE
  5
2103
  8
0
 10
93.06879521117844
 20
62.96108375493769
 30
0.0
 11
87.668795211178463
 21
62.96108375493769
 31
0.0
  0
LINE
  5
2104
  8
0
 10
86.368795211178465
 20
106.2116391048842
 30
0.0
 11
86.368795211178465
 21
63.711639104884192
 31
0.0
  0
LINE
  5
2105
  8
0
 10
94.368795211178451
 20
63.711639104884192
 30
0.0
 11
94.368795211178451
 21
106.2116391048842
 31
0.0
  0
LINE
  5
2106
  8
0
 10
94.368795211178451
 20
63.711639104884192
 30
0.0
 11
86.368795211178465
 21
63.711639104884192
 31
0.0
  0
LINE
  5
2107
  8
0
 10
83.863769958009016
 20
118.2116391048842
 30
0.0
 11
83.368795211178451
 21
117.71666435805361
 31
0.0
  0
LINE
  5
2108
  8
0
 10
97.368795211178451
 20
117.71666435805361
 30
0.0
 11
96.873820464347887
 21
118.2116391048842
 31
0.0
  0
LINE
  5
2109
  8
0
 10
96.873820464347887
 20
118.2116391048842
 30
0.0
 11
83.863769958009016
 21
118.2116391048842
 31
0.0
  0
LINE
  5
210A
  8
0
 10
96.873820464347887
 20
106.2116391048842
 30
0.0
 11
97.368795211178451
 21
106.70661385171481
 31
0.0
  0
LINE
  5
210B
  8
0
 10
83.368795211178451
 20
106.70661385171481
 30
0.0
 11
83.863769958009016
 21
106.2116391048842
 31
0.0
  0
LINE
  5
210C
  8
0
 10
96.873820464347887
 20
106.2116391048842
 30
0.0
 11
83.863769958009016
 21
106.2116391048842
 31
0.0
  0
LINE
  5
210D
  8
0
 10
83.368795211178451
 20
117.71666435805361
 30
0.0
 11
83.368795211178451
 21
115.2059708805153
 31
0.0
  0
LINE
  5
210E
  8
0
 10
83.368795211178451
 20
109.2222471917851
 30
0.0
 11
83.368795211178451
 21
106.70661385171481
 31
0.0
  0
LINE
  5
210F
  8
0
 10
97.368795211178451
 20
106.70661385171481
 30
0.0
 11
97.368795211178451
 21
109.217307329253
 31
0.0
  0
LINE
  5
2110
  8
0
 10
97.368795211178451
 20
115.2010310179832
 30
0.0
 11
97.368795211178451
 21
117.71666435805361
 31
0.0
  0
LINE
  5
2111
  8
0
 10
97.368795211178451
 20
106.70661385171481
 30
0.0
 11
83.368795211178451
 21
106.70661385171481
 31
0.0
  0
POLYLINE
  5
2112
  8
0
 66
     1
 10
0.0
 20
0.0
 30
0.0
  0
VERTEX
  5
22B5
  8
0
 10
97.368795211143777
 20
115.2116391048033
 30
0.0
  0
VERTEX
  5
22B6
  8
0
 10
97.365321450235854
 20
115.20352469992601
 30
0.0
  0
VERTEX
  5
22B7
  8
0
 10
97.336071165112074
 20
115.1344689354186
 30
0.0
  0
VERTEX
  5
22B8
  8
0
 10
97.277745434712585
 20
114.9925729752365
 30
0.0
  0
VERTEX
  5
22B9
  8
0
 10
97.197396732046641
 20
114.7864786592649
 30
0.0
  0
VERTEX
  5
22BA
  8
0
 10
97.099244428673842
 20
114.51358321134811
 30
0.0
  0
VERTEX
  5
22BB
  8
0
 10
96.989095940690333
 20
114.1682641965089
 30
0.0
  0
VERTEX
  5
22BC
  8
0
 10
96.879713611428144
 20
113.7582671838707
 30
0.0
  0
VERTEX
  5
22BD
  8
0
 10
96.786034100769541
 20
113.2983566238745
 30
0.0
  0
VERTEX
  5
22BE
  8
0
 10
96.719333421929605
 20
112.78551676276101
 30
0.0
  0
VERTEX
  5
22BF
  8
0
 10
96.694023933131135
 20
112.30393420234179
 30
0.0
  0
VERTEX
  5
22C0
  8
0
 10
96.706522148440683
 20
111.8032486895959
 30
0.0
  0
VERTEX
  5
22C1
  8
0
 10
96.750112168687622
 20
111.3624005564218
 30
0.0
  0
VERTEX
  5
22C2
  8
0
 10
96.821351391405685
 20
110.9327797463194
 30
0.0
  0
VERTEX
  5
22C3
  8
0
 10
96.913284418598266
 20
110.5292779706343
 30
0.0
  0
VERTEX
  5
22C4
  8
0
 10
97.018002152827293
 20
110.1593348016992
 30
0.0
  0
VERTEX
  5
22C5
  8
0
 10
97.12922608590236
 20
109.8234545199075
 30
0.0
  0
VERTEX
  5
22C6
  8
0
 10
97.23193257000851
 20
109.5465585420927
 30
0.0
  0
VERTEX
  5
22C7
  8
0
 10
97.309770255218794
 20
109.35207015799899
 30
0.0
  0
VERTEX
  5
22C8
  8
0
 10
97.357935838107323
 20
109.2370657400153
 30
0.0
  0
VERTEX
  5
22C9
  8
0
 10
97.368795210981261
 20
109.2116391053443
 30
0.0
  0
SEQEND
  5
22CA
  8
0
  0
LINE
  5
2113
  8
0
 10
97.368795211178451
 20
117.71666435805361
 30
0.0
 11
83.368795211178451
 21
117.71666435805361
 31
0.0
  0
POLYLINE
  5
2114
  8
0
 66
     1
 10
0.0
 20
0.0
 30
0.0
  0
VERTEX
  5
22CB
  8
0
 10
83.368795211213126
 20
109.2116391049651
 30
0.0
  0
VERTEX
  5
22CC
  8
0
 10
83.372268972121034
 20
109.21975350984231
 30
0.0
  0
VERTEX
  5
22CD
  8
0
 10
83.401519257244843
 20
109.2888092743497
 30
0.0
  0
VERTEX
  5
22CE
  8
0
 10
83.459844987644317
 20
109.4307052345319
 30
0.0
  0
VERTEX
  5
22CF
  8
0
 10
83.540193690310275
 20
109.6367995505034
 30
0.0
  0
VERTEX
  5
22D0
  8
0
 10
83.63834599368306
 20
109.90969499842021
 30
0.0
  0
VERTEX
  5
22D1
  8
0
 10
83.748494481666555
 20
110.2550140132595
 30
0.0
  0
VERTEX
  5
22D2
  8
0
 10
83.857876810928758
 20
110.6650110258976
 30
0.0
  0
VERTEX
  5
22D3
  8
0
 10
83.951556321587361
 20
111.1249215858938
 30
0.0
  0
VERTEX
  5
22D4
  8
0
 10
84.018257000427297
 20
111.63776144700731
 30
0.0
  0
VERTEX
  5
22D5
  8
0
 10
84.043566489225768
 20
112.11934400742661
 30
0.0
  0
VERTEX
  5
22D6
  8
0
 10
84.031068273916219
 20
112.62002952017249
 30
0.0
  0
VERTEX
  5
22D7
  8
0
 10
83.987478253669281
 20
113.06087765334649
 30
0.0
  0
VERTEX
  5
22D8
  8
0
 10
83.916239030951203
 20
113.490498463449
 30
0.0
  0
VERTEX
  5
22D9
  8
0
 10
83.824306003758636
 20
113.894000239134
 30
0.0
  0
VERTEX
  5
22DA
  8
0
 10
83.719588269529595
 20
114.2639434080692
 30
0.0
  0
VERTEX
  5
22DB
  8
0
 10
83.608364336454542
 20
114.5998236898608
 30
0.0
  0
VERTEX
  5
22DC
  8
0
 10
83.505657852348406
 20
114.8767196676756
 30
0.0
  0
VERTEX
  5
22DD
  8
0
 10
83.427820167138123
 20
115.0712080517694
 30
0.0
  0
VERTEX
  5
22DE
  8
0
 10
83.379654584249579
 20
115.1862124697531
 30
0.0
  0
VERTEX
  5
22DF
  8
0
 10
83.368795211375641
 20
115.21163910442399
 30
0.0
  0
SEQEND
  5
22E0
  8
0
  0
LINE
  5
2115
  8
1
 10
162.36879521117839
 20
112.2116391048842
 30
0.0
 11
178.36879521117839
 21
112.2116391048842
 31
0.0
  0
LINE
  5
2116
  8
1
 10
170.36879521117851
 20
123.2116391048842
 30
0.0
 11
170.36879521117839
 21
51.211639104884192
 31
0.0
  0
LINE
  5
2117
  8
0
 10
167.66879521117841
 20
62.96108375493769
 30
0.0
 11
167.66879521117841
 21
59.211639104884199
 31
0.0
  0
LINE
  5
2118
  8
0
 10
173.06879521117841
 20
59.211639104884199
 30
0.0
 11
173.06879521117841
 21
62.96108375493769
 31
0.0
  0
LINE
  5
2119
  8
0
 10
173.36879521117839
 20
59.211639104884199
 30
0.0
 11
167.36879521117839
 21
59.211639104884199
 31
0.0
  0
LINE
  5
211A
  8
0
 10
167.36879521117839
 20
59.211639104884199
 30
0.0
 11
167.36879521117839
 21
57.211639104884199
 31
0.0
  0
LINE
  5
211B
  8
0
 10
173.36879521117839
 20
57.211639104884199
 30
0.0
 11
173.36879521117839
 21
59.211639104884199
 31
0.0
  0
LINE
  5
211C
  8
0
 10
173.36879521117839
 20
57.211639104884199
 30
0.0
 11
167.36879521117839
 21
57.211639104884199
 31
0.0
  0
ARC
  5
211D
  8
0
 10
170.36879521117839
 20
61.211639104884192
 30
0.0
 40
5.0000000000000044
 50
233.13010235415439
 51
306.8698976458457
  0
LINE
  5
211E
  8
0
 10
166.36879521117839
 20
106.2116391048842
 30
0.0
 11
166.36879521117839
 21
63.711639104884192
 31
0.0
  0
LINE
  5
211F
  8
0
 10
174.36879521117839
 20
63.711639104884192
 30
0.0
 11
174.36879521117839
 21
106.2116391048842
 31
0.0
  0
LINE
  5
2120
  8
0
 10
173.06879521117841
 20
62.96108375493769
 30
0.0
 11
167.66879521117841
 21
62.96108375493769
 31
0.0
  0
LINE
  5
2121
  8
0
 10
174.36879521117839
 20
63.711639104884192
 30
0.0
 11
166.36879521117839
 21
63.711639104884192
 31
0.0
  0
LINE
  5
2122
  8
0
 10
173.06879521117841
 20
62.96108375493769
 30
0.0
 11
174.36879521117839
 21
63.711639104884192
 31
0.0
  0
LINE
  5
2123
  8
0
 10
166.36879521117839
 20
63.711639104884192
 30
0.0
 11
167.66879521117841
 21
62.96108375493769
 31
0.0
  0
LINE
  5
2124
  8
0
 10
176.87382046434789
 20
106.2116391048842
 30
0.0
 11
163.86376995800899
 21
106.2116391048842
 31
0.0
  0
LINE
  5
2125
  8
0
 10
176.87382046434789
 20
106.2116391048842
 30
0.0
 11
177.36879521117839
 21
106.70661385171481
 31
0.0
  0
LINE
  5
2126
  8
0
 10
163.36879521117839
 20
106.70661385171481
 30
0.0
 11
163.86376995800899
 21
106.2116391048842
 31
0.0
  0
LINE
  5
2127
  8
0
 10
177.36879521117839
 20
106.70661385171481
 30
0.0
 11
163.36879521117839
 21
106.70661385171481
 31
0.0
  0
LINE
  5
2128
  8
0
 10
163.36879521117839
 20
117.71666435805361
 30
0.0
 11
163.36879521117839
 21
106.70661385171481
 31
0.0
  0
LINE
  5
2129
  8
0
 10
177.36879521117839
 20
106.70661385171481
 30
0.0
 11
177.36879521117839
 21
117.71666435805361
 31
0.0
  0
LINE
  5
212A
  8
0
 10
177.36879521117839
 20
117.71666435805361
 30
0.0
 11
163.36879521117839
 21
117.71666435805361
 31
0.0
  0
LINE
  5
212B
  8
0
 10
176.87382046434789
 20
118.2116391048842
 30
0.0
 11
163.86376995800899
 21
118.2116391048842
 31
0.0
  0
LINE
  5
212C
  8
0
 10
163.86376995800899
 20
118.2116391048842
 30
0.0
 11
163.36879521117839
 21
117.71666435805361
 31
0.0
  0
LINE
  5
212D
  8
0
 10
177.36879521117839
 20
117.71666435805361
 30
0.0
 11
176.87382046434789
 21
118.2116391048842
 31
0.0
  0
CIRCLE
  5
212F
  8
0
 10
170.36879521117839
 20
112.2116391048842
 30
0.0
 40
3.0000000000000031
  0
LINE
  5
2130
  8
1
 10
90.368795211178437
 20
156.2116391048842
 30
0.0
 11
90.368795211178437
 21
180.2116391048842
 31
0.0
  0
LINE
  5
2131
  8
1
 10
55.368795211178451
 20
168.2116391048842
 30
0.0
 11
125.36879521117839
 21
168.2116391048842
 31
0.0
  0
LINE
  5
2132
  8
0
 10
60.368795211178451
 20
170.91163910488419
 30
0.0
 11
60.368795211178451
 21
165.5116391048841
 31
0.0
  0
LINE
  5
2133
  8
0
 10
60.368795211178451
 20
165.5116391048841
 30
0.0
 11
60.668795211178463
 21
165.2116391048842
 31
0.0
  0
LINE
  5
2134
  8
0
 10
60.668795211178463
 20
171.2116391048842
 30
0.0
 11
60.368795211178451
 21
170.91163910488419
 31
0.0
  0
LINE
  5
2135
  8
0
 10
60.668795211178463
 20
171.2116391048842
 30
0.0
 11
60.668795211178463
 21
165.2116391048842
 31
0.0
  0
LINE
  5
2136
  8
0
 10
60.668795211178463
 20
165.2116391048842
 30
0.0
 11
84.043073646649873
 21
165.2116391048842
 31
0.0
  0
LINE
  5
2137
  8
0
 10
84.044239890841538
 20
171.2116391048842
 30
0.0
 11
60.668795211178463
 21
171.2116391048842
 31
0.0
  0
LINE
  5
2138
  8
0
 10
120.36879521117839
 20
170.91163910488419
 30
0.0
 11
120.36879521117839
 21
165.5116391048841
 31
0.0
  0
LINE
  5
2139
  8
0
 10
120.36879521117839
 20
170.91163910488419
 30
0.0
 11
120.0687952111784
 21
171.2116391048842
 31
0.0
  0
LINE
  5
213A
  8
0
 10
120.0687952111784
 20
165.2116391048842
 30
0.0
 11
120.36879521117839
 21
165.5116391048841
 31
0.0
  0
LINE
  5
213B
  8
0
 10
120.0687952111784
 20
171.2116391048842
 30
0.0
 11
120.0687952111784
 21
165.2116391048842
 31
0.0
  0
LINE
  5
213C
  8
0
 10
96.694516775707044
 20
165.2116391048842
 30
0.0
 11
120.0687952111784
 21
165.2116391048842
 31
0.0
  0
LINE
  5
213D
  8
0
 10
120.0687952111784
 20
171.2116391048842
 30
0.0
 11
96.693350531515364
 21
171.2116391048842
 31
0.0
  0
CIRCLE
  5
213E
  8
0
 10
90.368795211178437
 20
168.2116391048842
 30
0.0
 40
7.0
  0
LINE
  5
215A
  8
3
 10
93.601795211178455
 20
63.268811448415761
 30
0.0
 11
93.601795211178455
 21
91.211639104884227
 31
0.0
  0
LINE
  5
215B
  8
0
 10
94.368795211178451
 20
91.211639104884227
 30
0.0
 11
86.368795211178465
 21
91.211639104884227
 31
0.0
  0
LINE
  5
215C
  8
3
 10
87.13579521117839
 20
63.268811448415761
 30
0.0
 11
87.135795211178447
 21
91.211639104884227
 31
0.0
  0
LINE
  5
215D
  8
3
 10
87.135795211178447
 20
91.211639104884185
 30
0.0
 11
86.368795211178465
 21
92.540122074289485
 31
0.0
  0
LINE
  5
215E
  8
3
 10
93.601795211178455
 20
91.211639104884185
 30
0.0
 11
94.368795211178394
 21
92.540122074289414
 31
0.0
  0
LINE
  5
215F
  8
3
 10
173.6017952111784
 20
63.268811448415761
 30
0.0
 11
173.6017952111784
 21
91.211639104884227
 31
0.0
  0
LINE
  5
2160
  8
0
 10
174.36879521117839
 20
91.211639104884227
 30
0.0
 11
166.36879521117839
 21
91.211639104884227
 31
0.0
  0
LINE
  5
2161
  8
3
 10
167.13579521117839
 20
63.268811448415804
 30
0.0
 11
167.13579521117839
 21
91.211639104884227
 31
0.0
  0
LINE
  5
2162
  8
3
 10
167.13579521117839
 20
91.211639104884185
 30
0.0
 11
166.36879521117839
 21
92.540122074289485
 31
0.0
  0
LINE
  5
2163
  8
3
 10
173.6017952111784
 20
91.211639104884185
 30
0.0
 11
174.36879521117839
 21
92.540122074289414
 31
0.0
  0
ENDSEC
  0
EOF
