  0
SECTION
  2
HEADER
  9
$ACADVER
  1
AC1009
  9
$INSBASE
 10
0.0
 20
0.0
 30
0.0
  9
$EXTMIN
 10
0.0
 20
-2.960436562073669
 30
0.0
  9
$EXTMAX
 10
240.36879521117839
 20
269.21163910488423
 30
0.0
  9
$LIMMIN
 10
0.0
 20
0.0
  9
$LIMMAX
 10
420.0
 20
297.0
  9
$ORTHOMODE
 70
     1
  9
$REGENMODE
 70
     1
  9
$FILLMODE
 70
     1
  9
$QTEXTMODE
 70
     0
  9
$MIRRTEXT
 70
     0
  9
$DRAGMODE
 70
     2
  9
$LTSCALE
 40
5.0
  9
$OSMODE
 70
    37
  9
$ATTMODE
 70
     1
  9
$TEXTSIZE
 40
2.5
  9
$TRACEWID
 40
1.0
  9
$TEXTSTYLE
  7
STANDARD
  9
$CLAYER
  8
0
  9
$CELTYPE
  6
BYLAYER
  9
$CECOLOR
 62
   256
  9
$DIMSCALE
 40
1.0
  9
$DIMASZ
 40
2.5
  9
$DIMEXO
 40
0.625
  9
$DIMDLI
 40
3.75
  9
$DIMRND
 40
0.0
  9
$DIMDLE
 40
0.0
  9
$DIMEXE
 40
1.25
  9
$DIMTP
 40
0.0
  9
$DIMTM
 40
0.0
  9
$DIMTXT
 40
2.5
  9
$DIMCEN
 40
2.5
  9
$DIMTSZ
 40
0.0
  9
$DIMTOL
 70
     0
  9
$DIMLIM
 70
     0
  9
$DIMTIH
 70
     0
  9
$DIMTOH
 70
     0
  9
$DIMSE1
 70
     0
  9
$DIMSE2
 70
     0
  9
$DIMTAD
 70
     1
  9
$DIMZIN
 70
     8
  9
$DIMBLK
  1

  9
$DIMASO
 70
     1
  9
$DIMSHO
 70
     1
  9
$DIMPOST
  1

  9
$DIMAPOST
  1

  9
$DIMALT
 70
     0
  9
$DIMALTD
 70
     3
  9
$DIMALTF
 40
0.03937007874016
  9
$DIMLFAC
 40
1.0
  9
$DIMTOFL
 70
     1
  9
$DIMTVP
 40
0.0
  9
$DIMTIX
 70
     0
  9
$DIMSOXD
 70
     0
  9
$DIMSAH
 70
     0
  9
$DIMBLK1
  1

  9
$DIMBLK2
  1

  9
$DIMSTYLE
  2
ISO-25
  9
$DIMCLRD
 70
     0
  9
$DIMCLRE
 70
     0
  9
$DIMCLRT
 70
     0
  9
$DIMTFAC
 40
1.0
  9
$DIMGAP
 40
0.625
  9
$LUNITS
 70
     2
  9
$LUPREC
 70
     4
  9
$SKETCHINC
 40
1.0
  9
$FILLETRAD
 40
0.0
  9
$AUNITS
 70
     0
  9
$AUPREC
 70
     0
  9
$MENU
  1
.
  9
$ELEVATION
 40
0.0
  9
$PELEVATION
 40
0.0
  9
$THICKNESS
 40
0.0
  9
$LIMCHECK
 70
     0
  9
$BLIPMODE
 70
     0
  9
$CHAMFERA
 40
0.0
  9
$CHAMFERB
 40
0.0
  9
$SKPOLY
 70
     0
  9
$TDCREATE
 40
2454979.4917406249
  9
$TDUPDATE
 40
2456776.587607489
  9
$TDINDWG
 40
0.158074213
  9
$TDUSRTIMER
 40
0.1580740394
  9
$USRTIMER
 70
     1
  9
$ANGBASE
 50
0.0
  9
$ANGDIR
 70
     0
  9
$PDMODE
 70
     0
  9
$PDSIZE
 40
0.0
  9
$PLINEWID
 40
0.0
  9
$COORDS
 70
     1
  9
$SPLFRAME
 70
     0
  9
$SPLINETYPE
 70
     6
  9
$SPLINESEGS
 70
     8
  9
$ATTDIA
 70
     0
  9
$ATTREQ
 70
     1
  9
$HANDLING
 70
     1
  9
$HANDSEED
  5
1E43
  9
$SURFTAB1
 70
     6
  9
$SURFTAB2
 70
     6
  9
$SURFTYPE
 70
     6
  9
$SURFU
 70
     6
  9
$SURFV
 70
     6
  9
$UCSNAME
  2

  9
$UCSORG
 10
0.0
 20
0.0
 30
0.0
  9
$UCSXDIR
 10
1.0
 20
0.0
 30
0.0
  9
$UCSYDIR
 10
0.0
 20
1.0
 30
0.0
  9
$PUCSNAME
  2

  9
$PUCSORG
 10
0.0
 20
0.0
 30
0.0
  9
$PUCSXDIR
 10
1.0
 20
0.0
 30
0.0
  9
$PUCSYDIR
 10
0.0
 20
1.0
 30
0.0
  9
$USERI1
 70
     0
  9
$USERI2
 70
     0
  9
$USERI3
 70
     0
  9
$USERI4
 70
     0
  9
$USERI5
 70
     0
  9
$USERR1
 40
0.0
  9
$USERR2
 40
0.0
  9
$USERR3
 40
0.0
  9
$USERR4
 40
0.0
  9
$USERR5
 40
0.0
  9
$WORLDVIEW
 70
     1
  9
$SHADEDGE
 70
     3
  9
$SHADEDIF
 70
    70
  9
$TILEMODE
 70
     1
  9
$MAXACTVP
 70
    64
  9
$PLIMCHECK
 70
     0
  9
$PEXTMIN
 10
0.0
 20
0.0
 30
0.0
  9
$PEXTMAX
 10
0.0
 20
0.0
 30
0.0
  9
$PLIMMIN
 10
0.0
 20
0.0
  9
$PLIMMAX
 10
12.0
 20
9.0
  9
$UNITMODE
 70
     0
  9
$VISRETAIN
 70
     1
  9
$PLINEGEN
 70
     0
  9
$PSLTSCALE
 70
     1
  0
ENDSEC
  0
SECTION
  2
TABLES
  0
TABLE
  2
VPORT
 70
     1
  0
VPORT
  2
*ACTIVE
 70
     0
 10
0.0
 20
0.0
 11
1.0
 21
1.0
 12
314.18636995827541
 22
180.0
 13
0.0
 23
0.0
 14
10.0
 24
10.0
 15
10.0
 25
10.0
 16
0.0
 26
0.0
 36
1.0
 17
0.0
 27
0.0
 37
0.0
 40
360.0
 41
1.7454798331015291
 42
50.0
 43
0.0
 44
0.0
 50
0.0
 51
0.0
 71
     0
 72
  1000
 73
     1
 74
     3
 75
     0
 76
     0
 77
     0
 78
     0
  0
ENDTAB
  0
TABLE
  2
LTYPE
 70
     2
  0
LTYPE
  2
CONTINUOUS
 70
     0
  3
Solid line
 72
    65
 73
     0
 40
0.0
  0
LTYPE
  2
CENTER
 70
     0
  3
____ _ ____ _ ____ _ ____ _ ____ _ ____ _ ____
 72
    65
 73
     4
 40
2.0
 49
1.25
 49
-0.25
 49
0.25
 49
-0.25
  0
ENDTAB
  0
TABLE
  2
LAYER
 70
     3
  0
LAYER
  2
0
 70
     0
 62
     7
  6
CONTINUOUS
  0
LAYER
  2
1
 70
     0
 62
     1
  6
CENTER
  0
LAYER
  2
3
 70
     0
 62
     3
  6
CONTINUOUS
  0
ENDTAB
  0
TABLE
  2
STYLE
 70
     2
  0
STYLE
  2
STANDARD
 70
     0
 40
0.0
 41
1.0
 50
0.0
 71
     0
 42
2.5
  3
txt
  4

  0
STYLE
  2
STANDARD1
 70
     0
 40
0.0
 41
1.0
 50
0.0
 71
     0
 42
3.0
  3
txt
  4

  0
ENDTAB
  0
TABLE
  2
VIEW
 70
     0
  0
ENDTAB
  0
TABLE
  2
UCS
 70
     0
  0
ENDTAB
  0
TABLE
  2
APPID
 70
     5
  0
APPID
  2
ACAD
 70
     0
  0
APPID
  2
ACAD_MLEADERVER
 70
     0
  0
APPID
  2
ACAD_NAV_VCDISPLAY
 70
     0
  0
APPID
  2
ACAD_EXEMPT_FROM_CAD_STANDARDS
 70
     0
  0
APPID
  2
ACADANNOTATIVE
 70
     0
  0
ENDTAB
  0
TABLE
  2
DIMSTYLE
 70
     2
  0
DIMSTYLE
  2
ISO-25
 70
     0
  3

  4

  5

  6

  7

 40
1.0
 41
2.5
 42
0.625
 43
3.75
 44
1.25
 45
0.0
 46
0.0
 47
0.0
 48
0.0
140
2.5
141
2.5
142
0.0
143
0.03937007874016
144
1.0
145
0.0
146
1.0
147
0.625
 71
     0
 72
     0
 73
     0
 74
     0
 75
     0
 76
     0
 77
     1
 78
     8
170
     0
171
     3
172
     1
173
     0
174
     0
175
     0
176
     0
177
     0
178
     0
  0
DIMSTYLE
  2
STANDARD
 70
     0
  3

  4

  5

  6

  7

 40
1.0
 41
0.18
 42
0.0625
 43
0.38
 44
0.18
 45
0.0
 46
0.0
 47
0.0
 48
0.0
140
0.18
141
0.09
142
0.0
143
25.399999999999999
144
1.0
145
0.0
146
1.0
147
0.09
 71
     0
 72
     0
 73
     1
 74
     1
 75
     0
 76
     0
 77
     0
 78
     0
170
     0
171
     2
172
     0
173
     0
174
     0
175
     0
176
     0
177
     0
178
     0
  0
ENDTAB
  0
ENDSEC
  0
SECTION
  2
BLOCKS
  0
BLOCK
  8
0
  2
$MODEL_SPACE
 70
     0
 10
0.0
 20
0.0
 30
0.0
  3
$MODEL_SPACE
  1

  0
ENDBLK
  5
21
  8
0
  0
BLOCK
 67
     1
  8
0
  2
$PAPER_SPACE
 70
     0
 10
0.0
 20
0.0
 30
0.0
  3
$PAPER_SPACE
  1

  0
ENDBLK
  5
53
 67
     1
  8
0
  0
ENDSEC
  0
SECTION
  2
ENTITIES
  0
TEXT
  5
749
  8
0
 62
     3
 10
0.0
 20
0.0
 30
0.0
 40
10.0
  1
TBKF20X75
  7
STANDARD1
  0
LINE
  5
1C61
  8
1
 10
90.368795211178394
 20
189.21163910488411
 30
0.0
 11
90.368795211178394
 21
76.211639104884171
 31
0.0
  0
LINE
  5
1C62
  8
1
 10
15.368795211178391
 20
168.21163910488411
 30
0.0
 11
165.36879521117839
 21
168.21163910488411
 31
0.0
  0
LINE
  5
1C63
  8
0
 10
83.168795211178349
 20
93.595058351153227
 30
0.0
 11
83.168795211178349
 21
86.711639104884171
 31
0.0
  0
LINE
  5
1C64
  8
0
 10
97.568795211178454
 20
86.711639104884171
 30
0.0
 11
97.568795211178454
 21
93.595058351153227
 31
0.0
  0
ARC
  5
1C65
  8
0
 10
90.368795211178394
 20
94.211639104884156
 30
0.0
 40
12.999999999999989
 50
233.4050690444312
 51
306.59493095556883
  0
LINE
  5
1C66
  8
0
 10
82.618795211178394
 20
86.711639104884171
 30
0.0
 11
82.618795211178394
 21
83.774326232310116
 31
0.0
  0
LINE
  5
1C67
  8
0
 10
98.118795211178394
 20
83.774326232310116
 30
0.0
 11
98.118795211178394
 21
86.711639104884171
 31
0.0
  0
LINE
  5
1C68
  8
0
 10
98.118795211178394
 20
83.774326232310116
 30
0.0
 11
82.618795211178394
 21
83.774326232310116
 31
0.0
  0
LINE
  5
1C69
  8
0
 10
98.118795211178394
 20
86.711639104884171
 30
0.0
 11
82.618795211178394
 21
86.711639104884171
 31
0.0
  0
LINE
  5
1C6A
  8
0
 10
160.36879521117839
 20
175.4116391048841
 30
0.0
 11
159.56879521117841
 21
176.21163910488411
 31
0.0
  0
LINE
  5
1C6B
  8
0
 10
159.56879521117841
 20
160.2116391048842
 30
0.0
 11
160.36879521117839
 21
161.01163910488421
 31
0.0
  0
LINE
  5
1C6C
  8
0
 10
160.36879521117839
 20
175.4116391048841
 30
0.0
 11
160.36879521117839
 21
161.01163910488421
 31
0.0
  0
LINE
  5
1C6D
  8
0
 10
21.168795211178409
 20
160.2116391048842
 30
0.0
 11
75.381856444618734
 21
160.2116391048842
 31
0.0
  0
LINE
  5
1C6E
  8
0
 10
75.380765041572658
 20
176.21163910488411
 30
0.0
 11
21.168795211178409
 21
176.21163910488411
 31
0.0
  0
LINE
  5
1C6F
  8
0
 10
20.368795211178391
 20
161.01163910488421
 30
0.0
 11
21.168795211178409
 21
160.2116391048842
 31
0.0
  0
LINE
  5
1C70
  8
0
 10
21.168795211178409
 20
176.21163910488411
 30
0.0
 11
20.368795211178391
 21
175.4116391048841
 31
0.0
  0
LINE
  5
1C71
  8
0
 10
21.168795211178409
 20
176.21163910488411
 30
0.0
 11
21.168795211178409
 21
160.2116391048842
 31
0.0
  0
LINE
  5
1C72
  8
0
 10
20.368795211178391
 20
175.4116391048841
 30
0.0
 11
20.368795211178391
 21
161.01163910488421
 31
0.0
  0
LINE
  5
1C73
  8
0
 10
105.3568253807841
 20
160.2116391048842
 30
0.0
 11
159.56879521117841
 21
160.2116391048842
 31
0.0
  0
LINE
  5
1C74
  8
0
 10
159.56879521117841
 20
176.21163910488411
 30
0.0
 11
105.355733977738
 21
176.21163910488411
 31
0.0
  0
LINE
  5
1C75
  8
0
 10
159.56879521117841
 20
176.21163910488411
 30
0.0
 11
159.56879521117841
 21
160.2116391048842
 31
0.0
  0
LINE
  5
1C76
  8
0
 10
97.568795211178454
 20
93.595058351153227
 30
0.0
 11
100.36879521117839
 21
95.211639104884185
 31
0.0
  0
LINE
  5
1C77
  8
0
 10
80.368795211178394
 20
95.211639104884185
 30
0.0
 11
83.168795211178349
 21
93.595058351153227
 31
0.0
  0
LINE
  5
1C78
  8
0
 10
97.568795211178454
 20
93.595058351153227
 30
0.0
 11
83.168795211178349
 21
93.595058351153227
 31
0.0
  0
LINE
  5
1C79
  8
0
 10
80.368795211178394
 20
156.21163910488411
 30
0.0
 11
80.368795211178394
 21
95.211639104884185
 31
0.0
  0
LINE
  5
1C7A
  8
0
 10
100.36879521117839
 20
95.211639104884185
 30
0.0
 11
100.36879521117839
 21
156.21163910488411
 31
0.0
  0
LINE
  5
1C7B
  8
0
 10
100.36879521117839
 20
95.211639104884185
 30
0.0
 11
80.368795211178394
 21
95.211639104884185
 31
0.0
  0
LINE
  5
1C7C
  8
0
 10
76.075901992364933
 20
184.2116391048842
 30
0.0
 11
75.368795211178394
 21
183.5045323236975
 31
0.0
  0
LINE
  5
1C7D
  8
0
 10
105.36879521117839
 20
183.5045323236975
 30
0.0
 11
104.6616884299918
 21
184.2116391048842
 31
0.0
  0
LINE
  5
1C7E
  8
0
 10
104.6616884299918
 20
184.2116391048842
 30
0.0
 11
76.075901992364933
 21
184.2116391048842
 31
0.0
  0
LINE
  5
1C7F
  8
0
 10
104.6616884299918
 20
156.21163910488411
 30
0.0
 11
105.36879521117839
 21
156.9187458860707
 31
0.0
  0
LINE
  5
1C80
  8
0
 10
75.368795211178394
 20
156.9187458860707
 30
0.0
 11
76.075901992364933
 21
156.21163910488411
 31
0.0
  0
LINE
  5
1C81
  8
0
 10
104.6616884299918
 20
156.21163910488411
 30
0.0
 11
76.075901992364933
 21
156.21163910488411
 31
0.0
  0
LINE
  5
1C82
  8
0
 10
75.368795211178394
 20
183.5045323236975
 30
0.0
 11
75.368795211178394
 21
176.18913315645301
 31
0.0
  0
LINE
  5
1C83
  8
0
 10
75.368795211178394
 20
160.23619542939079
 30
0.0
 11
75.368795211178394
 21
156.9187458860707
 31
0.0
  0
LINE
  5
1C84
  8
0
 10
105.36879521117839
 20
156.9187458860707
 30
0.0
 11
105.36879521117839
 21
160.2341450533153
 31
0.0
  0
LINE
  5
1C85
  8
0
 10
105.36879521117839
 20
176.18708278037749
 30
0.0
 11
105.36879521117839
 21
183.5045323236975
 31
0.0
  0
LINE
  5
1C86
  8
0
 10
105.36879521117839
 20
156.9187458860707
 30
0.0
 11
75.368795211178394
 21
156.9187458860707
 31
0.0
  0
POLYLINE
  5
1C87
  8
0
 66
     1
 10
0.0
 20
0.0
 30
0.0
  0
VERTEX
  5
1E15
  8
0
 10
105.3687952093516
 20
176.21163910145901
 30
0.0
  0
VERTEX
  5
1E16
  8
0
 10
105.3630951710763
 20
176.2009464144945
 30
0.0
  0
VERTEX
  5
1E17
  8
0
 10
105.2841740451974
 20
176.05182569464739
 30
0.0
  0
VERTEX
  5
1E18
  8
0
 10
105.1133001956932
 20
175.72166089169571
 30
0.0
  0
VERTEX
  5
1E19
  8
0
 10
104.8707002742825
 20
175.233408857538
 30
0.0
  0
VERTEX
  5
1E1A
  8
0
 10
104.5668916479553
 20
174.58234883206671
 30
0.0
  0
VERTEX
  5
1E1B
  8
0
 10
104.204529078855
 20
173.7277547361208
 30
0.0
  0
VERTEX
  5
1E1C
  8
0
 10
103.8297889254324
 20
172.70589674938859
 30
0.0
  0
VERTEX
  5
1E1D
  8
0
 10
103.4754556307935
 20
171.4956225632931
 30
0.0
  0
VERTEX
  5
1E1E
  8
0
 10
103.2002633997057
 20
170.12124007712649
 30
0.0
  0
VERTEX
  5
1E1F
  8
0
 10
103.0725985056328
 20
168.83342535770149
 30
0.0
  0
VERTEX
  5
1E20
  8
0
 10
103.078893690285
 20
167.47231282468931
 30
0.0
  0
VERTEX
  5
1E21
  8
0
 10
103.1931797872175
 20
166.3502311017445
 30
0.0
  0
VERTEX
  5
1E22
  8
0
 10
103.39872672569641
 20
165.24868192108431
 30
0.0
  0
VERTEX
  5
1E23
  8
0
 10
103.6760288069149
 20
164.20134410681999
 30
0.0
  0
VERTEX
  5
1E24
  8
0
 10
104.0013031998439
 20
163.2271357132681
 30
0.0
  0
VERTEX
  5
1E25
  8
0
 10
104.3805371259964
 20
162.26782623035069
 30
0.0
  0
VERTEX
  5
1E26
  8
0
 10
104.7477055100337
 20
161.447538175527
 30
0.0
  0
VERTEX
  5
1E27
  8
0
 10
105.0576953175714
 20
160.8113832758205
 30
0.0
  0
VERTEX
  5
1E28
  8
0
 10
105.277934669066
 20
160.38332898233921
 30
0.0
  0
VERTEX
  5
1E29
  8
0
 10
105.36394672815391
 20
160.2207337108095
 30
0.0
  0
VERTEX
  5
1E2A
  8
0
 10
105.3687952094909
 20
160.21163910804819
 30
0.0
  0
SEQEND
  5
1E2B
  8
0
  0
LINE
  5
1C88
  8
0
 10
105.36879521117839
 20
183.5045323236975
 30
0.0
 11
75.368795211178394
 21
183.5045323236975
 31
0.0
  0
POLYLINE
  5
1C89
  8
0
 66
     1
 10
0.0
 20
0.0
 30
0.0
  0
VERTEX
  5
1E2C
  8
0
 10
75.368795213005114
 20
160.2116391083093
 30
0.0
  0
VERTEX
  5
1E2D
  8
0
 10
75.37449525128045
 20
160.22233179527379
 30
0.0
  0
VERTEX
  5
1E2E
  8
0
 10
75.453416377159328
 20
160.37145251512089
 30
0.0
  0
VERTEX
  5
1E2F
  8
0
 10
75.624290226663561
 20
160.70161731807261
 30
0.0
  0
VERTEX
  5
1E30
  8
0
 10
75.866890148074276
 20
161.18986935223029
 30
0.0
  0
VERTEX
  5
1E31
  8
0
 10
76.170698774401444
 20
161.8409293777016
 30
0.0
  0
VERTEX
  5
1E32
  8
0
 10
76.533061343501799
 20
162.6955234736476
 30
0.0
  0
VERTEX
  5
1E33
  8
0
 10
76.907801496924321
 20
163.7173814603797
 30
0.0
  0
VERTEX
  5
1E34
  8
0
 10
77.262134791563312
 20
164.92765564647519
 30
0.0
  0
VERTEX
  5
1E35
  8
0
 10
77.537327022651084
 20
166.3020381326418
 30
0.0
  0
VERTEX
  5
1E36
  8
0
 10
77.66499191672392
 20
167.5898528520668
 30
0.0
  0
VERTEX
  5
1E37
  8
0
 10
77.658696732071803
 20
168.950965385079
 30
0.0
  0
VERTEX
  5
1E38
  8
0
 10
77.544410635139215
 20
170.07304710802379
 30
0.0
  0
VERTEX
  5
1E39
  8
0
 10
77.338863696660383
 20
171.17459628868389
 30
0.0
  0
VERTEX
  5
1E3A
  8
0
 10
77.06156161544186
 20
172.2219341029483
 30
0.0
  0
VERTEX
  5
1E3B
  8
0
 10
76.736287222512829
 20
173.19614249650019
 30
0.0
  0
VERTEX
  5
1E3C
  8
0
 10
76.357053296360391
 20
174.15545197941759
 30
0.0
  0
VERTEX
  5
1E3D
  8
0
 10
75.989884912323078
 20
174.97574003424131
 30
0.0
  0
VERTEX
  5
1E3E
  8
0
 10
75.679895104785373
 20
175.61189493394781
 30
0.0
  0
VERTEX
  5
1E3F
  8
0
 10
75.459655753290804
 20
176.0399492274291
 30
0.0
  0
VERTEX
  5
1E40
  8
0
 10
75.373643694202883
 20
176.20254449895879
 30
0.0
  0
VERTEX
  5
1E41
  8
0
 10
75.368795212865848
 20
176.2116391017201
 30
0.0
  0
SEQEND
  5
1E42
  8
0
  0
LINE
  5
1C8A
  8
1
 10
212.36879521117839
 20
168.21163910488411
 30
0.0
 11
238.36879521117839
 21
168.21163910488411
 31
0.0
  0
LINE
  5
1C8B
  8
1
 10
225.36879521117831
 20
189.21163910488411
 30
0.0
 11
225.36879521117839
 21
76.211639104884171
 31
0.0
  0
LINE
  5
1C8C
  8
0
 10
218.16879521117829
 20
93.595058351153227
 30
0.0
 11
218.16879521117829
 21
86.711639104884171
 31
0.0
  0
LINE
  5
1C8D
  8
0
 10
232.56879521117841
 20
86.711639104884171
 30
0.0
 11
232.56879521117841
 21
93.595058351153227
 31
0.0
  0
LINE
  5
1C8E
  8
0
 10
233.11879521117839
 20
86.711639104884171
 30
0.0
 11
217.61879521117839
 21
86.711639104884171
 31
0.0
  0
LINE
  5
1C8F
  8
0
 10
217.61879521117839
 20
86.711639104884171
 30
0.0
 11
217.61879521117839
 21
83.774326232310116
 31
0.0
  0
LINE
  5
1C90
  8
0
 10
233.11879521117839
 20
83.774326232310116
 30
0.0
 11
233.11879521117839
 21
86.711639104884171
 31
0.0
  0
LINE
  5
1C91
  8
0
 10
233.11879521117839
 20
83.774326232310116
 30
0.0
 11
217.61879521117839
 21
83.774326232310116
 31
0.0
  0
ARC
  5
1C92
  8
0
 10
225.36879521117839
 20
94.211639104884156
 30
0.0
 40
12.999999999999989
 50
233.4050690444312
 51
306.59493095556883
  0
LINE
  5
1C93
  8
0
 10
215.36879521117839
 20
156.21163910488411
 30
0.0
 11
215.36879521117839
 21
95.211639104884185
 31
0.0
  0
LINE
  5
1C94
  8
0
 10
235.36879521117839
 20
95.211639104884185
 30
0.0
 11
235.36879521117839
 21
156.21163910488411
 31
0.0
  0
LINE
  5
1C95
  8
0
 10
232.56879521117841
 20
93.595058351153227
 30
0.0
 11
218.16879521117829
 21
93.595058351153227
 31
0.0
  0
LINE
  5
1C96
  8
0
 10
235.36879521117839
 20
95.211639104884185
 30
0.0
 11
215.36879521117839
 21
95.211639104884185
 31
0.0
  0
LINE
  5
1C97
  8
0
 10
232.56879521117841
 20
93.595058351153227
 30
0.0
 11
235.36879521117839
 21
95.211639104884185
 31
0.0
  0
LINE
  5
1C98
  8
0
 10
215.36879521117839
 20
95.211639104884185
 30
0.0
 11
218.16879521117829
 21
93.595058351153227
 31
0.0
  0
LINE
  5
1C99
  8
0
 10
239.66168842999181
 20
156.21163910488411
 30
0.0
 11
211.075901992365
 21
156.21163910488411
 31
0.0
  0
LINE
  5
1C9A
  8
0
 10
239.66168842999181
 20
156.21163910488411
 30
0.0
 11
240.36879521117839
 21
156.9187458860707
 31
0.0
  0
LINE
  5
1C9B
  8
0
 10
210.36879521117839
 20
156.9187458860707
 30
0.0
 11
211.075901992365
 21
156.21163910488411
 31
0.0
  0
LINE
  5
1C9C
  8
0
 10
240.36879521117839
 20
156.9187458860707
 30
0.0
 11
210.36879521117839
 21
156.9187458860707
 31
0.0
  0
LINE
  5
1C9D
  8
0
 10
210.36879521117839
 20
183.5045323236975
 30
0.0
 11
210.36879521117839
 21
156.9187458860707
 31
0.0
  0
LINE
  5
1C9E
  8
0
 10
240.36879521117839
 20
156.9187458860707
 30
0.0
 11
240.36879521117839
 21
183.5045323236975
 31
0.0
  0
LINE
  5
1C9F
  8
0
 10
240.36879521117839
 20
183.5045323236975
 30
0.0
 11
210.36879521117839
 21
183.5045323236975
 31
0.0
  0
LINE
  5
1CA0
  8
0
 10
239.66168842999181
 20
184.2116391048842
 30
0.0
 11
211.075901992365
 21
184.2116391048842
 31
0.0
  0
LINE
  5
1CA1
  8
0
 10
211.075901992365
 20
184.2116391048842
 30
0.0
 11
210.36879521117839
 21
183.5045323236975
 31
0.0
  0
LINE
  5
1CA2
  8
0
 10
240.36879521117839
 20
183.5045323236975
 30
0.0
 11
239.66168842999181
 21
184.2116391048842
 31
0.0
  0
CIRCLE
  5
1CA4
  8
0
 10
225.36879521117839
 20
168.21163910488411
 30
0.0
 40
7.999999999999992
  0
LINE
  5
1CA5
  8
1
 10
90.368795211178394
 20
229.2116391048842
 30
0.0
 11
90.368795211178394
 21
269.21163910488423
 31
0.0
  0
LINE
  5
1CA6
  8
1
 10
15.368795211178339
 20
249.21163910488411
 30
0.0
 11
165.36879521117839
 21
249.21163910488411
 31
0.0
  0
LINE
  5
1CA7
  8
0
 10
20.368795211178391
 20
256.41163910488422
 30
0.0
 11
20.368795211178391
 21
242.01163910488421
 31
0.0
  0
LINE
  5
1CA8
  8
0
 10
20.368795211178391
 20
242.01163910488421
 30
0.0
 11
21.168795211178409
 21
241.2116391048842
 31
0.0
  0
LINE
  5
1CA9
  8
0
 10
21.168795211178409
 20
257.21163910488423
 30
0.0
 11
20.368795211178391
 21
256.41163910488422
 31
0.0
  0
LINE
  5
1CAA
  8
0
 10
21.168795211178409
 20
257.21163910488423
 30
0.0
 11
21.168795211178409
 21
241.2116391048842
 31
0.0
  0
LINE
  5
1CAB
  8
0
 10
21.168795211178409
 20
241.2116391048842
 30
0.0
 11
77.678677271629908
 21
241.2116391048842
 31
0.0
  0
LINE
  5
1CAC
  8
0
 10
77.680217670728894
 20
257.21163910488423
 30
0.0
 11
21.168795211178409
 21
257.21163910488423
 31
0.0
  0
LINE
  5
1CAD
  8
0
 10
160.36879521117839
 20
256.41163910488422
 30
0.0
 11
160.36879521117839
 21
242.01163910488421
 31
0.0
  0
LINE
  5
1CAE
  8
0
 10
160.36879521117839
 20
256.41163910488422
 30
0.0
 11
159.56879521117841
 21
257.21163910488423
 31
0.0
  0
LINE
  5
1CAF
  8
0
 10
159.56879521117841
 20
241.2116391048842
 30
0.0
 11
160.36879521117839
 21
242.01163910488421
 31
0.0
  0
LINE
  5
1CB0
  8
0
 10
159.56879521117841
 20
257.21163910488423
 30
0.0
 11
159.56879521117841
 21
241.2116391048842
 31
0.0
  0
LINE
  5
1CB1
  8
0
 10
103.05891315072689
 20
241.2116391048842
 30
0.0
 11
159.56879521117841
 21
241.2116391048842
 31
0.0
  0
LINE
  5
1CB2
  8
0
 10
159.56879521117841
 20
257.21163910488423
 30
0.0
 11
103.0573727516279
 21
257.21163910488423
 31
0.0
  0
CIRCLE
  5
1CB3
  8
0
 10
90.368795211178394
 20
249.2116391048842
 30
0.0
 40
15.0
  0
LINE
  5
1CD7
  8
3
 10
98.835295211178391
 20
94.326272467081864
 30
0.0
 11
98.835295211178391
 21
136.21163910488411
 31
0.0
  0
LINE
  5
1CD8
  8
0
 10
100.36879521117839
 20
136.21163910488411
 30
0.0
 11
80.368795211178394
 21
136.21163910488411
 31
0.0
  0
LINE
  5
1CD9
  8
3
 10
81.902295211178398
 20
94.326272467081836
 30
0.0
 11
81.902295211178398
 21
136.21163910488411
 31
0.0
  0
LINE
  5
1CDA
  8
3
 10
81.902295211178398
 20
136.2116391048842
 30
0.0
 11
80.368795211178394
 21
138.86773901829119
 31
0.0
  0
LINE
  5
1CDB
  8
3
 10
98.835295211178391
 20
136.2116391048842
 30
0.0
 11
100.36879521117839
 21
138.8677390182911
 31
0.0
  0
LINE
  5
1CDC
  8
3
 10
233.83529521117831
 20
94.326272467081765
 30
0.0
 11
233.83529521117831
 21
136.21163910488411
 31
0.0
  0
LINE
  5
1CDD
  8
0
 10
235.36879521117831
 20
136.21163910488411
 30
0.0
 11
215.36879521117831
 21
136.21163910488411
 31
0.0
  0
LINE
  5
1CDE
  8
3
 10
216.9022952111784
 20
94.326272467081893
 30
0.0
 11
216.90229521117831
 21
136.21163910488411
 31
0.0
  0
LINE
  5
1CDF
  8
3
 10
216.90229521117831
 20
136.2116391048842
 30
0.0
 11
215.36879521117831
 21
138.86773901829119
 31
0.0
  0
LINE
  5
1CE0
  8
3
 10
233.83529521117831
 20
136.2116391048842
 30
0.0
 11
235.36879521117831
 21
138.8677390182911
 31
0.0
  0
ENDSEC
  0
EOF
