  0
SECTION
  2
HEADER
  9
$ACADVER
  1
AC1009
  9
$INSBASE
 10
0.0
 20
0.0
 30
0.0
  9
$EXTMIN
 10
0.0
 20
-2.960436562073669
 30
0.0
  9
$EXTMAX
 10
357.55022891329389
 20
267.01285537096061
 30
0.0
  9
$LIMMIN
 10
0.0
 20
0.0
  9
$LIMMAX
 10
375.0
 20
270.0
  9
$ORTHOMODE
 70
     1
  9
$REGENMODE
 70
     1
  9
$FILLMODE
 70
     1
  9
$QTEXTMODE
 70
     0
  9
$MIRRTEXT
 70
     0
  9
$DRAGMODE
 70
     2
  9
$LTSCALE
 40
10.0
  9
$OSMODE
 70
    37
  9
$ATTMODE
 70
     1
  9
$TEXTSIZE
 40
4.000000000000048
  9
$TRACEWID
 40
0.05
  9
$TEXTSTYLE
  7
STANDARD
  9
$CLAYER
  8
0
  9
$CELTYPE
  6
BYLAYER
  9
$CECOLOR
 62
   256
  9
$DIMSCALE
 40
1.0
  9
$DIMASZ
 40
3.0
  9
$DIMEXO
 40
2.0
  9
$DIMDLI
 40
0.38
  9
$DIMRND
 40
0.0
  9
$DIMDLE
 40
0.0
  9
$DIMEXE
 40
2.0
  9
$DIMTP
 40
0.0
  9
$DIMTM
 40
0.0
  9
$DIMTXT
 40
3.2000000000000002
  9
$DIMCEN
 40
0.0
  9
$DIMTSZ
 40
0.0
  9
$DIMTOL
 70
     0
  9
$DIMLIM
 70
     0
  9
$DIMTIH
 70
     0
  9
$DIMTOH
 70
     0
  9
$DIMSE1
 70
     0
  9
$DIMSE2
 70
     0
  9
$DIMTAD
 70
     1
  9
$DIMZIN
 70
     0
  9
$DIMBLK
  1

  9
$DIMASO
 70
     1
  9
$DIMSHO
 70
     0
  9
$DIMPOST
  1

  9
$DIMAPOST
  1

  9
$DIMALT
 70
     0
  9
$DIMALTD
 70
     2
  9
$DIMALTF
 40
25.399999999999999
  9
$DIMLFAC
 40
1.0
  9
$DIMTOFL
 70
     1
  9
$DIMTVP
 40
1.6000000000000001
  9
$DIMTIX
 70
     1
  9
$DIMSOXD
 70
     0
  9
$DIMSAH
 70
     0
  9
$DIMBLK1
  1

  9
$DIMBLK2
  1

  9
$DIMSTYLE
  2
STANDARD
  9
$DIMCLRD
 70
     0
  9
$DIMCLRE
 70
     0
  9
$DIMCLRT
 70
     0
  9
$DIMTFAC
 40
1.0
  9
$DIMGAP
 40
0.09
  9
$LUNITS
 70
     2
  9
$LUPREC
 70
     4
  9
$SKETCHINC
 40
0.1
  9
$FILLETRAD
 40
0.0
  9
$AUNITS
 70
     0
  9
$AUPREC
 70
     4
  9
$MENU
  1
E:\r13\win\SUPPORT\ACAD
  9
$ELEVATION
 40
0.0
  9
$PELEVATION
 40
0.0
  9
$THICKNESS
 40
0.0
  9
$LIMCHECK
 70
     0
  9
$BLIPMODE
 70
     0
  9
$CHAMFERA
 40
0.0
  9
$CHAMFERB
 40
0.0
  9
$SKPOLY
 70
     0
  9
$TDCREATE
 40
2449839.7850462962
  9
$TDUPDATE
 40
2459429.5744667831
  9
$TDINDWG
 40
0.1219023958
  9
$TDUSRTIMER
 40
0.1219023958
  9
$USRTIMER
 70
     1
  9
$ANGBASE
 50
0.0
  9
$ANGDIR
 70
     0
  9
$PDMODE
 70
     0
  9
$PDSIZE
 40
0.0
  9
$PLINEWID
 40
0.0
  9
$COORDS
 70
     1
  9
$SPLFRAME
 70
     0
  9
$SPLINETYPE
 70
     6
  9
$SPLINESEGS
 70
     8
  9
$ATTDIA
 70
     0
  9
$ATTREQ
 70
     1
  9
$HANDLING
 70
     1
  9
$HANDSEED
  5
118C
  9
$SURFTAB1
 70
     6
  9
$SURFTAB2
 70
     6
  9
$SURFTYPE
 70
     6
  9
$SURFU
 70
     6
  9
$SURFV
 70
     6
  9
$UCSNAME
  2

  9
$UCSORG
 10
0.0
 20
0.0
 30
0.0
  9
$UCSXDIR
 10
1.0
 20
0.0
 30
0.0
  9
$UCSYDIR
 10
0.0
 20
1.0
 30
0.0
  9
$PUCSNAME
  2

  9
$PUCSORG
 10
0.0
 20
0.0
 30
0.0
  9
$PUCSXDIR
 10
1.0
 20
0.0
 30
0.0
  9
$PUCSYDIR
 10
0.0
 20
1.0
 30
0.0
  9
$USERI1
 70
     0
  9
$USERI2
 70
     1
  9
$USERI3
 70
     1
  9
$USERI4
 70
     0
  9
$USERI5
 70
     0
  9
$USERR1
 40
0.0
  9
$USERR2
 40
0.0
  9
$USERR3
 40
0.0
  9
$USERR4
 40
0.0
  9
$USERR5
 40
0.0
  9
$WORLDVIEW
 70
     1
  9
$SHADEDGE
 70
     3
  9
$SHADEDIF
 70
    70
  9
$TILEMODE
 70
     1
  9
$MAXACTVP
 70
    16
  9
$PLIMCHECK
 70
     0
  9
$PEXTMIN
 10
1.0000000000000000E+020
 20
1.0000000000000000E+020
 30
1.0000000000000000E+020
  9
$PEXTMAX
 10
-1.0000000000000000E+020
 20
-1.0000000000000000E+020
 30
-1.0000000000000000E+020
  9
$PLIMMIN
 10
0.0
 20
0.0
  9
$PLIMMAX
 10
12.0
 20
9.0
  9
$UNITMODE
 70
     0
  9
$VISRETAIN
 70
     0
  9
$PLINEGEN
 70
     0
  9
$PSLTSCALE
 70
     0
  0
ENDSEC
  0
SECTION
  2
TABLES
  0
TABLE
  2
VPORT
 70
     1
  0
VPORT
  2
*ACTIVE
 70
     0
 10
0.0
 20
0.0
 11
1.0
 21
1.0
 12
311.70838255900708
 22
132.0294743869174
 13
0.0
 23
0.0
 14
10.0
 24
10.0
 15
10.0
 25
10.0
 16
0.0
 26
0.0
 36
1.0
 17
0.0
 27
0.0
 37
0.0
 40
272.34872241916941
 41
2.3805970149253728
 42
50.0
 43
0.0
 44
0.0
 50
0.0
 51
0.0
 71
     0
 72
   500
 73
     1
 74
     0
 75
     0
 76
     0
 77
     0
 78
     2
  0
ENDTAB
  0
TABLE
  2
LTYPE
 70
     4
  0
LTYPE
  2
CONTINUOUS
 70
     0
  3
Solid Line
 72
    65
 73
     0
 40
0.0
  0
LTYPE
  2
CENTER
 70
     0
  3
____ _ ____ _ ____ _ ____ _ ____ _ ____ _ ____
 72
    65
 73
     4
 40
2.0
 49
1.25
 49
-0.25
 49
0.25
 49
-0.25
  0
LTYPE
  2
HIDDEN
 70
     0
  3
_ _ _ _ _ _ _ _ _ _ _ _ _ _ _ _ _ _ _ _ _ _ _
 72
    65
 73
     2
 40
0.375
 49
0.25
 49
-0.125
  0
LTYPE
  2
PHANTOM2
 70
     0
  3
___ _ _ ___ _ _ ___ _ _ ___ _ _
 72
    65
 73
     6
 40
1.25
 49
0.625
 49
-0.125
 49
0.125
 49
-0.125
 49
0.125
 49
-0.125
  0
ENDTAB
  0
TABLE
  2
LAYER
 70
     4
  0
LAYER
  2
0
 70
     0
 62
     7
  6
CONTINUOUS
  0
LAYER
  2
1
 70
     0
 62
     1
  6
CENTER
  0
LAYER
  2
2
 70
     0
 62
     2
  6
HIDDEN
  0
LAYER
  2
DEFPOINTS
 70
     0
 62
     7
  6
CONTINUOUS
  0
ENDTAB
  0
TABLE
  2
STYLE
 70
     2
  0
STYLE
  2
STANDARD
 70
     0
 40
0.0
 41
1.0
 50
0.0
 71
     0
 42
4.000000000000048
  3
TXT
  4
BIGFONT
  0
STYLE
  2
STANDARD1
 70
     0
 40
0.0
 41
1.0
 50
0.0
 71
     0
 42
3.0
  3
txt
  4

  0
ENDTAB
  0
TABLE
  2
VIEW
 70
     1
  0
VIEW
  2
ALL
 70
     0
 40
270.0
 10
220.99159663865549
 20
135.0
 41
0.0
 11
0.0
 21
0.0
 31
1.0
 12
0.0
 22
0.0
 32
0.0
 42
0.0
 43
0.0
 44
0.0
 50
0.0
 71
     0
  0
ENDTAB
  0
TABLE
  2
UCS
 70
     0
  0
ENDTAB
  0
TABLE
  2
APPID
 70
     4
  0
APPID
  2
ACAD
 70
     0
  0
APPID
  2
ACAD_MLEADERVER
 70
     0
  0
APPID
  2
ACAD_NAV_VCDISPLAY
 70
     0
  0
APPID
  2
ACAD_EXEMPT_FROM_CAD_STANDARDS
 70
     0
  0
ENDTAB
  0
TABLE
  2
DIMSTYLE
 70
     1
  0
DIMSTYLE
  2
STANDARD
 70
     0
  3

  4

  5

  6

  7

 40
1.0
 41
0.18
 42
0.0625
 43
0.38
 44
0.18
 45
0.0
 46
0.0
 47
0.0
 48
0.0
140
0.18
141
0.09
142
0.0
143
25.399999999999999
144
1.0
145
0.0
146
1.0
147
0.09
 71
     0
 72
     0
 73
     1
 74
     1
 75
     0
 76
     0
 77
     0
 78
     0
170
     0
171
     2
172
     0
173
     0
174
     0
175
     0
176
     0
177
     0
178
     0
  0
ENDTAB
  0
ENDSEC
  0
SECTION
  2
BLOCKS
  0
BLOCK
  8
0
  2
$MODEL_SPACE
 70
     0
 10
0.0
 20
0.0
 30
0.0
  3
$MODEL_SPACE
  1

  0
ENDBLK
  5
123
  8
0
  0
BLOCK
 67
     1
  8
0
  2
$PAPER_SPACE
 70
     0
 10
0.0
 20
0.0
 30
0.0
  3
$PAPER_SPACE
  1

  0
ENDBLK
  5
121
 67
     1
  8
0
  0
ENDSEC
  0
SECTION
  2
ENTITIES
  0
TEXT
  5
20D
  8
0
 62
     3
 10
0.0
 20
0.0
 30
0.0
 40
10.0
  1
TAKR80-SUS-BK
  7
STANDARD1
  0
ARC
  5
C5E
  8
0
 10
92.132511596400036
 20
284.59065165639998
 30
0.0
 40
179.99999999999869
 50
270.99237699550127
 51
273.235352988599
  0
ARC
  5
C5F
  8
0
 10
67.867488403599964
 20
284.59065165639998
 30
0.0
 40
179.99999999999869
 50
265.61973356529859
 51
269.00762300449861
  0
ARC
  5
C60
  8
0
 10
75.343447200300034
 20
-40.832923454600007
 30
0.0
 40
162.69920938278031
 50
91.784446562567894
 51
94.821601626397978
  0
ARC
  5
C61
  8
0
 10
83.11889624201342
 20
-67.265363610734482
 30
0.0
 40
189.1815994257729
 50
84.183805283017094
 51
87.885213937110564
  0
LINE
  5
C62
  8
0
 10
64.75
 20
104.6176501644
 30
0.0
 11
64.75
 21
85.300000000000011
 31
0.0
  0
LINE
  5
C63
  8
0
 10
95.25
 20
85.300000000000011
 30
0.0
 11
95.25
 21
104.6176501644
 31
0.0
  0
ARC
  5
C64
  8
0
 10
79.963555626000016
 20
-49.344104519700011
 30
0.0
 40
171.35684175679691
 50
87.061230935399124
 51
92.938769064600876
  0
LINE
  5
C65
  8
0
 10
73.0
 20
85.300000000000011
 30
0.0
 11
73.0
 21
85.0
 31
0.0
  0
LINE
  5
C66
  8
0
 10
87.0
 20
85.0
 30
0.0
 11
87.0
 21
85.300000000000011
 31
0.0
  0
LINE
  5
C67
  8
0
 10
117.5502289128958
 20
106.7609491597
 30
0.0
 11
110.7118322398933
 21
106.7609491597
 31
0.0
  0
LINE
  5
C68
  8
0
 10
110.7118322398933
 20
106.7609491597
 30
0.0
 11
110.7118322398933
 21
113.7185625726656
 31
0.0
  0
LINE
  5
C6A
  8
0
 10
117.5502289128958
 20
118.643191324
 30
0.0
 11
113.68981084879221
 21
118.643191324
 31
0.0
  0
LINE
  5
C6B
  8
0
 10
117.5502289128958
 20
106.7609491597
 30
0.0
 11
117.5502289128958
 21
118.643191324
 31
0.0
  0
LINE
  5
C6C
  8
0
 10
49.28816776010683
 20
106.7609491597123
 30
0.0
 11
42.449771087104182
 21
106.7609491597123
 31
0.0
  0
ARC
  5
C6D
  8
0
 10
76.836831488915777
 20
286.97855509078738
 30
0.0
 40
182.3110374079728
 50
261.30885538948303
 51
270.57725082385491
  0
ARC
  5
C6E
  8
0
 10
78.032032363419134
 20
361.82877262864213
 30
0.0
 40
257.15280260800148
 50
270.14294026023703
 51
277.30107365228201
  0
ARC
  5
C6F
  8
0
 10
94.951577602829275
 20
228.40902509389051
 30
0.0
 40
123.72935552865739
 50
273.40019433188837
 51
280.52391022497733
  0
ARC
  5
C70
  8
0
 10
57.480247255132781
 20
171.9905091727623
 30
0.0
 40
66.93885802233082
 50
257.02414806022949
 51
267.1237906981641
  0
LINE
  5
C71
  8
0
 10
79.546125854800039
 20
104.6176501644
 30
0.0
 11
64.75
 21
104.6176501644
 31
0.0
  0
LINE
  5
C72
  8
0
 10
95.25
 20
104.6176501644
 30
0.0
 11
79.546125854800039
 21
104.6176501644
 31
0.0
  0
ARC
  5
C73
  8
0
 10
62.118946954070907
 20
-199.3379530835287
 30
0.0
 40
322.13593745742008
 50
80.787857897474524
 51
84.075246864137185
  0
LINE
  5
C74
  8
0
 10
110.7118322398933
 20
113.7185625726656
 30
0.0
 11
80.973025218155485
 21
111.7724571725
 31
0.0
  0
LINE
  5
C75
  8
0
 10
80.973025218155485
 20
111.7724571725
 30
0.0
 11
97.274596524096864
 21
120.8739181906019
 31
0.0
  0
LINE
  5
C76
  8
0
 10
80.973025218155485
 20
104.6927882737133
 30
0.0
 11
80.973025218155485
 21
111.7724571725
 31
0.0
  0
LINE
  5
C77
  8
0
 10
49.28816776010683
 20
118.64319132401231
 30
0.0
 11
44.480312549313673
 21
118.64319132401231
 31
0.0
  0
ARC
  5
C78
  8
0
 10
70.070962781515391
 20
6.9235044883681089
 30
0.0
 40
114.61313103636451
 50
95.063712820619145
 51
102.901669552559
  0
POLYLINE
  5
C79
  8
0
 66
     1
 10
0.0
 20
0.0
 30
0.0
 70
   128
  0
VERTEX
  5
1084
  8
0
 10
59.954811774500058
 20
121.0893194014
 30
0.0
  0
VERTEX
  5
1085
  8
0
 10
61.598943529600092
 20
121.2934303425
 30
0.0
  0
VERTEX
  5
1086
  8
0
 10
61.667557669600001
 20
121.2959270515
 30
0.0
  0
SEQEND
  5
1087
  8
0
  0
ARC
  5
C7A
  8
0
 10
87.129149811984462
 20
-31.47743382839738
 30
0.0
 40
153.17194308949169
 50
78.544465483204021
 51
84.319571145038324
  0
ARC
  5
C7B
  8
0
 10
83.323438144189026
 20
-88.284459590163721
 30
0.0
 40
209.70801687817439
 50
86.706712809388733
 51
99.340327383820821
  0
LINE
  5
C7D
  8
0
 10
90.099999884399949
 20
121.78738498929999
 30
0.0
 11
70.277086041380016
 21
121.78738498929999
 31
0.0
  0
LINE
  5
C7E
  8
0
 10
49.28816776010683
 20
106.7609491597123
 30
0.0
 11
49.28816776010683
 21
118.64319132401231
 31
0.0
  0
LINE
  5
C7F
  8
0
 10
42.449771087104182
 20
106.7609491597123
 30
0.0
 11
42.449771087104182
 21
113.7185625726655
 31
0.0
  0
LINE
  5
C81
  8
0
 10
64.749999999999886
 20
85.300000000000011
 30
0.0
 11
95.25
 21
85.300000000000011
 31
0.0
  0
LINE
  5
C83
  8
0
 10
73.0
 20
85.0
 30
0.0
 11
87.0
 21
85.0
 31
0.0
  0
ARC
  5
CAB
  8
0
 10
200.51395485640529
 20
-113.1124991906981
 30
0.0
 40
235.09540158630611
 50
80.330912745853666
 51
87.663109410439816
  0
ARC
  5
CAC
  8
0
 10
212.13251159640001
 20
284.59065165639998
 30
0.0
 40
179.99999999999869
 50
270.99237699550127
 51
278.90632104030072
  0
ARC
  5
CAD
  8
0
 10
187.86748840359991
 20
284.59065165639998
 30
0.0
 40
179.99999999999869
 50
268.10869039700248
 51
269.00762300449861
  0
LINE
  5
CAE
  8
0
 10
184.75
 20
104.6176501644
 30
0.0
 11
184.75
 21
85.300000000000011
 31
0.0
  0
LINE
  5
CAF
  8
0
 10
215.25
 20
85.300000000000011
 30
0.0
 11
215.25
 21
104.6176501644
 31
0.0
  0
ARC
  5
CB0
  8
0
 10
200.35375630358109
 20
-33.352338940720607
 30
0.0
 40
155.36519431168111
 50
86.912847739967404
 51
93.087152260006533
  0
LINE
  5
CB1
  8
0
 10
193.0
 20
85.300000000000011
 30
0.0
 11
193.0
 21
85.0
 31
0.0
  0
LINE
  5
CB2
  8
0
 10
207.0
 20
85.0
 30
0.0
 11
207.0
 21
85.300000000000011
 31
0.0
  0
LINE
  5
CB3
  8
0
 10
240.0
 20
106.7609491597
 30
0.0
 11
240.0
 21
118.643191324
 31
0.0
  0
LINE
  5
CB4
  8
0
 10
239.99999999729991
 20
118.643191324
 30
0.0
 11
239.9581224737
 21
118.643191324
 31
0.0
  0
ARC
  5
CB5
  8
0
 10
200.79335055249999
 20
-113.62250129499991
 30
0.0
 40
235.54454213040759
 50
80.428788071300346
 51
84.857226640009927
  0
ARC
  5
CB6
  8
0
 10
212.0874215137066
 20
-3.0909820144984499
 30
0.0
 40
124.4528222765354
 50
85.474517115907446
 51
101.99790989875299
  0
LINE
  5
CB7
  8
0
 10
186.21666554881409
 20
118.643191324
 30
0.0
 11
178.43621914012749
 21
118.643191324
 31
0.0
  0
ARC
  5
CB8
  8
0
 10
217.39396376397769
 20
-0.9267129239258622
 30
0.0
 40
125.7563830111384
 50
104.408944724226
 51
108.0464195124007
  0
LINE
  5
CBA
  8
0
 10
210.09999988289999
 20
121.78738498929999
 30
0.0
 11
189.90000003759991
 21
121.78738498929999
 31
0.0
  0
ARC
  5
CBB
  8
0
 10
185.1954586654079
 20
131.41171407330279
 30
0.0
 40
26.922162111768621
 50
246.29549002245739
 51
263.02652407244869
  0
LINE
  5
CBC
  8
0
 10
186.21666554881409
 20
106.7609491597
 30
0.0
 11
174.37221506902529
 21
106.7609491597
 31
0.0
  0
ARC
  5
CBD
  8
0
 10
205.19729288237889
 20
190.47981821087009
 30
0.0
 40
85.843539356186952
 50
257.22592565398799
 51
271.4938826842378
  0
ARC
  5
CBE
  8
0
 10
209.0150994078999
 20
325.57124626249998
 30
0.0
 40
220.91143960529021
 50
269.59024609589778
 51
277.90862724350188
  0
LINE
  5
CBF
  8
0
 10
240.0
 20
106.7609491597
 30
0.0
 11
239.41111938200009
 21
106.7609491597
 31
0.0
  0
LINE
  5
CC0
  8
0
 10
215.25
 20
104.6176501644
 30
0.0
 11
184.75
 21
104.6176501644
 31
0.0
  0
LINE
  5
CC1
  8
0
 10
209.78259887674801
 20
104.6611399000995
 30
0.0
 11
209.7825988767479
 21
111.7724571725
 31
0.0
  0
LINE
  5
CC2
  8
0
 10
186.21666554881409
 20
106.7609491597
 30
0.0
 11
186.21666554881409
 21
118.643191324
 31
0.0
  0
LINE
  5
CC3
  8
0
 10
209.7825988767479
 20
111.7724571725
 30
0.0
 11
221.9070574779085
 21
120.9738386323129
 31
0.0
  0
LINE
  5
CC4
  8
0
 10
174.37221506902529
 20
106.7609491597
 30
0.0
 11
174.37221506902529
 21
118.643191324
 31
0.0
  0
POLYLINE
  5
CC6
  8
0
 10
239.41111938211776
 20
113.71856257403668
 30
0.0
 66
     1
 70
     8
  0
VERTEX
  8
0
  5
1088
 10
239.411
 20
113.719
 30
0.000000
  70
    32
  0
VERTEX
  8
0
  5
1089
 10
239.418
 20
113.756
 30
0.000000
  70
    32
  0
VERTEX
  8
0
  5
108A
 10
239.425
 20
113.794
 30
0.000000
  70
    32
  0
VERTEX
  8
0
  5
108B
 10
239.431
 20
113.831
 30
0.000000
  70
    32
  0
VERTEX
  8
0
  5
108C
 10
239.438
 20
113.869
 30
0.000000
  70
    32
  0
VERTEX
  8
0
  5
108D
 10
239.444
 20
113.907
 30
0.000000
  70
    32
  0
VERTEX
  8
0
  5
108E
 10
239.451
 20
113.945
 30
0.000000
  70
    32
  0
VERTEX
  8
0
  5
108F
 10
239.457
 20
113.982
 30
0.000000
  70
    32
  0
VERTEX
  8
0
  5
1090
 10
239.464
 20
114.020
 30
0.000000
  70
    32
  0
VERTEX
  8
0
  5
1091
 10
239.470
 20
114.058
 30
0.000000
  70
    32
  0
VERTEX
  8
0
  5
1092
 10
239.477
 20
114.095
 30
0.000000
  70
    32
  0
VERTEX
  8
0
  5
1093
 10
239.483
 20
114.133
 30
0.000000
  70
    32
  0
VERTEX
  8
0
  5
1094
 10
239.489
 20
114.171
 30
0.000000
  70
    32
  0
VERTEX
  8
0
  5
1095
 10
239.495
 20
114.209
 30
0.000000
  70
    32
  0
VERTEX
  8
0
  5
1096
 10
239.502
 20
114.247
 30
0.000000
  70
    32
  0
VERTEX
  8
0
  5
1097
 10
239.508
 20
114.284
 30
0.000000
  70
    32
  0
VERTEX
  8
0
  5
1098
 10
239.514
 20
114.322
 30
0.000000
  70
    32
  0
VERTEX
  8
0
  5
1099
 10
239.520
 20
114.360
 30
0.000000
  70
    32
  0
VERTEX
  8
0
  5
109A
 10
239.526
 20
114.398
 30
0.000000
  70
    32
  0
VERTEX
  8
0
  5
109B
 10
239.532
 20
114.436
 30
0.000000
  70
    32
  0
VERTEX
  8
0
  5
109C
 10
239.538
 20
114.474
 30
0.000000
  70
    32
  0
VERTEX
  8
0
  5
109D
 10
239.544
 20
114.512
 30
0.000000
  70
    32
  0
VERTEX
  8
0
  5
109E
 10
239.550
 20
114.550
 30
0.000000
  70
    32
  0
VERTEX
  8
0
  5
109F
 10
239.556
 20
114.588
 30
0.000000
  70
    32
  0
VERTEX
  8
0
  5
10A0
 10
239.562
 20
114.626
 30
0.000000
  70
    32
  0
VERTEX
  8
0
  5
10A1
 10
239.568
 20
114.664
 30
0.000000
  70
    32
  0
VERTEX
  8
0
  5
10A2
 10
239.573
 20
114.702
 30
0.000000
  70
    32
  0
VERTEX
  8
0
  5
10A3
 10
239.579
 20
114.740
 30
0.000000
  70
    32
  0
VERTEX
  8
0
  5
10A4
 10
239.585
 20
114.778
 30
0.000000
  70
    32
  0
VERTEX
  8
0
  5
10A5
 10
239.590
 20
114.816
 30
0.000000
  70
    32
  0
VERTEX
  8
0
  5
10A6
 10
239.596
 20
114.854
 30
0.000000
  70
    32
  0
VERTEX
  8
0
  5
10A7
 10
239.601
 20
114.892
 30
0.000000
  70
    32
  0
VERTEX
  8
0
  5
10A8
 10
239.607
 20
114.930
 30
0.000000
  70
    32
  0
VERTEX
  8
0
  5
10A9
 10
239.612
 20
114.968
 30
0.000000
  70
    32
  0
VERTEX
  8
0
  5
10AA
 10
239.618
 20
115.006
 30
0.000000
  70
    32
  0
VERTEX
  8
0
  5
10AB
 10
239.623
 20
115.044
 30
0.000000
  70
    32
  0
VERTEX
  8
0
  5
10AC
 10
239.629
 20
115.082
 30
0.000000
  70
    32
  0
VERTEX
  8
0
  5
10AD
 10
239.634
 20
115.120
 30
0.000000
  70
    32
  0
VERTEX
  8
0
  5
10AE
 10
239.639
 20
115.158
 30
0.000000
  70
    32
  0
VERTEX
  8
0
  5
10AF
 10
239.645
 20
115.197
 30
0.000000
  70
    32
  0
VERTEX
  8
0
  5
10B0
 10
239.650
 20
115.235
 30
0.000000
  70
    32
  0
VERTEX
  8
0
  5
10B1
 10
239.655
 20
115.273
 30
0.000000
  70
    32
  0
VERTEX
  8
0
  5
10B2
 10
239.660
 20
115.311
 30
0.000000
  70
    32
  0
VERTEX
  8
0
  5
10B3
 10
239.665
 20
115.349
 30
0.000000
  70
    32
  0
VERTEX
  8
0
  5
10B4
 10
239.670
 20
115.388
 30
0.000000
  70
    32
  0
VERTEX
  8
0
  5
10B5
 10
239.675
 20
115.426
 30
0.000000
  70
    32
  0
VERTEX
  8
0
  5
10B6
 10
239.680
 20
115.464
 30
0.000000
  70
    32
  0
VERTEX
  8
0
  5
10B7
 10
239.685
 20
115.502
 30
0.000000
  70
    32
  0
VERTEX
  8
0
  5
10B8
 10
239.690
 20
115.541
 30
0.000000
  70
    32
  0
VERTEX
  8
0
  5
10B9
 10
239.695
 20
115.579
 30
0.000000
  70
    32
  0
VERTEX
  8
0
  5
10BA
 10
239.700
 20
115.617
 30
0.000000
  70
    32
  0
VERTEX
  8
0
  5
10BB
 10
239.705
 20
115.656
 30
0.000000
  70
    32
  0
VERTEX
  8
0
  5
10BC
 10
239.709
 20
115.694
 30
0.000000
  70
    32
  0
VERTEX
  8
0
  5
10BD
 10
239.714
 20
115.732
 30
0.000000
  70
    32
  0
VERTEX
  8
0
  5
10BE
 10
239.719
 20
115.771
 30
0.000000
  70
    32
  0
VERTEX
  8
0
  5
10BF
 10
239.724
 20
115.809
 30
0.000000
  70
    32
  0
VERTEX
  8
0
  5
10C0
 10
239.728
 20
115.848
 30
0.000000
  70
    32
  0
VERTEX
  8
0
  5
10C1
 10
239.733
 20
115.886
 30
0.000000
  70
    32
  0
VERTEX
  8
0
  5
10C2
 10
239.737
 20
115.924
 30
0.000000
  70
    32
  0
VERTEX
  8
0
  5
10C3
 10
239.742
 20
115.963
 30
0.000000
  70
    32
  0
VERTEX
  8
0
  5
10C4
 10
239.746
 20
116.001
 30
0.000000
  70
    32
  0
VERTEX
  8
0
  5
10C5
 10
239.751
 20
116.040
 30
0.000000
  70
    32
  0
VERTEX
  8
0
  5
10C6
 10
239.755
 20
116.078
 30
0.000000
  70
    32
  0
VERTEX
  8
0
  5
10C7
 10
239.759
 20
116.117
 30
0.000000
  70
    32
  0
VERTEX
  8
0
  5
10C8
 10
239.764
 20
116.155
 30
0.000000
  70
    32
  0
VERTEX
  8
0
  5
10C9
 10
239.768
 20
116.194
 30
0.000000
  70
    32
  0
VERTEX
  8
0
  5
10CA
 10
239.772
 20
116.232
 30
0.000000
  70
    32
  0
VERTEX
  8
0
  5
10CB
 10
239.776
 20
116.271
 30
0.000000
  70
    32
  0
VERTEX
  8
0
  5
10CC
 10
239.780
 20
116.309
 30
0.000000
  70
    32
  0
VERTEX
  8
0
  5
10CD
 10
239.784
 20
116.348
 30
0.000000
  70
    32
  0
VERTEX
  8
0
  5
10CE
 10
239.789
 20
116.386
 30
0.000000
  70
    32
  0
VERTEX
  8
0
  5
10CF
 10
239.793
 20
116.425
 30
0.000000
  70
    32
  0
VERTEX
  8
0
  5
10D0
 10
239.797
 20
116.464
 30
0.000000
  70
    32
  0
VERTEX
  8
0
  5
10D1
 10
239.800
 20
116.502
 30
0.000000
  70
    32
  0
VERTEX
  8
0
  5
10D2
 10
239.804
 20
116.541
 30
0.000000
  70
    32
  0
VERTEX
  8
0
  5
10D3
 10
239.808
 20
116.579
 30
0.000000
  70
    32
  0
VERTEX
  8
0
  5
10D4
 10
239.812
 20
116.618
 30
0.000000
  70
    32
  0
VERTEX
  8
0
  5
10D5
 10
239.816
 20
116.657
 30
0.000000
  70
    32
  0
VERTEX
  8
0
  5
10D6
 10
239.820
 20
116.695
 30
0.000000
  70
    32
  0
VERTEX
  8
0
  5
10D7
 10
239.823
 20
116.734
 30
0.000000
  70
    32
  0
VERTEX
  8
0
  5
10D8
 10
239.827
 20
116.773
 30
0.000000
  70
    32
  0
VERTEX
  8
0
  5
10D9
 10
239.831
 20
116.811
 30
0.000000
  70
    32
  0
VERTEX
  8
0
  5
10DA
 10
239.834
 20
116.850
 30
0.000000
  70
    32
  0
VERTEX
  8
0
  5
10DB
 10
239.838
 20
116.889
 30
0.000000
  70
    32
  0
VERTEX
  8
0
  5
10DC
 10
239.841
 20
116.928
 30
0.000000
  70
    32
  0
VERTEX
  8
0
  5
10DD
 10
239.845
 20
116.966
 30
0.000000
  70
    32
  0
VERTEX
  8
0
  5
10DE
 10
239.848
 20
117.005
 30
0.000000
  70
    32
  0
VERTEX
  8
0
  5
10DF
 10
239.852
 20
117.044
 30
0.000000
  70
    32
  0
VERTEX
  8
0
  5
10E0
 10
239.855
 20
117.083
 30
0.000000
  70
    32
  0
VERTEX
  8
0
  5
10E1
 10
239.858
 20
117.121
 30
0.000000
  70
    32
  0
VERTEX
  8
0
  5
10E2
 10
239.862
 20
117.160
 30
0.000000
  70
    32
  0
VERTEX
  8
0
  5
10E3
 10
239.865
 20
117.199
 30
0.000000
  70
    32
  0
VERTEX
  8
0
  5
10E4
 10
239.868
 20
117.238
 30
0.000000
  70
    32
  0
VERTEX
  8
0
  5
10E5
 10
239.871
 20
117.277
 30
0.000000
  70
    32
  0
VERTEX
  8
0
  5
10E6
 10
239.874
 20
117.316
 30
0.000000
  70
    32
  0
VERTEX
  8
0
  5
10E7
 10
239.878
 20
117.354
 30
0.000000
  70
    32
  0
VERTEX
  8
0
  5
10E8
 10
239.881
 20
117.393
 30
0.000000
  70
    32
  0
VERTEX
  8
0
  5
10E9
 10
239.884
 20
117.432
 30
0.000000
  70
    32
  0
VERTEX
  8
0
  5
10EA
 10
239.887
 20
117.471
 30
0.000000
  70
    32
  0
VERTEX
  8
0
  5
10EB
 10
239.890
 20
117.510
 30
0.000000
  70
    32
  0
VERTEX
  8
0
  5
10EC
 10
239.892
 20
117.549
 30
0.000000
  70
    32
  0
VERTEX
  8
0
  5
10ED
 10
239.895
 20
117.588
 30
0.000000
  70
    32
  0
VERTEX
  8
0
  5
10EE
 10
239.898
 20
117.627
 30
0.000000
  70
    32
  0
VERTEX
  8
0
  5
10EF
 10
239.901
 20
117.666
 30
0.000000
  70
    32
  0
VERTEX
  8
0
  5
10F0
 10
239.904
 20
117.705
 30
0.000000
  70
    32
  0
VERTEX
  8
0
  5
10F1
 10
239.906
 20
117.744
 30
0.000000
  70
    32
  0
VERTEX
  8
0
  5
10F2
 10
239.909
 20
117.783
 30
0.000000
  70
    32
  0
VERTEX
  8
0
  5
10F3
 10
239.912
 20
117.822
 30
0.000000
  70
    32
  0
VERTEX
  8
0
  5
10F4
 10
239.914
 20
117.861
 30
0.000000
  70
    32
  0
VERTEX
  8
0
  5
10F5
 10
239.917
 20
117.900
 30
0.000000
  70
    32
  0
VERTEX
  8
0
  5
10F6
 10
239.919
 20
117.939
 30
0.000000
  70
    32
  0
VERTEX
  8
0
  5
10F7
 10
239.922
 20
117.978
 30
0.000000
  70
    32
  0
VERTEX
  8
0
  5
10F8
 10
239.924
 20
118.017
 30
0.000000
  70
    32
  0
VERTEX
  8
0
  5
10F9
 10
239.927
 20
118.056
 30
0.000000
  70
    32
  0
VERTEX
  8
0
  5
10FA
 10
239.929
 20
118.095
 30
0.000000
  70
    32
  0
VERTEX
  8
0
  5
10FB
 10
239.931
 20
118.134
 30
0.000000
  70
    32
  0
VERTEX
  8
0
  5
10FC
 10
239.934
 20
118.173
 30
0.000000
  70
    32
  0
VERTEX
  8
0
  5
10FD
 10
239.936
 20
118.212
 30
0.000000
  70
    32
  0
VERTEX
  8
0
  5
10FE
 10
239.938
 20
118.251
 30
0.000000
  70
    32
  0
VERTEX
  8
0
  5
10FF
 10
239.940
 20
118.291
 30
0.000000
  70
    32
  0
VERTEX
  8
0
  5
1100
 10
239.942
 20
118.330
 30
0.000000
  70
    32
  0
VERTEX
  8
0
  5
1101
 10
239.945
 20
118.369
 30
0.000000
  70
    32
  0
VERTEX
  8
0
  5
1102
 10
239.947
 20
118.408
 30
0.000000
  70
    32
  0
VERTEX
  8
0
  5
1103
 10
239.949
 20
118.447
 30
0.000000
  70
    32
  0
VERTEX
  8
0
  5
1104
 10
239.951
 20
118.486
 30
0.000000
  70
    32
  0
VERTEX
  8
0
  5
1105
 10
239.953
 20
118.526
 30
0.000000
  70
    32
  0
VERTEX
  8
0
  5
1106
 10
239.954
 20
118.565
 30
0.000000
  70
    32
  0
VERTEX
  8
0
  5
1107
 10
239.956
 20
118.604
 30
0.000000
  70
    32
  0
VERTEX
  8
0
  5
1108
 10
239.958
 20
118.643
 30
0.000000
  70
    32
  0
SEQEND
  8
0
  5
1109
  0
LINE
  5
CC7
  8
0
 10
239.41111938200009
 20
113.718562574
 30
0.0
 11
209.7825988767479
 21
111.7724571725
 31
0.0
  0
LINE
  5
CC8
  8
0
 10
239.41111938200009
 20
106.7609491597
 30
0.0
 11
239.41111938200009
 21
113.718562574
 31
0.0
  0
LINE
  5
CC9
  8
0
 10
184.75
 20
85.300000000000011
 30
0.0
 11
215.25
 21
85.300000000000011
 31
0.0
  0
LINE
  5
CCB
  8
0
 10
193.0
 20
85.0
 30
0.0
 11
207.0
 21
85.0
 31
0.0
  0
ARC
  5
D2E
  8
0
 10
200.0
 20
222.01285537096049
 30
0.0
 40
40.0
 50
110.15636467179969
 51
129.84363532819921
  0
LINE
  5
D2F
  8
1
 10
177.5
 20
260.98399854126018
 30
0.0
 11
200.0
 21
222.01285537096049
 31
0.0
  0
CIRCLE
  5
D30
  8
0
 10
200.0
 20
222.01285537096049
 30
0.0
 40
9.9999999999999964
  0
ARC
  5
D31
  8
0
 10
378.654759632278
 20
384.22527945085011
 30
0.0
 40
234.2635221635837
 50
212.73899416719919
 51
217.17156160082379
  0
LINE
  5
D32
  8
0
 10
186.1063639041715
 20
204.73825884686369
 30
0.0
 11
174.37221506902691
 21
252.72468761085381
 31
0.0
  0
LINE
  5
D33
  8
0
 10
186.216665548973
 20
259.5630842838537
 30
0.0
 11
208.0972697618565
 21
237.983788437399
 31
0.0
  0
ARC
  5
D34
  8
0
 10
200.0
 20
222.01285537096049
 30
0.0
 40
40.0
 50
230.15636467179871
 51
249.84363532820029
  0
ARC
  5
D35
  8
0
 10
-29.80745987877788
 20
295.62620367957118
 30
0.0
 40
234.26352216358359
 50
332.73899416720172
 51
337.17156160081998
  0
LINE
  5
D36
  8
0
 10
221.9070574779085
 20
218.61791182308511
 30
0.0
 11
186.216665548973
 21
184.46262645806729
 31
0.0
  0
LINE
  5
D37
  8
0
 10
174.37221506902691
 20
191.30102313106741
 30
0.0
 11
182.1201313613951
 21
221.0398301528048
 31
0.0
  0
ARC
  5
D38
  8
0
 10
200.0
 20
222.01285537096049
 30
0.0
 40
40.0
 50
350.15636467180059
 51
9.8436353281993725
  0
ARC
  5
D39
  8
0
 10
251.15270024649999
 20
-13.81291701753957
 30
0.0
 40
234.2635221635837
 50
92.738994167202463
 51
97.171561600820652
  0
LINE
  5
D3A
  8
0
 10
191.9865786179198
 20
242.682395442933
 30
0.0
 11
239.4111193819999
 21
228.85125204396061
 31
0.0
  0
LINE
  5
D3B
  8
0
 10
239.4111193819999
 20
215.1744586979606
 30
0.0
 11
209.7825988767481
 21
207.01494752267789
 31
0.0
  0
LINE
  5
D3C
  8
1
 10
155.0
 20
222.01285537097459
 30
0.0
 11
245.0
 21
222.0128553709464
 31
0.0
  0
LINE
  5
DF2
  8
0
 10
174.37221506902529
 20
113.70749150029999
 30
0.0
 11
178.43621914012749
 21
118.643191324
 31
0.0
  0
LINE
  5
DF3
  8
0
 10
42.449771087104182
 20
113.7185625726656
 30
0.0
 11
44.480312549313787
 21
118.64319132400141
 31
0.0
  0
ARC
  5
EB4
  8
0
 10
318.14731956333162
 20
-90.7937361183902
 30
0.0
 40
212.7410428889398
 50
92.221738837859675
 51
95.230198104832667
  0
ARC
  5
EB5
  8
0
 10
324.04651362863751
 20
-43.344708208403567
 30
0.0
 40
165.2430116529726
 50
85.09070502656877
 51
87.900565731116501
  0
ARC
  5
EB6
  8
0
 10
332.13251159639998
 20
284.59065165639998
 30
0.0
 40
179.99999999999869
 50
270.99237699550127
 51
272.26321343982602
  0
ARC
  5
EB8
  8
0
 10
307.86748840360002
 20
284.59065165639998
 30
0.0
 40
179.99999999999869
 50
267.55637244188313
 51
269.00762300449861
  0
LINE
  5
EB9
  8
0
 10
304.75
 20
104.6176501643
 30
0.0
 11
304.75
 21
85.300000000000011
 31
0.0
  0
LINE
  5
EBA
  8
0
 10
335.25
 20
85.300000000000011
 30
0.0
 11
335.25
 21
104.6176501643
 31
0.0
  0
ARC
  5
EBB
  8
0
 10
319.9635556281001
 20
-49.344104343000019
 30
0.0
 40
171.35684157988831
 50
87.061230934799056
 51
92.938769065292249
  0
LINE
  5
EBC
  8
0
 10
313.0
 20
85.300000000000011
 30
0.0
 11
313.0
 21
85.0
 31
0.0
  0
LINE
  5
EBD
  8
0
 10
327.0
 20
85.0
 30
0.0
 11
327.0
 21
85.300000000000011
 31
0.0
  0
ARC
  5
EBE
  8
0
 10
321.4466470529
 20
-60.742863063800023
 30
0.0
 40
182.7808751314335
 50
78.939999060901272
 51
84.15986281320879
  0
ARC
  5
EBF
  8
0
 10
336.92109500720022
 20
101.08129309749999
 30
0.0
 40
20.250458637125341
 50
81.125381490097425
 51
119.8611457191983
  0
LINE
  5
EC0
  8
0
 10
326.83839667299998
 20
118.6431913239999
 30
0.0
 11
318.17012339809997
 21
118.6431913239999
 31
0.0
  0
ARC
  5
EC1
  8
0
 10
314.1582697578001
 20
117.6369159985
 30
0.0
 40
4.136128583796439
 50
14.0807520149999
 51
55.672543762595907
  0
ARC
  5
EC2
  8
0
 10
307.56449843876499
 20
5.4918122927556681
 30
0.0
 40
115.9050650602189
 50
85.583092871724148
 51
102.51431948266961
  0
LINE
  5
EC3
  8
0
 10
330.09999992079997
 20
121.78738498929989
 30
0.0
 11
309.9000001157001
 21
121.78738498929989
 31
0.0
  0
ARC
  5
EC4
  8
0
 10
304.85094508122302
 20
225.39081663698161
 30
0.0
 40
120.7263767948653
 50
259.30660905222931
 51
269.76493505224249
  0
ARC
  5
EC5
  8
0
 10
304.63646140660012
 20
123.0358988879
 30
0.0
 40
18.3725891866201
 50
269.12423464850292
 51
297.64644016439911
  0
LINE
  5
EC6
  8
0
 10
326.83839667299998
 20
106.7609491596
 30
0.0
 11
313.16160332700002
 21
106.7609491596
 31
0.0
  0
ARC
  5
EC7
  8
0
 10
335.63450632930022
 20
124.4503233998
 30
0.0
 40
19.755644917214099
 50
243.56096073490329
 51
269.7080642251027
  0
ARC
  5
EC8
  8
0
 10
336.31537629908547
 20
214.70787304611841
 30
0.0
 40
110.0157140689098
 50
269.59297899194729
 51
281.12887869061791
  0
LINE
  5
EC9
  8
0
 10
335.25
 20
104.6176501643
 30
0.0
 11
304.75
 21
104.6176501643
 31
0.0
  0
LINE
  5
ECA
  8
0
 10
313.16160332700002
 20
106.7609491596
 30
0.0
 11
313.16160332700002
 21
113.7185625739
 31
0.0
  0
POLYLINE
  5
ECB
  8
0
 10
313.16160332829691
 20
113.71856257266563
 30
0.0
 66
     1
 70
     8
  0
VERTEX
  8
0
  5
110A
 10
313.162
 20
113.719
 30
0.000000
  70
    32
  0
VERTEX
  8
0
  5
110B
 10
313.200
 20
113.756
 30
0.000000
  70
    32
  0
VERTEX
  8
0
  5
110C
 10
313.239
 20
113.794
 30
0.000000
  70
    32
  0
VERTEX
  8
0
  5
110D
 10
313.278
 20
113.831
 30
0.000000
  70
    32
  0
VERTEX
  8
0
  5
110E
 10
313.317
 20
113.869
 30
0.000000
  70
    32
  0
VERTEX
  8
0
  5
110F
 10
313.356
 20
113.907
 30
0.000000
  70
    32
  0
VERTEX
  8
0
  5
1110
 10
313.395
 20
113.945
 30
0.000000
  70
    32
  0
VERTEX
  8
0
  5
1111
 10
313.433
 20
113.982
 30
0.000000
  70
    32
  0
VERTEX
  8
0
  5
1112
 10
313.472
 20
114.020
 30
0.000000
  70
    32
  0
VERTEX
  8
0
  5
1113
 10
313.511
 20
114.058
 30
0.000000
  70
    32
  0
VERTEX
  8
0
  5
1114
 10
313.550
 20
114.095
 30
0.000000
  70
    32
  0
VERTEX
  8
0
  5
1115
 10
313.589
 20
114.133
 30
0.000000
  70
    32
  0
VERTEX
  8
0
  5
1116
 10
313.628
 20
114.171
 30
0.000000
  70
    32
  0
VERTEX
  8
0
  5
1117
 10
313.667
 20
114.209
 30
0.000000
  70
    32
  0
VERTEX
  8
0
  5
1118
 10
313.706
 20
114.247
 30
0.000000
  70
    32
  0
VERTEX
  8
0
  5
1119
 10
313.744
 20
114.284
 30
0.000000
  70
    32
  0
VERTEX
  8
0
  5
111A
 10
313.783
 20
114.322
 30
0.000000
  70
    32
  0
VERTEX
  8
0
  5
111B
 10
313.822
 20
114.360
 30
0.000000
  70
    32
  0
VERTEX
  8
0
  5
111C
 10
313.861
 20
114.398
 30
0.000000
  70
    32
  0
VERTEX
  8
0
  5
111D
 10
313.900
 20
114.436
 30
0.000000
  70
    32
  0
VERTEX
  8
0
  5
111E
 10
313.939
 20
114.474
 30
0.000000
  70
    32
  0
VERTEX
  8
0
  5
111F
 10
313.978
 20
114.512
 30
0.000000
  70
    32
  0
VERTEX
  8
0
  5
1120
 10
314.017
 20
114.550
 30
0.000000
  70
    32
  0
VERTEX
  8
0
  5
1121
 10
314.056
 20
114.588
 30
0.000000
  70
    32
  0
VERTEX
  8
0
  5
1122
 10
314.095
 20
114.626
 30
0.000000
  70
    32
  0
VERTEX
  8
0
  5
1123
 10
314.134
 20
114.664
 30
0.000000
  70
    32
  0
VERTEX
  8
0
  5
1124
 10
314.173
 20
114.702
 30
0.000000
  70
    32
  0
VERTEX
  8
0
  5
1125
 10
314.212
 20
114.740
 30
0.000000
  70
    32
  0
VERTEX
  8
0
  5
1126
 10
314.251
 20
114.778
 30
0.000000
  70
    32
  0
VERTEX
  8
0
  5
1127
 10
314.290
 20
114.816
 30
0.000000
  70
    32
  0
VERTEX
  8
0
  5
1128
 10
314.329
 20
114.854
 30
0.000000
  70
    32
  0
VERTEX
  8
0
  5
1129
 10
314.368
 20
114.892
 30
0.000000
  70
    32
  0
VERTEX
  8
0
  5
112A
 10
314.407
 20
114.930
 30
0.000000
  70
    32
  0
VERTEX
  8
0
  5
112B
 10
314.446
 20
114.968
 30
0.000000
  70
    32
  0
VERTEX
  8
0
  5
112C
 10
314.485
 20
115.006
 30
0.000000
  70
    32
  0
VERTEX
  8
0
  5
112D
 10
314.524
 20
115.044
 30
0.000000
  70
    32
  0
VERTEX
  8
0
  5
112E
 10
314.563
 20
115.082
 30
0.000000
  70
    32
  0
VERTEX
  8
0
  5
112F
 10
314.602
 20
115.120
 30
0.000000
  70
    32
  0
VERTEX
  8
0
  5
1130
 10
314.641
 20
115.158
 30
0.000000
  70
    32
  0
VERTEX
  8
0
  5
1131
 10
314.680
 20
115.197
 30
0.000000
  70
    32
  0
VERTEX
  8
0
  5
1132
 10
314.719
 20
115.235
 30
0.000000
  70
    32
  0
VERTEX
  8
0
  5
1133
 10
314.758
 20
115.273
 30
0.000000
  70
    32
  0
VERTEX
  8
0
  5
1134
 10
314.797
 20
115.311
 30
0.000000
  70
    32
  0
VERTEX
  8
0
  5
1135
 10
314.836
 20
115.349
 30
0.000000
  70
    32
  0
VERTEX
  8
0
  5
1136
 10
314.875
 20
115.388
 30
0.000000
  70
    32
  0
VERTEX
  8
0
  5
1137
 10
314.914
 20
115.426
 30
0.000000
  70
    32
  0
VERTEX
  8
0
  5
1138
 10
314.953
 20
115.464
 30
0.000000
  70
    32
  0
VERTEX
  8
0
  5
1139
 10
314.992
 20
115.502
 30
0.000000
  70
    32
  0
VERTEX
  8
0
  5
113A
 10
315.031
 20
115.541
 30
0.000000
  70
    32
  0
VERTEX
  8
0
  5
113B
 10
315.070
 20
115.579
 30
0.000000
  70
    32
  0
VERTEX
  8
0
  5
113C
 10
315.110
 20
115.617
 30
0.000000
  70
    32
  0
VERTEX
  8
0
  5
113D
 10
315.149
 20
115.656
 30
0.000000
  70
    32
  0
VERTEX
  8
0
  5
113E
 10
315.188
 20
115.694
 30
0.000000
  70
    32
  0
VERTEX
  8
0
  5
113F
 10
315.227
 20
115.732
 30
0.000000
  70
    32
  0
VERTEX
  8
0
  5
1140
 10
315.266
 20
115.771
 30
0.000000
  70
    32
  0
VERTEX
  8
0
  5
1141
 10
315.305
 20
115.809
 30
0.000000
  70
    32
  0
VERTEX
  8
0
  5
1142
 10
315.344
 20
115.848
 30
0.000000
  70
    32
  0
VERTEX
  8
0
  5
1143
 10
315.383
 20
115.886
 30
0.000000
  70
    32
  0
VERTEX
  8
0
  5
1144
 10
315.422
 20
115.924
 30
0.000000
  70
    32
  0
VERTEX
  8
0
  5
1145
 10
315.462
 20
115.963
 30
0.000000
  70
    32
  0
VERTEX
  8
0
  5
1146
 10
315.501
 20
116.001
 30
0.000000
  70
    32
  0
VERTEX
  8
0
  5
1147
 10
315.540
 20
116.040
 30
0.000000
  70
    32
  0
VERTEX
  8
0
  5
1148
 10
315.579
 20
116.078
 30
0.000000
  70
    32
  0
VERTEX
  8
0
  5
1149
 10
315.618
 20
116.117
 30
0.000000
  70
    32
  0
VERTEX
  8
0
  5
114A
 10
315.657
 20
116.155
 30
0.000000
  70
    32
  0
VERTEX
  8
0
  5
114B
 10
315.696
 20
116.194
 30
0.000000
  70
    32
  0
VERTEX
  8
0
  5
114C
 10
315.736
 20
116.232
 30
0.000000
  70
    32
  0
VERTEX
  8
0
  5
114D
 10
315.775
 20
116.271
 30
0.000000
  70
    32
  0
VERTEX
  8
0
  5
114E
 10
315.814
 20
116.309
 30
0.000000
  70
    32
  0
VERTEX
  8
0
  5
114F
 10
315.853
 20
116.348
 30
0.000000
  70
    32
  0
VERTEX
  8
0
  5
1150
 10
315.892
 20
116.386
 30
0.000000
  70
    32
  0
VERTEX
  8
0
  5
1151
 10
315.931
 20
116.425
 30
0.000000
  70
    32
  0
VERTEX
  8
0
  5
1152
 10
315.971
 20
116.464
 30
0.000000
  70
    32
  0
VERTEX
  8
0
  5
1153
 10
316.010
 20
116.502
 30
0.000000
  70
    32
  0
VERTEX
  8
0
  5
1154
 10
316.049
 20
116.541
 30
0.000000
  70
    32
  0
VERTEX
  8
0
  5
1155
 10
316.088
 20
116.579
 30
0.000000
  70
    32
  0
VERTEX
  8
0
  5
1156
 10
316.127
 20
116.618
 30
0.000000
  70
    32
  0
VERTEX
  8
0
  5
1157
 10
316.167
 20
116.657
 30
0.000000
  70
    32
  0
VERTEX
  8
0
  5
1158
 10
316.206
 20
116.695
 30
0.000000
  70
    32
  0
VERTEX
  8
0
  5
1159
 10
316.245
 20
116.734
 30
0.000000
  70
    32
  0
VERTEX
  8
0
  5
115A
 10
316.284
 20
116.773
 30
0.000000
  70
    32
  0
VERTEX
  8
0
  5
115B
 10
316.323
 20
116.811
 30
0.000000
  70
    32
  0
VERTEX
  8
0
  5
115C
 10
316.363
 20
116.850
 30
0.000000
  70
    32
  0
VERTEX
  8
0
  5
115D
 10
316.402
 20
116.889
 30
0.000000
  70
    32
  0
VERTEX
  8
0
  5
115E
 10
316.441
 20
116.928
 30
0.000000
  70
    32
  0
VERTEX
  8
0
  5
115F
 10
316.480
 20
116.966
 30
0.000000
  70
    32
  0
VERTEX
  8
0
  5
1160
 10
316.520
 20
117.005
 30
0.000000
  70
    32
  0
VERTEX
  8
0
  5
1161
 10
316.559
 20
117.044
 30
0.000000
  70
    32
  0
VERTEX
  8
0
  5
1162
 10
316.598
 20
117.083
 30
0.000000
  70
    32
  0
VERTEX
  8
0
  5
1163
 10
316.637
 20
117.121
 30
0.000000
  70
    32
  0
VERTEX
  8
0
  5
1164
 10
316.677
 20
117.160
 30
0.000000
  70
    32
  0
VERTEX
  8
0
  5
1165
 10
316.716
 20
117.199
 30
0.000000
  70
    32
  0
VERTEX
  8
0
  5
1166
 10
316.755
 20
117.238
 30
0.000000
  70
    32
  0
VERTEX
  8
0
  5
1167
 10
316.794
 20
117.277
 30
0.000000
  70
    32
  0
VERTEX
  8
0
  5
1168
 10
316.834
 20
117.316
 30
0.000000
  70
    32
  0
VERTEX
  8
0
  5
1169
 10
316.873
 20
117.354
 30
0.000000
  70
    32
  0
VERTEX
  8
0
  5
116A
 10
316.912
 20
117.393
 30
0.000000
  70
    32
  0
VERTEX
  8
0
  5
116B
 10
316.951
 20
117.432
 30
0.000000
  70
    32
  0
VERTEX
  8
0
  5
116C
 10
316.991
 20
117.471
 30
0.000000
  70
    32
  0
VERTEX
  8
0
  5
116D
 10
317.030
 20
117.510
 30
0.000000
  70
    32
  0
VERTEX
  8
0
  5
116E
 10
317.069
 20
117.549
 30
0.000000
  70
    32
  0
VERTEX
  8
0
  5
116F
 10
317.109
 20
117.588
 30
0.000000
  70
    32
  0
VERTEX
  8
0
  5
1170
 10
317.148
 20
117.627
 30
0.000000
  70
    32
  0
VERTEX
  8
0
  5
1171
 10
317.187
 20
117.666
 30
0.000000
  70
    32
  0
VERTEX
  8
0
  5
1172
 10
317.226
 20
117.705
 30
0.000000
  70
    32
  0
VERTEX
  8
0
  5
1173
 10
317.266
 20
117.744
 30
0.000000
  70
    32
  0
VERTEX
  8
0
  5
1174
 10
317.305
 20
117.783
 30
0.000000
  70
    32
  0
VERTEX
  8
0
  5
1175
 10
317.344
 20
117.822
 30
0.000000
  70
    32
  0
VERTEX
  8
0
  5
1176
 10
317.384
 20
117.861
 30
0.000000
  70
    32
  0
VERTEX
  8
0
  5
1177
 10
317.423
 20
117.900
 30
0.000000
  70
    32
  0
VERTEX
  8
0
  5
1178
 10
317.462
 20
117.939
 30
0.000000
  70
    32
  0
VERTEX
  8
0
  5
1179
 10
317.502
 20
117.978
 30
0.000000
  70
    32
  0
VERTEX
  8
0
  5
117A
 10
317.541
 20
118.017
 30
0.000000
  70
    32
  0
VERTEX
  8
0
  5
117B
 10
317.580
 20
118.056
 30
0.000000
  70
    32
  0
VERTEX
  8
0
  5
117C
 10
317.619
 20
118.095
 30
0.000000
  70
    32
  0
VERTEX
  8
0
  5
117D
 10
317.659
 20
118.134
 30
0.000000
  70
    32
  0
VERTEX
  8
0
  5
117E
 10
317.698
 20
118.173
 30
0.000000
  70
    32
  0
VERTEX
  8
0
  5
117F
 10
317.737
 20
118.212
 30
0.000000
  70
    32
  0
VERTEX
  8
0
  5
1180
 10
317.777
 20
118.251
 30
0.000000
  70
    32
  0
VERTEX
  8
0
  5
1181
 10
317.816
 20
118.291
 30
0.000000
  70
    32
  0
VERTEX
  8
0
  5
1182
 10
317.855
 20
118.330
 30
0.000000
  70
    32
  0
VERTEX
  8
0
  5
1183
 10
317.895
 20
118.369
 30
0.000000
  70
    32
  0
VERTEX
  8
0
  5
1184
 10
317.934
 20
118.408
 30
0.000000
  70
    32
  0
VERTEX
  8
0
  5
1185
 10
317.973
 20
118.447
 30
0.000000
  70
    32
  0
VERTEX
  8
0
  5
1186
 10
318.013
 20
118.486
 30
0.000000
  70
    32
  0
VERTEX
  8
0
  5
1187
 10
318.052
 20
118.526
 30
0.000000
  70
    32
  0
VERTEX
  8
0
  5
1188
 10
318.091
 20
118.565
 30
0.000000
  70
    32
  0
VERTEX
  8
0
  5
1189
 10
318.131
 20
118.604
 30
0.000000
  70
    32
  0
VERTEX
  8
0
  5
118A
 10
318.170
 20
118.643
 30
0.000000
  70
    32
  0
SEQEND
  8
0
  5
118B
  0
LINE
  5
ECC
  8
0
 10
326.83839667299998
 20
118.6431913239999
 30
0.0
 11
326.83839667299998
 21
106.7609491596
 31
0.0
  0
LINE
  5
ECD
  8
0
 10
313.16160332700002
 20
113.7185625739
 30
0.0
 11
305.00209215171748
 21
111.7724571724
 31
0.0
  0
LINE
  5
ECE
  8
0
 10
305.00209215171748
 20
111.7724571724
 30
0.0
 11
316.49072304880019
 21
121.0526474439
 31
0.0
  0
LINE
  5
ECF
  8
0
 10
335.97093306643842
 20
104.6926981794138
 30
0.0
 11
335.97093306643842
 21
111.7724571725
 31
0.0
  0
LINE
  5
ED0
  8
0
 10
335.97093306643842
 20
111.7724571725
 30
0.0
 11
340.04518822550023
 21
121.0893194014
 31
0.0
  0
LINE
  5
ED1
  8
0
 10
305.00209215171748
 20
104.6669482488859
 30
0.0
 11
305.00209215171748
 21
111.7724571724
 31
0.0
  0
LINE
  5
ED2
  8
0
 10
282.44977108710668
 20
106.7609491596
 30
0.0
 11
282.44977108710668
 21
118.643191324
 31
0.0
  0
LINE
  5
ED3
  8
0
 10
304.75
 20
85.300000000000011
 30
0.0
 11
335.25
 21
85.300000000000011
 31
0.0
  0
LINE
  5
ED4
  8
0
 10
357.55022891329389
 20
113.631301904119
 30
0.0
 11
335.97093306643842
 21
111.7724571725
 31
0.0
  0
LINE
  5
ED5
  8
0
 10
357.55022891289758
 20
106.7609491596
 30
0.0
 11
357.55022891289758
 21
113.6313019040863
 31
0.0
  0
LINE
  5
ED7
  8
0
 10
313.0
 20
85.0
 30
0.0
 11
327.0
 21
85.0
 31
0.0
  0
LINE
  5
EF0
  8
0
 10
356.51075698016552
 20
118.64319132399601
 30
0.0
 11
357.55022891289758
 21
113.6313019040863
 31
0.0
  0
LINE
  5
EFA
  8
0
 10
113.68981084880549
 20
118.643191324
 30
0.0
 11
110.7118322398933
 21
113.7185625726656
 31
0.0
  0
ARC
  5
F3E
  8
0
 10
190.5482675040962
 20
69.73214036676292
 30
0.0
 40
52.059281049782967
 50
90.713493330484567
 51
99.316904644730187
  0
ARC
  5
F40
  8
0
 10
183.15080434744311
 20
104.435681662229
 30
0.0
 40
16.700807181371779
 50
79.826681578574252
 51
121.711244949074
  0
LINE
  5
FBC
  8
2
 10
194.3119999999999
 20
84.999999999999915
 30
0.0
 11
195.8119999999999
 21
86.499999999999986
 31
0.0
  0
LINE
  5
FBD
  8
2
 10
204.18800000000019
 20
86.5
 30
0.0
 11
195.8119999999999
 21
86.499999999999986
 31
0.0
  0
LINE
  5
FBE
  8
2
 10
194.9999999999996
 20
102.0
 30
0.0
 11
195.81199999999939
 21
103.4064252557456
 31
0.0
  0
LINE
  5
FBF
  8
2
 10
195.8119999999995
 20
103.9999999999999
 30
0.0
 11
199.9999999999998
 21
106.51640427248751
 31
0.0
  0
LINE
  5
FC0
  8
2
 10
195.8119999999999
 20
104.0
 30
0.0
 11
204.18800000000019
 21
104.0
 31
0.0
  0
LINE
  5
FC1
  8
2
 10
195.0
 20
102.0
 30
0.0
 11
205.00000000000011
 21
102.0
 31
0.0
  0
LINE
  5
FC2
  8
2
 10
195.8119999999999
 20
86.500000000000028
 30
0.0
 11
195.8119999999999
 21
104.0
 31
0.0
  0
LINE
  5
FC3
  8
2
 10
195.0
 20
85.688000000000073
 30
0.0
 11
195.0
 21
102.0
 31
0.0
  0
LINE
  5
FC4
  8
2
 10
205.00000000000011
 20
85.688000000000073
 30
0.0
 11
205.00000000000011
 21
102.0
 31
0.0
  0
LINE
  5
FC5
  8
2
 10
204.18800000000019
 20
86.500000000000028
 30
0.0
 11
204.18800000000019
 21
104.0
 31
0.0
  0
LINE
  5
FC6
  8
2
 10
205.00000000000051
 20
102.0
 30
0.0
 11
204.1880000000007
 21
103.4064252557456
 31
0.0
  0
LINE
  5
FC7
  8
2
 10
205.6880000000003
 20
84.999999999999915
 30
0.0
 11
204.18800000000019
 21
86.499999999999986
 31
0.0
  0
LINE
  5
FC8
  8
2
 10
204.18800000000061
 20
103.9999999999999
 30
0.0
 11
200.00000000000031
 21
106.51640427248751
 31
0.0
  0
LINE
  5
FC9
  8
2
 10
314.3119999999999
 20
84.999999999999915
 30
0.0
 11
315.8119999999999
 21
86.499999999999986
 31
0.0
  0
LINE
  5
FCA
  8
2
 10
324.1880000000001
 20
86.5
 30
0.0
 11
315.8119999999999
 21
86.499999999999986
 31
0.0
  0
LINE
  5
FCB
  8
2
 10
314.99999999999949
 20
102.0
 30
0.0
 11
315.81199999999939
 21
103.4064252557456
 31
0.0
  0
LINE
  5
FCC
  8
2
 10
315.81199999999939
 20
103.9999999999999
 30
0.0
 11
319.99999999999977
 21
106.51640427248751
 31
0.0
  0
LINE
  5
FCD
  8
2
 10
315.8119999999999
 20
104.0
 30
0.0
 11
324.1880000000001
 21
104.0
 31
0.0
  0
LINE
  5
FCE
  8
2
 10
315.0
 20
102.0
 30
0.0
 11
325.0
 21
102.0
 31
0.0
  0
LINE
  5
FCF
  8
2
 10
315.8119999999999
 20
86.500000000000028
 30
0.0
 11
315.8119999999999
 21
104.0
 31
0.0
  0
LINE
  5
FD0
  8
2
 10
315.0
 20
85.688000000000073
 30
0.0
 11
315.0
 21
102.0
 31
0.0
  0
LINE
  5
FD1
  8
2
 10
325.0
 20
85.688000000000073
 30
0.0
 11
325.0
 21
102.0
 31
0.0
  0
LINE
  5
FD2
  8
2
 10
324.1880000000001
 20
86.500000000000028
 30
0.0
 11
324.1880000000001
 21
104.0
 31
0.0
  0
LINE
  5
FD3
  8
2
 10
325.0000000000004
 20
102.0
 30
0.0
 11
324.1880000000005
 21
103.4064252557456
 31
0.0
  0
LINE
  5
FD4
  8
2
 10
325.68800000000027
 20
84.999999999999915
 30
0.0
 11
324.1880000000001
 21
86.499999999999986
 31
0.0
  0
LINE
  5
FD5
  8
2
 10
324.1880000000005
 20
103.9999999999999
 30
0.0
 11
320.00000000000051
 21
106.51640427248751
 31
0.0
  0
LINE
  5
FD6
  8
2
 10
74.311999999999884
 20
84.999999999999915
 30
0.0
 11
75.811999999999898
 21
86.499999999999986
 31
0.0
  0
LINE
  5
FD7
  8
2
 10
84.188000000000216
 20
86.5
 30
0.0
 11
75.811999999999898
 21
86.499999999999986
 31
0.0
  0
LINE
  5
FD8
  8
2
 10
74.999999999999659
 20
102.0
 30
0.0
 11
75.811999999999443
 21
103.4064252557456
 31
0.0
  0
LINE
  5
FD9
  8
2
 10
75.811999999999557
 20
103.9999999999999
 30
0.0
 11
79.999999999999773
 21
106.51640427248751
 31
0.0
  0
LINE
  5
FDA
  8
2
 10
75.811999999999898
 20
104.0
 30
0.0
 11
84.188000000000216
 21
104.0
 31
0.0
  0
LINE
  5
FDB
  8
2
 10
75.0
 20
102.0
 30
0.0
 11
85.000000000000114
 21
102.0
 31
0.0
  0
LINE
  5
FDC
  8
2
 10
75.811999999999898
 20
86.500000000000028
 30
0.0
 11
75.811999999999898
 21
104.0
 31
0.0
  0
LINE
  5
FDD
  8
2
 10
75.0
 20
85.688000000000073
 30
0.0
 11
75.0
 21
102.0
 31
0.0
  0
LINE
  5
FDE
  8
2
 10
85.000000000000114
 20
85.688000000000073
 30
0.0
 11
85.000000000000114
 21
102.0
 31
0.0
  0
LINE
  5
FDF
  8
2
 10
84.188000000000216
 20
86.500000000000028
 30
0.0
 11
84.188000000000216
 21
104.0
 31
0.0
  0
LINE
  5
FE0
  8
2
 10
85.000000000000455
 20
102.0
 30
0.0
 11
84.188000000000656
 21
103.4064252557456
 31
0.0
  0
LINE
  5
FE1
  8
2
 10
85.688000000000329
 20
84.999999999999915
 30
0.0
 11
84.188000000000216
 21
86.499999999999986
 31
0.0
  0
LINE
  5
FE2
  8
2
 10
84.188000000000557
 20
103.9999999999999
 30
0.0
 11
80.000000000000327
 21
106.51640427248751
 31
0.0
  0
LINE
  5
FE3
  8
1
 10
177.5000000000002
 20
183.0417122006607
 30
0.0
 11
200.0
 21
222.01285537096049
 31
0.0
  0
LINE
  5
FE4
  8
1
 10
200.0
 20
177.01285537096049
 30
0.0
 11
200.0
 21
267.01285537096061
 31
0.0
  0
LINE
  5
FEE
  8
1
 10
200.0
 20
127.01285537096049
 30
0.0
 11
200.0
 21
80.0
 31
0.0
  0
LINE
  5
FEF
  8
1
 10
80.0
 20
127.01285537096049
 30
0.0
 11
80.0
 21
80.0
 31
0.0
  0
LINE
  5
FF0
  8
1
 10
320.0
 20
127.01285537096049
 30
0.0
 11
320.0
 21
80.0
 31
0.0
  0
ENDSEC
  0
EOF
