  0
SECTION
  2
HEADER
  9
$ACADVER
  1
AC1009
  9
$INSBASE
 10
0.0
 20
0.0
 30
0.0
  9
$EXTMIN
 10
0.0
 20
-2.960436562073669
 30
0.0
  9
$EXTMAX
 10
446.03477284006482
 20
343.00000000000028
 30
0.0
  9
$LIMMIN
 10
0.0
 20
0.0
  9
$LIMMAX
 10
375.0
 20
270.0
  9
$ORTHOMODE
 70
     1
  9
$REGENMODE
 70
     1
  9
$FILLMODE
 70
     1
  9
$QTEXTMODE
 70
     0
  9
$MIRRTEXT
 70
     0
  9
$DRAGMODE
 70
     2
  9
$LTSCALE
 40
10.0
  9
$OSMODE
 70
    37
  9
$ATTMODE
 70
     1
  9
$TEXTSIZE
 40
4.000000000000048
  9
$TRACEWID
 40
0.05
  9
$TEXTSTYLE
  7
STANDARD
  9
$CLAYER
  8
0
  9
$CELTYPE
  6
BYLAYER
  9
$CECOLOR
 62
   256
  9
$DIMSCALE
 40
1.0
  9
$DIMASZ
 40
3.0
  9
$DIMEXO
 40
2.0
  9
$DIMDLI
 40
0.38
  9
$DIMRND
 40
0.0
  9
$DIMDLE
 40
0.0
  9
$DIMEXE
 40
2.0
  9
$DIMTP
 40
0.0
  9
$DIMTM
 40
0.0
  9
$DIMTXT
 40
3.2000000000000002
  9
$DIMCEN
 40
0.0
  9
$DIMTSZ
 40
0.0
  9
$DIMTOL
 70
     0
  9
$DIMLIM
 70
     0
  9
$DIMTIH
 70
     0
  9
$DIMTOH
 70
     0
  9
$DIMSE1
 70
     0
  9
$DIMSE2
 70
     0
  9
$DIMTAD
 70
     1
  9
$DIMZIN
 70
     0
  9
$DIMBLK
  1

  9
$DIMASO
 70
     1
  9
$DIMSHO
 70
     0
  9
$DIMPOST
  1

  9
$DIMAPOST
  1

  9
$DIMALT
 70
     0
  9
$DIMALTD
 70
     2
  9
$DIMALTF
 40
25.399999999999999
  9
$DIMLFAC
 40
1.0
  9
$DIMTOFL
 70
     1
  9
$DIMTVP
 40
1.6000000000000001
  9
$DIMTIX
 70
     1
  9
$DIMSOXD
 70
     0
  9
$DIMSAH
 70
     0
  9
$DIMBLK1
  1

  9
$DIMBLK2
  1

  9
$DIMSTYLE
  2
STANDARD
  9
$DIMCLRD
 70
     0
  9
$DIMCLRE
 70
     0
  9
$DIMCLRT
 70
     0
  9
$DIMTFAC
 40
1.0
  9
$DIMGAP
 40
0.09
  9
$LUNITS
 70
     2
  9
$LUPREC
 70
     4
  9
$SKETCHINC
 40
0.1
  9
$FILLETRAD
 40
0.0
  9
$AUNITS
 70
     0
  9
$AUPREC
 70
     4
  9
$MENU
  1
E:\r13\win\SUPPORT\ACAD
  9
$ELEVATION
 40
0.0
  9
$PELEVATION
 40
0.0
  9
$THICKNESS
 40
0.0
  9
$LIMCHECK
 70
     0
  9
$BLIPMODE
 70
     0
  9
$CHAMFERA
 40
0.0
  9
$CHAMFERB
 40
0.0
  9
$SKPOLY
 70
     0
  9
$TDCREATE
 40
2449839.7850462962
  9
$TDUPDATE
 40
2459429.5744203241
  9
$TDINDWG
 40
0.0932971528
  9
$TDUSRTIMER
 40
0.0932971528
  9
$USRTIMER
 70
     1
  9
$ANGBASE
 50
0.0
  9
$ANGDIR
 70
     0
  9
$PDMODE
 70
     0
  9
$PDSIZE
 40
0.0
  9
$PLINEWID
 40
0.0
  9
$COORDS
 70
     1
  9
$SPLFRAME
 70
     0
  9
$SPLINETYPE
 70
     6
  9
$SPLINESEGS
 70
     8
  9
$ATTDIA
 70
     0
  9
$ATTREQ
 70
     1
  9
$HANDLING
 70
     1
  9
$HANDSEED
  5
C14
  9
$SURFTAB1
 70
     6
  9
$SURFTAB2
 70
     6
  9
$SURFTYPE
 70
     6
  9
$SURFU
 70
     6
  9
$SURFV
 70
     6
  9
$UCSNAME
  2

  9
$UCSORG
 10
0.0
 20
0.0
 30
0.0
  9
$UCSXDIR
 10
1.0
 20
0.0
 30
0.0
  9
$UCSYDIR
 10
0.0
 20
1.0
 30
0.0
  9
$PUCSNAME
  2

  9
$PUCSORG
 10
0.0
 20
0.0
 30
0.0
  9
$PUCSXDIR
 10
1.0
 20
0.0
 30
0.0
  9
$PUCSYDIR
 10
0.0
 20
1.0
 30
0.0
  9
$USERI1
 70
     0
  9
$USERI2
 70
     1
  9
$USERI3
 70
     1
  9
$USERI4
 70
     0
  9
$USERI5
 70
     0
  9
$USERR1
 40
0.0
  9
$USERR2
 40
0.0
  9
$USERR3
 40
0.0
  9
$USERR4
 40
0.0
  9
$USERR5
 40
0.0
  9
$WORLDVIEW
 70
     1
  9
$SHADEDGE
 70
     3
  9
$SHADEDIF
 70
    70
  9
$TILEMODE
 70
     1
  9
$MAXACTVP
 70
    16
  9
$PLIMCHECK
 70
     0
  9
$PEXTMIN
 10
1.0000000000000000E+020
 20
1.0000000000000000E+020
 30
1.0000000000000000E+020
  9
$PEXTMAX
 10
-1.0000000000000000E+020
 20
-1.0000000000000000E+020
 30
-1.0000000000000000E+020
  9
$PLIMMIN
 10
0.0
 20
0.0
  9
$PLIMMAX
 10
12.0
 20
9.0
  9
$UNITMODE
 70
     0
  9
$VISRETAIN
 70
     0
  9
$PLINEGEN
 70
     0
  9
$PSLTSCALE
 70
     0
  0
ENDSEC
  0
SECTION
  2
TABLES
  0
TABLE
  2
VPORT
 70
     1
  0
VPORT
  2
*ACTIVE
 70
     0
 10
0.0
 20
0.0
 11
1.0
 21
1.0
 12
393.37085664912792
 22
170.0261458093251
 13
0.0
 23
0.0
 14
10.0
 24
10.0
 15
10.0
 25
10.0
 16
0.0
 26
0.0
 36
1.0
 17
0.0
 27
0.0
 37
0.0
 40
348.99133477509258
 41
2.3805970149253728
 42
50.0
 43
0.0
 44
0.0
 50
0.0
 51
0.0
 71
     0
 72
   500
 73
     1
 74
     0
 75
     0
 76
     0
 77
     0
 78
     2
  0
ENDTAB
  0
TABLE
  2
LTYPE
 70
     4
  0
LTYPE
  2
CONTINUOUS
 70
     0
  3
Solid Line
 72
    65
 73
     0
 40
0.0
  0
LTYPE
  2
CENTER
 70
     0
  3
____ _ ____ _ ____ _ ____ _ ____ _ ____ _ ____
 72
    65
 73
     4
 40
2.0
 49
1.25
 49
-0.25
 49
0.25
 49
-0.25
  0
LTYPE
  2
HIDDEN
 70
     0
  3
_ _ _ _ _ _ _ _ _ _ _ _ _ _ _ _ _ _ _ _ _ _ _
 72
    65
 73
     2
 40
0.375
 49
0.25
 49
-0.125
  0
LTYPE
  2
PHANTOM2
 70
     0
  3
___ _ _ ___ _ _ ___ _ _ ___ _ _
 72
    65
 73
     6
 40
1.25
 49
0.625
 49
-0.125
 49
0.125
 49
-0.125
 49
0.125
 49
-0.125
  0
ENDTAB
  0
TABLE
  2
LAYER
 70
     3
  0
LAYER
  2
0
 70
     0
 62
     7
  6
CONTINUOUS
  0
LAYER
  2
1
 70
     0
 62
     1
  6
CENTER
  0
LAYER
  2
2
 70
     0
 62
     2
  6
HIDDEN
  0
ENDTAB
  0
TABLE
  2
STYLE
 70
     2
  0
STYLE
  2
STANDARD
 70
     0
 40
0.0
 41
1.0
 50
0.0
 71
     0
 42
4.000000000000048
  3
TXT
  4
BIGFONT
  0
STYLE
  2
STANDARD1
 70
     0
 40
0.0
 41
1.0
 50
0.0
 71
     0
 42
3.0
  3
txt
  4

  0
ENDTAB
  0
TABLE
  2
VIEW
 70
     1
  0
VIEW
  2
ALL
 70
     0
 40
270.0
 10
220.99159663865549
 20
135.0
 41
0.0
 11
0.0
 21
0.0
 31
1.0
 12
0.0
 22
0.0
 32
0.0
 42
0.0
 43
0.0
 44
0.0
 50
0.0
 71
     0
  0
ENDTAB
  0
TABLE
  2
UCS
 70
     0
  0
ENDTAB
  0
TABLE
  2
APPID
 70
     4
  0
APPID
  2
ACAD
 70
     0
  0
APPID
  2
ACAD_MLEADERVER
 70
     0
  0
APPID
  2
ACAD_NAV_VCDISPLAY
 70
     0
  0
APPID
  2
ACAD_EXEMPT_FROM_CAD_STANDARDS
 70
     0
  0
ENDTAB
  0
TABLE
  2
DIMSTYLE
 70
     1
  0
DIMSTYLE
  2
STANDARD
 70
     0
  3

  4

  5

  6

  7

 40
1.0
 41
0.18
 42
0.0625
 43
0.38
 44
0.18
 45
0.0
 46
0.0
 47
0.0
 48
0.0
140
0.18
141
0.09
142
0.0
143
25.399999999999999
144
1.0
145
0.0
146
1.0
147
0.09
 71
     0
 72
     0
 73
     1
 74
     1
 75
     0
 76
     0
 77
     0
 78
     0
170
     0
171
     2
172
     0
173
     0
174
     0
175
     0
176
     0
177
     0
178
     0
  0
ENDTAB
  0
ENDSEC
  0
SECTION
  2
BLOCKS
  0
BLOCK
  8
0
  2
$MODEL_SPACE
 70
     0
 10
0.0
 20
0.0
 30
0.0
  3
$MODEL_SPACE
  1

  0
ENDBLK
  5
123
  8
0
  0
BLOCK
 67
     1
  8
0
  2
$PAPER_SPACE
 70
     0
 10
0.0
 20
0.0
 30
0.0
  3
$PAPER_SPACE
  1

  0
ENDBLK
  5
121
 67
     1
  8
0
  0
ENDSEC
  0
SECTION
  2
ENTITIES
  0
TEXT
  5
20D
  8
0
 62
     3
 10
0.0
 20
0.0
 30
0.0
 40
10.0
  1
TAKR100-SUS-LB
  7
STANDARD1
  0
ARC
  5
777
  8
0
 10
250.0
 20
288.00000000000011
 30
0.0
 40
50.000000000000021
 50
114.8302892691011
 51
127.0279656505996
  0
ARC
  5
778
  8
0
 10
476.28846091000008
 20
528.83278676690009
 30
0.0
 40
315.20240927034968
 50
218.3229721887011
 51
222.4284039881004
  0
ARC
  5
77B
  8
0
 10
250.0
 20
288.00000000000011
 30
0.0
 40
50.000000000000092
 50
234.8302892690987
 51
247.02796565060291
  0
ARC
  5
77C
  8
0
 10
-71.711541859000022
 20
363.55516234770022
 30
0.0
 40
315.20240927002862
 50
338.32297218869883
 51
342.4284039881004
  0
LINE
  5
77E
  8
0
 10
228.78366434669999
 20
268.39640102200008
 30
0.0
 11
219.88976202020001
 21
327.91708367100011
 31
0.0
  0
LINE
  5
77F
  8
0
 10
243.6309531062
 20
316.17568513990011
 30
0.0
 11
299.624327494
 21
294.11768916900007
 31
0.0
  0
CIRCLE
  5
781
  8
0
 10
250.0
 20
288.00000000000011
 30
0.0
 40
13.0
  0
LINE
  5
782
  8
0
 10
229.00340409590001
 20
333.3777804706001
 30
0.0
 11
230.48591048579999
 21
334.03477284000007
 31
0.0
  0
LINE
  5
783
  8
0
 10
230.48591048579999
 20
334.03477284000007
 30
0.0
 11
262.0728057206
 21
308.91071289790011
 31
0.0
  0
LINE
  5
784
  8
0
 10
221.19998729720001
 20
247.1275243187001
 30
0.0
 11
219.88976202020001
 21
248.08291632900011
 31
0.0
  0
LINE
  5
785
  8
0
 10
219.88976202020001
 20
248.08291632900011
 30
0.0
 11
225.8543885588
 21
288.00000000000011
 31
0.0
  0
LINE
  5
787
  8
0
 10
299.624327494
 20
281.88231083090011
 30
0.0
 11
262.0728057206
 21
267.08928710200013
 31
0.0
  0
ARC
  5
789
  8
0
 10
249.99999999999989
 20
-175.0
 30
0.0
 40
323.00000000000011
 50
92.324398245198566
 51
94.287381502400535
  0
ARC
  5
78A
  8
0
 10
249.99999999999989
 20
-175.0
 30
0.0
 40
323.00000000000011
 50
81.094874723201926
 51
87.67560175479818
  0
ARC
  5
78B
  8
0
 10
271.83403548820002
 20
258.15332572469993
 30
0.0
 40
130.00000000000281
 50
270.0
 51
282.5130083675989
  0
ARC
  5
78C
  8
0
 10
228.16596451180001
 20
258.15332572469993
 30
0.0
 40
130.0000000000029
 50
268.98114977479901
 51
270.0
  0
LINE
  5
78D
  8
0
 10
228.16596451180001
 20
128.1533257246999
 30
0.0
 11
271.83403548820002
 21
128.1533257246999
 31
0.0
  0
LINE
  5
78E
  8
0
 10
232.5
 20
128.1533257246999
 30
0.0
 11
232.5
 21
105.3
 31
0.0
  0
LINE
  5
78F
  8
0
 10
267.5
 20
105.2999999999999
 30
0.0
 11
267.5
 21
128.1533257246999
 31
0.0
  0
ARC
  5
790
  8
0
 10
250.0
 20
-42.00000000000005
 30
0.0
 40
190.0
 50
86.969209952999023
 51
93.030790047000963
  0
LINE
  5
791
  8
0
 10
241.59999999999999
 20
105.3
 30
0.0
 11
241.59999999999999
 21
105.0
 31
0.0
  0
LINE
  5
792
  8
0
 10
258.39999999999998
 20
105.0
 30
0.0
 11
258.39999999999998
 21
105.3
 31
0.0
  0
LINE
  5
793
  8
0
 10
300.0
 20
131.2412362961999
 30
0.0
 11
300.0
 21
144.10656527249989
 31
0.0
  0
LINE
  5
794
  8
0
 10
300.0
 20
144.10656527249989
 30
0.0
 11
299.7966086081384
 21
144.12257007622441
 31
0.0
  0
ARC
  5
795
  8
0
 10
255.12335805987729
 20
-143.24340818554111
 30
0.0
 40
290.81764866814569
 50
81.163660447734642
 51
85.570206063600949
  0
ARC
  5
796
  8
0
 10
264.86324155128648
 20
-50.819148168100938
 30
0.0
 40
197.93391485928959
 50
86.314791152403316
 51
100.001901014419
  0
LINE
  5
797
  8
0
 10
230.48591048579999
 20
144.10656527249989
 30
0.0
 11
221.19998729720001
 21
144.10656527249989
 31
0.0
  0
ARC
  5
798
  8
0
 10
243.9546164695
 20
90.077364126199996
 30
0.0
 40
58.625316419460198
 50
104.9975754514997
 51
112.838600871802
  0
ARC
  5
799
  8
0
 10
226.38375250359999
 20
138.40147195669991
 30
0.0
 40
8.6440732378120853
 50
73.880794775700693
 51
138.7000832808001
  0
LINE
  5
79A
  8
0
 10
263.10000000000002
 20
147.7342405137999
 30
0.0
 11
236.90000000000001
 21
147.7342405137999
 31
0.0
  0
ARC
  5
79B
  8
0
 10
225.56132740230001
 20
134.9369397454999
 30
0.0
 40
6.7694074976689294
 50
213.08905591539869
 51
272.48122407090227
  0
LINE
  5
79C
  8
0
 10
230.48591048579999
 20
131.2412362961999
 30
0.0
 11
219.88976202020001
 21
131.2412362961999
 31
0.0
  0
ARC
  5
79D
  8
0
 10
258.17355567710001
 20
252.19108811619989
 30
0.0
 40
124.0784927033301
 50
257.10610754169983
 51
271.8008548831022
  0
ARC
  5
79E
  8
0
 10
266.3527058853
 20
307.17028711339992
 30
0.0
 40
179.04756833290739
 50
268.63028815709902
 51
280.70927040750013
  0
LINE
  5
79F
  8
0
 10
300.0
 20
131.2412362961999
 30
0.0
 11
299.624327494
 21
131.2412362961999
 31
0.0
  0
LINE
  5
7A0
  8
0
 10
262.0728057206
 20
128.1738788239999
 30
0.0
 11
262.0728057206
 21
138.52825671089991
 31
0.0
  0
LINE
  5
7A1
  8
0
 10
230.48591048579999
 20
131.2412362961999
 30
0.0
 11
230.48591048579999
 21
144.10656527249989
 31
0.0
  0
LINE
  5
7A2
  8
0
 10
262.0728057206
 20
138.52825671089991
 30
0.0
 11
277.58538254715239
 21
146.70548771312599
 31
0.0
  0
LINE
  5
7A3
  8
0
 10
219.88976202020001
 20
131.2412362961999
 30
0.0
 11
219.88976202020001
 21
142.54588509609991
 31
0.0
  0
LINE
  5
7A4
  8
0
 10
221.19998729720001
 20
144.10656527249989
 30
0.0
 11
219.88976202020001
 21
142.54588509609991
 31
0.0
  0
LINE
  5
7A5
  8
0
 10
299.624327494
 20
141.2468586391999
 30
0.0
 11
262.0728057206
 21
138.52825671089991
 31
0.0
  0
LINE
  5
7A6
  8
0
 10
299.624327494
 20
131.2412362961999
 30
0.0
 11
299.624327494
 21
141.2468586391999
 31
0.0
  0
LINE
  5
7A8
  8
0
 10
219.88976202020001
 20
142.54588509609991
 30
0.0
 11
219.88976202020001
 21
144.10656527249989
 31
0.0
  0
LINE
  5
7A9
  8
0
 10
232.5
 20
105.3
 30
0.0
 11
267.5
 21
105.2999999999999
 31
0.0
  0
LINE
  5
7AA
  8
0
 10
241.59999999999999
 20
105.0
 30
0.0
 11
258.39999999999998
 21
105.0
 31
0.0
  0
ARC
  5
7AB
  8
0
 10
121.8340354882
 20
258.15332572469993
 30
0.0
 40
130.00000000000281
 50
270.0
 51
273.82901969620133
  0
ARC
  5
7AC
  8
0
 10
78.165964511800041
 20
258.15332572469998
 30
0.0
 40
130.0000000000029
 50
266.17169408910217
 51
270.0
  0
ARC
  5
7AD
  8
0
 10
100.0
 20
-175.0
 30
0.0
 40
323.00000000000011
 50
92.324398245198566
 51
94.557823106699175
  0
ARC
  5
7AE
  8
0
 10
100.0
 20
-175.0
 30
0.0
 40
323.00000000000011
 50
84.579052607399277
 51
87.67560175479818
  0
LINE
  5
7AF
  8
0
 10
82.5
 20
128.1533257246999
 30
0.0
 11
82.5
 21
105.3
 31
0.0
  0
LINE
  5
7B0
  8
0
 10
117.5
 20
105.3
 30
0.0
 11
117.5
 21
128.1533257246999
 31
0.0
  0
ARC
  5
7B1
  8
0
 10
100.0
 20
-42.00000000000005
 30
0.0
 40
190.0
 50
86.969209952999023
 51
93.030790047000963
  0
LINE
  5
7B2
  8
0
 10
91.600000000000009
 20
105.3
 30
0.0
 11
91.600000000000009
 21
105.0
 31
0.0
  0
LINE
  5
7B3
  8
0
 10
108.40000000000001
 20
105.0
 30
0.0
 11
108.40000000000001
 21
105.3
 31
0.0
  0
LINE
  5
7B4
  8
0
 10
100.0
 20
128.1738788239999
 30
0.0
 11
100.0
 21
139.0226487528999
 31
0.0
  0
ARC
  5
7B5
  8
0
 10
95.029782209800018
 20
324.75824546809997
 30
0.0
 40
196.6471873018593
 50
259.76339235240152
 51
271.44829343749927
  0
LINE
  5
7B6
  8
0
 10
60.082916329
 20
131.24123629619999
 30
0.0
 11
60.082916329
 21
144.10656527250001
 31
0.0
  0
ARC
  5
7B7
  8
0
 10
103.5293199448999
 20
-168.00569521150001
 30
0.0
 40
315.12164814816663
 50
87.07608721159832
 51
97.924717852997944
  0
LINE
  5
7B8
  8
0
 10
100.0
 20
139.0226487528999
 30
0.0
 11
119.60359897790001
 21
146.70571336019989
 31
0.0
  0
LINE
  5
7B9
  8
0
 10
60.082916329
 20
131.24123629619999
 30
0.0
 11
53.96522716000004
 21
131.24123629619999
 31
0.0
  0
ARC
  5
7BA
  8
0
 10
104.5560468494
 20
330.14806267919988
 30
0.0
 40
202.02556399346869
 50
268.70776557840162
 51
280.08054863180058
  0
LINE
  5
7BB
  8
0
 10
146.03477283999999
 20
131.2412362961999
 30
0.0
 11
139.917083671
 21
131.2412362961999
 31
0.0
  0
ARC
  5
7BC
  8
0
 10
127.114330567
 20
192.19227656939989
 30
0.0
 40
63.820157052368451
 50
273.05317514409762
 51
287.24540544069981
  0
ARC
  5
7BD
  8
0
 10
73.347889766500032
 20
194.353445604
 30
0.0
 40
66.021500842007327
 50
252.9275286203985
 51
266.64680201209808
  0
LINE
  5
7BE
  8
0
 10
139.917083671
 20
142.54588509609991
 30
0.0
 11
100.0
 21
139.0226487528999
 31
0.0
  0
LINE
  5
7BF
  8
0
 10
139.917083671
 20
131.2412362961999
 30
0.0
 11
139.917083671
 21
142.54588509609991
 31
0.0
  0
LINE
  5
7C0
  8
0
 10
60.082916329
 20
144.10656527250001
 30
0.0
 11
54.62221952940002
 21
144.10656527250001
 31
0.0
  0
ARC
  5
7C1
  8
0
 10
93.27376242929995
 20
-53.478828497800059
 30
0.0
 40
201.3303990954002
 50
96.115815904098298
 51
101.0683958691008
  0
LINE
  5
7C2
  8
0
 10
71.824314860000015
 20
146.70571336019989
 30
0.0
 11
74.333201319599993
 21
146.97171220499999
 31
0.0
  0
ARC
  5
7C3
  8
0
 10
120.28195493050001
 20
30.569691787899959
 30
0.0
 40
116.4209142334099
 50
77.220217244001461
 51
84.958190096698971
  0
LINE
  5
7C4
  8
0
 10
146.03477283999999
 20
144.10656527249989
 30
0.0
 11
140.87247568129999
 21
144.10656527249989
 31
0.0
  0
ARC
  5
7C5
  8
0
 10
98.108758838300005
 20
-117.50833871739999
 30
0.0
 40
265.08695454112842
 50
80.716502195899295
 51
85.349008373101299
  0
LINE
  5
7C6
  8
0
 10
100.0
 20
147.7342405137999
 30
0.0
 11
86.900000000000034
 21
147.7342405137999
 31
0.0
  0
LINE
  5
7C7
  8
0
 10
113.09999999999999
 20
147.7342405137999
 30
0.0
 11
100.0
 21
147.7342405137999
 31
0.0
  0
LINE
  5
7C8
  8
0
 10
140.87247568129999
 20
144.10656527249989
 30
0.0
 11
139.917083671
 21
142.54588509609991
 31
0.0
  0
LINE
  5
7C9
  8
0
 10
53.96522716000004
 20
131.24123629619999
 30
0.0
 11
53.96522716000004
 21
142.54588509609999
 31
0.0
  0
LINE
  5
7CA
  8
0
 10
54.62221952940002
 20
144.10656527250001
 30
0.0
 11
53.96522716000004
 21
142.54588509609999
 31
0.0
  0
LINE
  5
7CB
  8
0
 10
146.03477283999999
 20
131.2412362961999
 30
0.0
 11
146.03477283999999
 21
144.10656527249989
 31
0.0
  0
LINE
  5
7CC
  8
0
 10
82.5
 20
105.3
 30
0.0
 11
117.5
 21
105.3
 31
0.0
  0
LINE
  5
7CE
  8
0
 10
91.600000000000009
 20
105.0
 30
0.0
 11
108.40000000000001
 21
105.0
 31
0.0
  0
ARC
  5
7D0
  8
0
 10
399.99999999999989
 20
-175.0
 30
0.0
 40
323.00000000000011
 50
92.324398245198566
 51
95.420971712101917
  0
ARC
  5
7D1
  8
0
 10
399.99999999999989
 20
-175.0
 30
0.0
 40
323.00000000000011
 50
85.442123294899346
 51
87.67560175479818
  0
ARC
  5
7D2
  8
0
 10
421.83403548810003
 20
258.15332572469993
 30
0.0
 40
130.00000000000281
 50
270.0
 51
271.01413801609817
  0
LINE
  5
7D3
  8
0
 10
430.29103354689988
 20
128.42869743909989
 30
0.0
 11
430.51336405640001
 21
128.4433829461999
 31
0.0
  0
LINE
  5
7D4
  8
0
 10
378.1659645118001
 20
128.1533257246999
 30
0.0
 11
421.83403548810003
 21
128.1533257246999
 31
0.0
  0
LINE
  5
7D5
  8
0
 10
382.5
 20
128.1533257246999
 30
0.0
 11
382.5
 21
105.2999999999999
 31
0.0
  0
LINE
  5
7D6
  8
0
 10
417.50000000000011
 20
105.2999999999999
 30
0.0
 11
417.50000000000011
 21
128.1533257246999
 31
0.0
  0
ARC
  5
7D7
  8
0
 10
400.0
 20
-42.000000000000107
 30
0.0
 40
190.0
 50
86.969209952999023
 51
93.030790047000963
  0
LINE
  5
7D8
  8
0
 10
391.60000000000002
 20
105.2999999999999
 30
0.0
 11
391.60000000000002
 21
104.9999999999999
 31
0.0
  0
LINE
  5
7D9
  8
0
 10
408.39999999999992
 20
104.9999999999999
 30
0.0
 11
408.39999999999992
 21
105.2999999999999
 31
0.0
  0
ARC
  5
7DA
  8
0
 10
406.72623757069988
 20
-53.478828497800123
 30
0.0
 40
201.33039909539659
 50
78.931604130899174
 51
83.884184095901716
  0
ARC
  5
7DB
  8
0
 10
422.21936286739998
 20
102.3562411710999
 30
0.0
 40
44.747664279377133
 50
82.350706280898336
 51
111.0899230720993
  0
LINE
  5
7DC
  8
0
 10
406.11768916900002
 20
144.10656527249989
 30
0.0
 11
395.49469521083728
 21
144.10656527249989
 31
0.0
  0
ARC
  5
7DE
  8
0
 10
380.65491458974248
 20
25.849614568161329
 30
0.0
 40
121.23137302275271
 50
84.901792831159426
 51
102.718134386147
  0
LINE
  5
7DF
  8
0
 10
413.10000000000002
 20
147.7342405137999
 30
0.0
 11
386.89999999999998
 21
147.7342405137999
 31
0.0
  0
ARC
  5
7E0
  8
0
 10
376.57908858659999
 20
212.03992941759989
 30
0.0
 40
83.903608615783483
 50
254.36417989139849
 51
271.71441070270021
  0
ARC
  5
7E1
  8
0
 10
380.63966398820003
 20
157.90186299769991
 30
0.0
 40
29.768384429143751
 50
267.0146092544004
 51
296.41413125570182
  0
LINE
  5
7E2
  8
0
 10
406.11768916900002
 20
131.2412362961999
 30
0.0
 11
393.88231083090011
 21
131.2412362961999
 31
0.0
  0
ARC
  5
7E3
  8
0
 10
419.53526845890008
 20
158.74551420749989
 30
0.0
 40
30.602560961847779
 50
243.9952097772005
 51
272.57604971269831
  0
ARC
  5
7E4
  8
0
 10
423.72114276259981
 20
209.58079953689989
 30
0.0
 40
81.455418825130309
 50
268.02274989489922
 51
285.89865951100109
  0
LINE
  5
7E5
  8
0
 10
393.88231083090011
 20
131.2412362961999
 30
0.0
 11
393.88231083090011
 21
141.2468586391999
 31
0.0
  0
LINE
  5
7E7
  8
0
 10
406.11768916900002
 20
144.10656527249989
 30
0.0
 11
406.11768916900002
 21
131.2412362961999
 31
0.0
  0
LINE
  5
7E8
  8
0
 10
393.88231083090011
 20
141.2468586391999
 30
0.0
 11
379.08928710200001
 21
138.52825671089991
 31
0.0
  0
LINE
  5
7E9
  8
0
 10
379.08928710200001
 20
138.52825671089991
 30
0.0
 11
391.42791383802472
 21
146.60137766999989
 31
0.0
  0
LINE
  5
7EA
  8
0
 10
379.08928710200001
 20
128.1738788239999
 30
0.0
 11
379.08928710200001
 21
138.52825671089991
 31
0.0
  0
LINE
  5
7EB
  8
0
 10
420.9107128979
 20
128.1738788239999
 30
0.0
 11
420.9107128979
 21
139.0226487528999
 31
0.0
  0
LINE
  5
7EC
  8
0
 10
420.9107128979
 20
139.0226487528999
 30
0.0
 11
428.17568513999993
 21
146.70571336019989
 31
0.0
  0
LINE
  5
7ED
  8
0
 10
353.9652271599
 20
131.2412362961999
 30
0.0
 11
353.9652271599
 21
144.10656527249989
 31
0.0
  0
LINE
  5
7EE
  8
0
 10
382.5
 20
105.2999999999999
 30
0.0
 11
417.50000000000011
 21
105.2999999999999
 31
0.0
  0
LINE
  5
7EF
  8
0
 10
446.03477284000007
 20
142.54588509609991
 30
0.0
 11
420.9107128979
 21
139.0226487528999
 31
0.0
  0
LINE
  5
7F0
  8
0
 10
446.03477284000007
 20
131.2412362961999
 30
0.0
 11
446.03477284000007
 21
142.54588509609991
 31
0.0
  0
LINE
  5
7F1
  8
0
 10
445.37778047059999
 20
144.10656527249989
 30
0.0
 11
446.03477284000007
 21
142.54588509609991
 31
0.0
  0
LINE
  5
7F2
  8
0
 10
391.60000000000002
 20
104.9999999999999
 30
0.0
 11
408.39999999999992
 21
104.9999999999999
 31
0.0
  0
LINE
  5
7F5
  8
1
 10
305.00000000000011
 20
288.00000000000011
 30
0.0
 11
194.9999999999998
 21
288.00000000000011
 31
0.0
  0
LINE
  5
7F6
  8
1
 10
250.0
 20
343.00000000000028
 30
0.0
 11
250.0
 21
233.0
 31
0.0
  0
ARC
  5
801
  8
0
 10
345.42308094933418
 20
-28.387949114404819
 30
0.0
 40
315.20240927002862
 50
98.322972188697761
 51
102.42840398809901
  0
LINE
  5
802
  8
0
 10
277.58538254720071
 20
279.42791383802478
 30
0.0
 11
230.48591048582509
 21
241.96522715999819
 31
0.0
  0
ARC
  5
803
  8
0
 10
250.0
 20
288.00000000000011
 30
0.0
 40
50.000000000000078
 50
354.83028926909878
 51
7.0279656506032131
  0
LINE
  5
804
  8
0
 10
299.79660860696748
 20
283.49469521071069
 30
0.0
 11
299.62432749397499
 21
281.88231083099828
 31
0.0
  0
LINE
  5
807
  8
1
 10
250.0
 20
288.00000000000011
 30
0.0
 11
222.5
 21
335.63139720814451
 31
0.0
  0
LINE
  5
808
  8
1
 10
250.0
 20
288.00000000000011
 30
0.0
 11
222.5
 21
240.36860279185581
 31
0.0
  0
LINE
  5
85E
  8
2
 10
255.0530000000002
 20
127.0
 30
0.0
 11
250.0
 21
129.9173509102153
 31
0.0
  0
LINE
  5
85F
  8
2
 10
257.053
 20
105.0
 30
0.0
 11
255.05299999999991
 21
107.0
 31
0.0
  0
LINE
  5
860
  8
2
 10
256.00000000000028
 20
125.0
 30
0.0
 11
255.05300000000031
 21
126.6402521147677
 31
0.0
  0
LINE
  5
861
  8
2
 10
255.05299999999991
 20
107.0
 30
0.0
 11
255.0529999999998
 21
127.0
 31
0.0
  0
LINE
  5
862
  8
2
 10
256.0
 20
106.053
 30
0.0
 11
256.0
 21
125.0
 31
0.0
  0
LINE
  5
863
  8
2
 10
244.00000000000011
 20
106.053
 30
0.0
 11
244.00000000000011
 21
125.0
 31
0.0
  0
LINE
  5
864
  8
2
 10
244.94700000000009
 20
107.0
 30
0.0
 11
244.9470000000002
 21
127.0
 31
0.0
  0
LINE
  5
865
  8
2
 10
244.00000000000011
 20
125.0
 30
0.0
 11
256.0
 21
125.0
 31
0.0
  0
LINE
  5
866
  8
2
 10
244.9470000000002
 20
127.0
 30
0.0
 11
255.0529999999998
 21
127.0
 31
0.0
  0
LINE
  5
867
  8
2
 10
243.99999999999969
 20
125.0
 30
0.0
 11
244.94699999999969
 21
126.6402521147677
 31
0.0
  0
LINE
  5
868
  8
2
 10
255.053
 20
107.0
 30
0.0
 11
244.94700000000009
 21
107.0
 31
0.0
  0
LINE
  5
869
  8
2
 10
242.947
 20
105.0
 30
0.0
 11
244.94700000000009
 21
107.0
 31
0.0
  0
LINE
  5
86A
  8
2
 10
244.9469999999998
 20
127.0
 30
0.0
 11
250.0
 21
129.9173509102153
 31
0.0
  0
LINE
  5
86B
  8
2
 10
105.0530000000002
 20
127.0
 30
0.0
 11
100.0
 21
129.9173509102153
 31
0.0
  0
LINE
  5
86C
  8
2
 10
107.053
 20
105.0
 30
0.0
 11
105.0529999999999
 21
107.0
 31
0.0
  0
LINE
  5
86D
  8
2
 10
106.0000000000003
 20
125.0
 30
0.0
 11
105.0530000000003
 21
126.6402521147677
 31
0.0
  0
LINE
  5
86E
  8
2
 10
105.0529999999999
 20
107.0
 30
0.0
 11
105.0529999999997
 21
127.0
 31
0.0
  0
LINE
  5
86F
  8
2
 10
105.9999999999999
 20
106.053
 30
0.0
 11
105.9999999999999
 21
125.0
 31
0.0
  0
LINE
  5
870
  8
2
 10
94.000000000000057
 20
106.053
 30
0.0
 11
94.000000000000057
 21
125.0
 31
0.0
  0
LINE
  5
871
  8
2
 10
94.947000000000074
 20
107.0
 30
0.0
 11
94.94700000000023
 21
127.0
 31
0.0
  0
LINE
  5
872
  8
2
 10
94.000000000000057
 20
125.0
 30
0.0
 11
106.0
 21
125.0
 31
0.0
  0
LINE
  5
873
  8
2
 10
94.94700000000023
 20
127.0
 30
0.0
 11
105.0529999999997
 21
127.0
 31
0.0
  0
LINE
  5
874
  8
2
 10
93.999999999999716
 20
125.0
 30
0.0
 11
94.946999999999662
 21
126.6402521147677
 31
0.0
  0
LINE
  5
875
  8
2
 10
105.053
 20
107.0
 30
0.0
 11
94.947000000000074
 21
107.0
 31
0.0
  0
LINE
  5
876
  8
2
 10
92.947000000000003
 20
105.0
 30
0.0
 11
94.947000000000074
 21
107.0
 31
0.0
  0
LINE
  5
877
  8
2
 10
94.946999999999775
 20
127.0
 30
0.0
 11
100.0
 21
129.9173509102153
 31
0.0
  0
LINE
  5
878
  8
2
 10
405.05300000000011
 20
126.9999999999999
 30
0.0
 11
400.0
 21
129.91735091021519
 31
0.0
  0
LINE
  5
879
  8
2
 10
407.05299999999988
 20
104.9999999999999
 30
0.0
 11
405.053
 21
106.9999999999999
 31
0.0
  0
LINE
  5
87A
  8
2
 10
406.00000000000028
 20
124.9999999999999
 30
0.0
 11
405.05300000000028
 21
126.64025211476761
 31
0.0
  0
LINE
  5
87B
  8
2
 10
405.053
 20
106.9999999999999
 30
0.0
 11
405.05299999999971
 21
126.9999999999999
 31
0.0
  0
LINE
  5
87C
  8
2
 10
405.99999999999977
 20
106.0529999999999
 30
0.0
 11
405.99999999999977
 21
124.9999999999999
 31
0.0
  0
LINE
  5
87D
  8
2
 10
394.00000000000011
 20
106.0529999999999
 30
0.0
 11
394.00000000000011
 21
124.9999999999999
 31
0.0
  0
LINE
  5
87E
  8
2
 10
394.947
 20
106.9999999999999
 30
0.0
 11
394.94700000000029
 21
126.9999999999999
 31
0.0
  0
LINE
  5
87F
  8
2
 10
394.00000000000011
 20
124.9999999999999
 30
0.0
 11
406.0
 21
124.9999999999999
 31
0.0
  0
LINE
  5
880
  8
2
 10
394.94700000000029
 20
126.9999999999999
 30
0.0
 11
405.05299999999971
 21
126.9999999999999
 31
0.0
  0
LINE
  5
881
  8
2
 10
393.99999999999972
 20
124.9999999999999
 30
0.0
 11
394.94699999999972
 21
126.64025211476761
 31
0.0
  0
LINE
  5
882
  8
2
 10
405.053
 20
106.9999999999999
 30
0.0
 11
394.947
 21
106.9999999999999
 31
0.0
  0
LINE
  5
883
  8
2
 10
392.947
 20
104.9999999999999
 30
0.0
 11
394.947
 21
106.9999999999999
 31
0.0
  0
LINE
  5
884
  8
2
 10
394.94699999999978
 20
126.9999999999999
 30
0.0
 11
400.0
 21
129.91735091021519
 31
0.0
  0
LINE
  5
8D1
  8
0
 10
299.79660860697447
 20
144.12257007631601
 30
0.0
 11
299.624327494
 21
141.2468586391999
 31
0.0
  0
LINE
  5
8EE
  8
0
 10
78.165964511800041
 20
128.15332572469711
 30
0.0
 11
121.83403548819069
 21
128.15332572469711
 31
0.0
  0
LINE
  5
908
  8
0
 10
393.88231083090011
 20
141.2468586391999
 30
0.0
 11
395.49469521077327
 21
144.10656527255131
 31
0.0
  0
LINE
  5
917
  8
1
 10
250.0
 20
100.0
 30
0.0
 11
250.0
 21
152.99999999999989
 31
0.0
  0
LINE
  5
918
  8
1
 10
100.0
 20
100.0
 30
0.0
 11
100.0
 21
152.99999999999989
 31
0.0
  0
LINE
  5
919
  8
1
 10
400.0
 20
99.999999999999943
 30
0.0
 11
400.0
 21
152.99999999999989
 31
0.0
  0
LINE
  5
91A
  8
0
 10
391.42791383788989
 20
146.6013776699117
 30
0.0
 11
395.49469521083728
 21
144.10656527249989
 31
0.0
  0
ENDSEC
  0
EOF
