  0
SECTION
  2
HEADER
  9
$ACADVER
  1
AC1009
  9
$INSBASE
 10
0.0
 20
0.0
 30
0.0
  9
$EXTMIN
 10
-0.0005
 20
-2.960436562073669
 30
0.0
  9
$EXTMAX
 10
240.40811532788001
 20
248.79557317400969
 30
0.0
  9
$LIMMIN
 10
0.0
 20
0.0
  9
$LIMMAX
 10
385.0
 20
270.0
  9
$ORTHOMODE
 70
     1
  9
$REGENMODE
 70
     1
  9
$FILLMODE
 70
     1
  9
$QTEXTMODE
 70
     0
  9
$MIRRTEXT
 70
     0
  9
$DRAGMODE
 70
     2
  9
$LTSCALE
 40
10.0
  9
$OSMODE
 70
    55
  9
$ATTMODE
 70
     1
  9
$TEXTSIZE
 40
4.0
  9
$TRACEWID
 40
0.05
  9
$TEXTSTYLE
  7
STANDARD
  9
$CLAYER
  8
3
  9
$CELTYPE
  6
BYLAYER
  9
$CECOLOR
 62
   256
  9
$DIMSCALE
 40
1.0
  9
$DIMASZ
 40
3.0
  9
$DIMEXO
 40
1.0
  9
$DIMDLI
 40
6.0
  9
$DIMRND
 40
0.0
  9
$DIMDLE
 40
0.0
  9
$DIMEXE
 40
1.0
  9
$DIMTP
 40
495.0
  9
$DIMTM
 40
0.0
  9
$DIMTXT
 40
3.0
  9
$DIMCEN
 40
0.0
  9
$DIMTSZ
 40
0.0
  9
$DIMTOL
 70
     0
  9
$DIMLIM
 70
     0
  9
$DIMTIH
 70
     0
  9
$DIMTOH
 70
     0
  9
$DIMSE1
 70
     0
  9
$DIMSE2
 70
     0
  9
$DIMTAD
 70
     1
  9
$DIMZIN
 70
     8
  9
$DIMBLK
  1

  9
$DIMASO
 70
     1
  9
$DIMSHO
 70
     0
  9
$DIMPOST
  1

  9
$DIMAPOST
  1

  9
$DIMALT
 70
     0
  9
$DIMALTD
 70
     2
  9
$DIMALTF
 40
25.399999999999999
  9
$DIMLFAC
 40
1.0
  9
$DIMTOFL
 70
     1
  9
$DIMTVP
 40
0.0
  9
$DIMTIX
 70
     1
  9
$DIMSOXD
 70
     0
  9
$DIMSAH
 70
     0
  9
$DIMBLK1
  1

  9
$DIMBLK2
  1

  9
$DIMSTYLE
  2
STANDARD
  9
$DIMCLRD
 70
     0
  9
$DIMCLRE
 70
     0
  9
$DIMCLRT
 70
     4
  9
$DIMTFAC
 40
1.0
  9
$DIMGAP
 40
1.0
  9
$LUNITS
 70
     2
  9
$LUPREC
 70
     4
  9
$SKETCHINC
 40
0.1
  9
$FILLETRAD
 40
3.0
  9
$AUNITS
 70
     0
  9
$AUPREC
 70
     0
  9
$MENU
  1
E:\r13\win\SUPPORT\ACAD
  9
$ELEVATION
 40
0.0
  9
$PELEVATION
 40
0.0
  9
$THICKNESS
 40
0.0
  9
$LIMCHECK
 70
     0
  9
$BLIPMODE
 70
     0
  9
$CHAMFERA
 40
1.0
  9
$CHAMFERB
 40
1.0
  9
$SKPOLY
 70
     0
  9
$TDCREATE
 40
2450541.3939600689
  9
$TDUPDATE
 40
2456598.4231463079
  9
$TDINDWG
 40
0.1652293866
  9
$TDUSRTIMER
 40
0.1652293866
  9
$USRTIMER
 70
     1
  9
$ANGBASE
 50
0.0
  9
$ANGDIR
 70
     0
  9
$PDMODE
 70
     0
  9
$PDSIZE
 40
0.0
  9
$PLINEWID
 40
0.0
  9
$COORDS
 70
     1
  9
$SPLFRAME
 70
     0
  9
$SPLINETYPE
 70
     6
  9
$SPLINESEGS
 70
     8
  9
$ATTDIA
 70
     0
  9
$ATTREQ
 70
     1
  9
$HANDLING
 70
     1
  9
$HANDSEED
  5
16B2
  9
$SURFTAB1
 70
     6
  9
$SURFTAB2
 70
     6
  9
$SURFTYPE
 70
     6
  9
$SURFU
 70
     6
  9
$SURFV
 70
     6
  9
$UCSNAME
  2

  9
$UCSORG
 10
0.0
 20
0.0
 30
0.0
  9
$UCSXDIR
 10
1.0
 20
0.0
 30
0.0
  9
$UCSYDIR
 10
0.0
 20
1.0
 30
0.0
  9
$PUCSNAME
  2

  9
$PUCSORG
 10
0.0
 20
0.0
 30
0.0
  9
$PUCSXDIR
 10
1.0
 20
0.0
 30
0.0
  9
$PUCSYDIR
 10
0.0
 20
1.0
 30
0.0
  9
$USERI1
 70
     3
  9
$USERI2
 70
     1
  9
$USERI3
 70
     1
  9
$USERI4
 70
     0
  9
$USERI5
 70
     0
  9
$USERR1
 40
1.0
  9
$USERR2
 40
3.0
  9
$USERR3
 40
3.0
  9
$USERR4
 40
3.0
  9
$USERR5
 40
10.0
  9
$WORLDVIEW
 70
     1
  9
$SHADEDGE
 70
     3
  9
$SHADEDIF
 70
    70
  9
$TILEMODE
 70
     1
  9
$MAXACTVP
 70
    16
  9
$PLIMCHECK
 70
     0
  9
$PEXTMIN
 10
1.0000000000000000E+020
 20
1.0000000000000000E+020
 30
1.0000000000000000E+020
  9
$PEXTMAX
 10
-1.0000000000000000E+020
 20
-1.0000000000000000E+020
 30
-1.0000000000000000E+020
  9
$PLIMMIN
 10
0.0
 20
0.0
  9
$PLIMMAX
 10
12.0
 20
9.0
  9
$UNITMODE
 70
     0
  9
$VISRETAIN
 70
     0
  9
$PLINEGEN
 70
     0
  9
$PSLTSCALE
 70
     0
  0
ENDSEC
  0
SECTION
  2
TABLES
  0
TABLE
  2
VPORT
 70
     1
  0
VPORT
  2
*ACTIVE
 70
     0
 10
0.0
 20
0.0
 11
1.0
 21
1.0
 12
192.4938758067743
 22
197.0507704950987
 13
0.0
 23
0.0
 14
5.0
 24
5.0
 15
10.0
 25
10.0
 16
0.0
 26
0.0
 36
1.0
 17
0.0
 27
0.0
 37
0.0
 40
403.57390618763401
 41
1.7807262569832401
 42
50.0
 43
0.0
 44
0.0
 50
0.0
 51
0.0
 71
     0
 72
   100
 73
     1
 74
     0
 75
     0
 76
     0
 77
     0
 78
     0
  0
ENDTAB
  0
TABLE
  2
LTYPE
 70
     4
  0
LTYPE
  2
CONTINUOUS
 70
     0
  3
Solid Line
 72
    65
 73
     0
 40
0.0
  0
LTYPE
  2
CENTER
 70
     0
  3
____ _ ____ _ ____ _ ____ _ ____ _ ____ _ ____
 72
    65
 73
     4
 40
2.0
 49
1.25
 49
-0.25
 49
0.25
 49
-0.25
  0
LTYPE
  2
HIDDEN
 70
     0
  3
_ _ _ _ _ _ _ _ _ _ _ _ _ _ _ _ _ _ _ _ _ _ _
 72
    65
 73
     2
 40
0.375
 49
0.25
 49
-0.125
  0
LTYPE
  2
PHANTOM2
 70
     0
  3
___ _ _ ___ _ _ ___ _ _ ___ _ _
 72
    65
 73
     6
 40
1.25
 49
0.625
 49
-0.125
 49
0.125
 49
-0.125
 49
0.125
 49
-0.125
  0
ENDTAB
  0
TABLE
  2
LAYER
 70
     5
  0
LAYER
  2
0
 70
     0
 62
     7
  6
CONTINUOUS
  0
LAYER
  2
3
 70
     0
 62
     3
  6
CONTINUOUS
  0
LAYER
  2
ITTEN
 70
     0
 62
     1
  6
CENTER
  0
LAYER
  2
2
 70
     0
 62
     2
  6
HIDDEN
  0
LAYER
  2
1
 70
     0
 62
     1
  6
CENTER
  0
ENDTAB
  0
TABLE
  2
STYLE
 70
     2
  0
STYLE
  2
STANDARD
 70
     0
 40
0.0
 41
1.0
 50
0.0
 71
     0
 42
4.0
  3
simplex
  4
bigfont
  0
STYLE
  2
STANDARD1
 70
     0
 40
0.0
 41
1.0
 50
0.0
 71
     0
 42
3.0
  3
txt
  4

  0
ENDTAB
  0
TABLE
  2
VIEW
 70
     0
  0
ENDTAB
  0
TABLE
  2
UCS
 70
     0
  0
ENDTAB
  0
TABLE
  2
APPID
 70
    15
  0
APPID
  2
ACAD
 70
     0
  0
APPID
  2
ASM_BASE
 70
     0
  0
APPID
  2
ASM_EXPLO_VER_2_00
 70
     0
  0
APPID
  2
ASM_CADM_VER_12_00
 70
     0
  0
APPID
  2
ASM_BASEFORO
 70
     0
  0
APPID
  2
ASM_BASETRAVI
 70
     0
  0
APPID
  2
ASM_BASETRAVI1
 70
     0
  0
APPID
  2
ASM_GRUPPI
 70
     0
  0
APPID
  2
ASM_CADM_ALBERO
 70
     0
  0
APPID
  2
ASM_GOLE
 70
     0
  0
APPID
  2
ACAD_DSTYLE_DIMJAG
 70
     0
  0
APPID
  2
ACAD_DSTYLE_DIMTALN
 70
     0
  0
APPID
  2
ACAD_EXEMPT_FROM_CAD_STANDARDS
 70
     0
  0
APPID
  2
ACAD_MLEADERVER
 70
     0
  0
APPID
  2
ACAD_NAV_VCDISPLAY
 70
     0
  0
ENDTAB
  0
TABLE
  2
DIMSTYLE
 70
     1
  0
DIMSTYLE
  2
STANDARD
 70
     0
  3

  4

  5

  6

  7

 40
1.0
 41
0.18
 42
0.0625
 43
0.38
 44
0.18
 45
0.0
 46
0.0
 47
0.0
 48
0.0
140
0.18
141
0.09
142
0.0
143
25.399999999999999
144
1.0
145
0.0
146
1.0
147
0.09
 71
     0
 72
     0
 73
     1
 74
     1
 75
     0
 76
     0
 77
     0
 78
     0
170
     0
171
     2
172
     0
173
     0
174
     0
175
     0
176
     0
177
     0
178
     0
  0
ENDTAB
  0
ENDSEC
  0
SECTION
  2
BLOCKS
  0
BLOCK
  8
0
  2
$MODEL_SPACE
 70
     0
 10
0.0
 20
0.0
 30
0.0
  3
$MODEL_SPACE
  1

  0
ENDBLK
  5
134B
  8
0
  0
BLOCK
 67
     1
  8
0
  2
$PAPER_SPACE
 70
     0
 10
0.0
 20
0.0
 30
0.0
  3
$PAPER_SPACE
  1

  0
ENDBLK
  5
1349
 67
     1
  8
0
  0
BLOCK
  8
0
  2
BATU
 70
     0
 10
0.0
 20
0.0
 30
0.0
  3
BATU
  1

  0
LINE
  5
1354
  8
ITTEN
 10
0.5
 20
0.0
 30
0.0
 11
-0.5
 21
0.0
 31
0.0
  0
LINE
  5
1355
  8
ITTEN
 10
0.0
 20
0.5
 30
0.0
 11
0.0
 21
-0.5
 31
0.0
  0
ENDBLK
  5
1357
  8
0
  0
ENDSEC
  0
SECTION
  2
ENTITIES
  0
CIRCLE
  5
6E6
  8
0
 10
119.20458951468849
 20
140.3590748125909
 30
0.0
 40
12.25
  0
ARC
  5
6E7
  8
0
 10
119.20458951468861
 20
140.3590748125909
 30
0.0
 40
30.5
 50
323.26941551801502
 51
336.73058448198469
  0
ARC
  5
6E8
  8
0
 10
145.1254685054717
 20
128.5117952790788
 30
0.0
 40
3.0
 50
335.43697024808972
 51
45.56666666666694
  0
ARC
  5
6E9
  8
0
 10
119.20458951468861
 20
140.3590748125909
 30
0.0
 40
30.5
 50
203.26941551801511
 51
216.73058448198481
  0
ARC
  5
6EA
  8
0
 10
93.283710523905427
 20
128.51179527907871
 30
0.0
 40
3.0
 50
134.43333333333359
 51
204.56302975190999
  0
LINE
  5
6EB
  8
1
 10
119.20458951468849
 20
176.8590748125909
 30
0.0
 11
119.20458951468849
 21
114.62797212372379
 31
0.0
  0
LINE
  5
6EC
  8
0
 10
141.61999576222831
 20
120.944618319904
 30
0.0
 11
122.42490267312429
 21
126.291948760854
 31
0.0
  0
LINE
  5
6ED
  8
0
 10
142.04428938547289
 20
121.5705580923248
 30
0.0
 11
122.42490267312429
 21
127.03608739779411
 31
0.0
  0
ARC
  5
6EE
  8
0
 10
142.42507405183721
 20
123.8345748849065
 30
0.0
 40
3.0
 50
254.43333333333359
 51
324.56302975191011
  0
ARC
  5
6EF
  8
0
 10
119.20458951468861
 20
140.3590748125909
 30
0.0
 40
31.5
 50
324.56302975191028
 51
335.43697024808978
  0
ARC
  5
6F0
  8
0
 10
142.4468285302774
 20
123.015536374826
 30
0.0
 40
1.5
 50
254.43333333333351
 51
323.26941551801542
  0
LINE
  5
6F1
  8
0
 10
96.789183267149056
 20
120.94461831990409
 30
0.0
 11
115.98427635625281
 21
126.291948760854
 31
0.0
  0
LINE
  5
6F2
  8
0
 10
96.364889643904121
 20
121.5705580923248
 30
0.0
 11
115.98427635625281
 21
127.03608739779411
 31
0.0
  0
ARC
  5
6F3
  8
0
 10
119.20458951468849
 20
115.4762611377846
 30
0.0
 40
12.0
 50
74.43333333333328
 51
105.56666666666661
  0
ARC
  5
6F4
  8
0
 10
119.20458951468849
 20
114.7321225008445
 30
0.0
 40
12.0
 50
74.43333333333328
 51
105.56666666666671
  0
ARC
  5
6F5
  8
0
 10
95.984104977540085
 20
123.8345748849065
 30
0.0
 40
3.0
 50
215.43697024808961
 51
285.566666666667
  0
ARC
  5
6F6
  8
0
 10
95.962350499099614
 20
123.015536374826
 30
0.0
 40
1.5
 50
216.7305844819852
 51
285.56666666666661
  0
ARC
  5
6F7
  8
0
 10
119.20458951468861
 20
140.3590748125909
 30
0.0
 40
31.5
 50
204.56302975191019
 51
215.43697024808981
  0
LINE
  5
6F8
  8
0
 10
147.2257079125433
 20
130.6539891155459
 30
0.0
 11
132.99723655802279
 21
144.60376292813709
 31
0.0
  0
LINE
  5
6F9
  8
0
 10
146.89577222925999
 20
129.97357286981239
 30
0.0
 11
132.35279164942079
 21
144.23169551664259
 31
0.0
  0
LINE
  5
6FA
  8
1
 10
92.192183839804557
 20
140.3590748125909
 30
0.0
 11
145.7921770974111
 21
140.3590748125909
 31
0.0
  0
ARC
  5
6FB
  8
0
 10
145.8456539010993
 20
128.9024746031435
 30
0.0
 40
1.5
 50
336.73058448198532
 51
45.566666666666542
  0
LINE
  5
6FC
  8
0
 10
114.3531066709017
 20
169.53309347563561
 30
0.0
 11
109.27670053839211
 21
149.80944152333589
 31
0.0
  0
LINE
  5
6FD
  8
0
 10
124.0560723584755
 20
169.53309347563541
 30
0.0
 11
129.13247849098511
 21
149.80944152333589
 31
0.0
  0
LINE
  5
6FE
  8
0
 10
113.59888011512381
 20
169.478614305452
 30
0.0
 11
108.6322575748643
 21
150.18151084180599
 31
0.0
  0
LINE
  5
6FF
  8
0
 10
124.81029891425329
 20
169.4786143054522
 30
0.0
 11
129.77692145451269
 21
150.18151084180599
 31
0.0
  0
CIRCLE
  5
701
  8
0
 10
119.20458951468849
 20
140.3590748125909
 30
0.0
 40
6.4999999999999707
  0
CIRCLE
  5
702
  8
0
 10
119.20458951468849
 20
140.3590748125909
 30
0.0
 40
7.4999999999999849
  0
CIRCLE
  5
703
  8
0
 10
119.20458951468849
 20
140.3590748125909
 30
0.0
 40
11.25
  0
ARC
  5
705
  8
0
 10
140.7537382747056
 20
152.800481649994
 30
0.0
 40
12.0
 50
194.4333333333332
 51
225.56666666666669
  0
ARC
  5
706
  8
0
 10
141.39818123823329
 20
153.17255096846401
 30
0.0
 40
12.0
 50
194.43333333333311
 51
225.5666666666668
  0
ARC
  5
707
  8
0
 10
97.655440754671545
 20
152.80048164999411
 30
0.0
 40
12.0
 50
314.43333333333311
 51
345.56666666666672
  0
ARC
  5
708
  8
0
 10
97.010997791143794
 20
153.17255096846421
 30
0.0
 40
12.0
 50
314.43333333333328
 51
345.56666666666672
  0
LINE
  5
709
  8
0
 10
91.183473867584198
 20
130.65399181241651
 30
0.0
 11
105.4119444164286
 21
144.60376483511271
 31
0.0
  0
LINE
  5
70A
  8
0
 10
91.513406800117309
 20
129.97357286981261
 30
0.0
 11
106.05638737995631
 21
144.23169551664259
 31
0.0
  0
ARC
  5
70B
  8
0
 10
92.563525128277945
 20
128.9024746031437
 30
0.0
 40
1.5
 50
134.43333333333339
 51
203.26941551801539
  0
ARC
  5
70C
  8
0
 10
116.50419506105401
 20
168.73085427378749
 30
0.0
 40
3.0
 50
95.436970248089693
 51
165.56666666666689
  0
ARC
  5
70D
  8
0
 10
115.8057641438668
 20
169.1592134598032
 30
0.0
 40
1.5
 50
96.730584481985218
 51
165.56666666666649
  0
ARC
  5
70E
  8
0
 10
122.6034148855104
 20
169.15921345980311
 30
0.0
 40
1.5
 50
14.433333333333479
 51
83.269415518015393
  0
ARC
  5
70F
  8
0
 10
121.90498396832309
 20
168.73085427378771
 30
0.0
 40
3.0
 50
14.433333333333559
 51
84.563029751910065
  0
ARC
  5
710
  8
0
 10
119.20458951468849
 20
140.3590748125909
 30
0.0
 40
30.5
 50
83.269415518015066
 51
96.73058448198482
  0
ARC
  5
711
  8
0
 10
119.20458951468849
 20
140.3590748125909
 30
0.0
 40
31.5
 50
84.56302975191025
 51
95.436970248089764
  0
LINE
  5
712
  8
2
 10
210.40811532788001
 20
133.8590748125909
 30
0.0
 11
210.40811532788001
 21
137.4880779270718
 31
0.0
  0
LINE
  5
713
  8
2
 10
214.40811532788001
 20
146.8590748125909
 30
0.0
 11
214.40811532788001
 21
133.8590748125909
 31
0.0
  0
LINE
  5
714
  8
2
 10
235.4081153278801
 20
133.6710748125908
 30
0.0
 11
233.90811532788001
 21
135.1710748125908
 31
0.0
  0
LINE
  5
715
  8
2
 10
213.40811532788001
 20
147.85907481259099
 30
0.0
 11
213.40811532788001
 21
133.8590748125909
 31
0.0
  0
LINE
  5
716
  8
0
 10
235.10811532787989
 20
147.85907481259099
 30
0.0
 11
235.10811532787989
 21
132.8590748125909
 31
0.0
  0
LINE
  5
717
  8
0
 10
218.13564326284711
 20
129.23360375550519
 30
0.0
 11
224.00506370472829
 21
140.13786889215041
 31
0.0
  0
LINE
  5
718
  8
0
 10
224.4081153278799
 20
138.9015660152611
 30
0.0
 11
224.4081153278799
 21
127.77119581906641
 31
0.0
  0
LINE
  5
719
  8
0
 10
234.10811532787989
 20
126.8590748125909
 30
0.0
 11
234.10811532787989
 21
153.8590748125909
 31
0.0
  0
LINE
  5
71A
  8
0
 10
213.21979624370991
 20
145.3186888151514
 30
0.0
 11
207.6456114051158
 21
129.79442635581091
 31
0.0
  0
LINE
  5
71B
  8
0
 10
235.1081153278798
 20
152.8590748125911
 30
0.0
 11
235.10811532788
 21
127.8590748125909
 31
0.0
  0
LINE
  5
71C
  8
0
 10
235.40811532788001
 20
148.3590748125909
 30
0.0
 11
235.40811532788001
 21
132.3590748125909
 31
0.0
  0
LINE
  5
71E
  8
0
 10
208.5031025656435
 20
129.23360375550519
 30
0.0
 11
217.13564326284711
 21
129.23360375550519
 31
0.0
  0
LINE
  5
71F
  8
0
 10
209.9081153278799
 20
120.8345748849064
 30
0.0
 11
217.0544447157709
 21
120.8345748849064
 31
0.0
  0
LINE
  5
720
  8
2
 10
235.1081153278798
 20
132.3590748125909
 30
0.0
 11
213.90811532788001
 21
132.3590748125909
 31
0.0
  0
ARC
  5
721
  8
0
 10
225.12891435926409
 20
124.8590748125909
 30
0.0
 40
2.0
 50
90.000000000000057
 51
129.6382761649526
  0
LINE
  5
722
  8
0
 10
225.12891435926409
 20
126.8590748125909
 30
0.0
 11
234.10811532787989
 21
126.8590748125909
 31
0.0
  0
LINE
  5
723
  8
0
 10
234.10811532787989
 20
126.8590748125909
 30
0.0
 11
235.10811532788
 21
127.8590748125909
 31
0.0
  0
LINE
  5
724
  8
0
 10
235.10811532788
 20
132.3590748125909
 30
0.0
 11
235.40811532788001
 21
132.3590748125909
 31
0.0
  0
LINE
  5
725
  8
0
 10
218.96826047099071
 20
121.52431315621141
 30
0.0
 11
223.85303718911749
 21
126.3992492983876
 31
0.0
  0
LINE
  5
726
  8
0
 10
218.13564326284711
 20
128.23360375550519
 30
0.0
 11
218.13564326284711
 21
122.1520144248336
 31
0.0
  0
ARC
  5
727
  8
0
 10
217.0544447157709
 20
123.8345748849063
 30
0.0
 40
3.0
 50
269.99999999999977
 51
309.63827616495252
  0
LINE
  5
728
  8
2
 10
213.40811532788001
 20
132.8590748125909
 30
0.0
 11
213.90811532788001
 21
132.3590748125909
 31
0.0
  0
LINE
  5
729
  8
0
 10
207.40811532788001
 20
128.6245665023616
 30
0.0
 11
207.4081153278799
 21
123.3345748849064
 31
0.0
  0
ARC
  5
72A
  8
0
 10
209.9081153278799
 20
123.3345748849064
 30
0.0
 40
2.5
 50
180.0
 51
270.0
  0
ARC
  5
72B
  8
0
 10
210.40811532788001
 20
128.6245665023616
 30
0.0
 40
3.0
 50
157.0484073427611
 51
179.9999999999994
  0
LINE
  5
72C
  8
1
 10
201.4933007621573
 20
140.35907481259099
 30
0.0
 11
240.40811532788001
 21
140.35907481259099
 31
0.0
  0
LINE
  5
72D
  8
0
 10
208.94218950159089
 20
169.10025576748839
 30
0.0
 11
213.4452510088156
 21
148.5625506253497
 31
0.0
  0
LINE
  5
72E
  8
0
 10
223.4081153278799
 20
152.32996092217621
 30
0.0
 11
217.50289255728481
 21
169.42098702158691
 31
0.0
  0
LINE
  5
72F
  8
0
 10
207.4933007621573
 20
168.71202719983461
 30
0.0
 11
212.4941389404471
 21
146.31659423045861
 31
0.0
  0
LINE
  5
730
  8
0
 10
224.20576085738131
 20
154.359919702252
 30
0.0
 11
218.8936683391351
 21
169.9828969117109
 31
0.0
  0
LINE
  5
732
  8
0
 10
223.43006767575349
 20
147.0958839472633
 30
0.0
 11
224.3308025307328
 21
153.32445750401621
 31
0.0
  0
LINE
  5
733
  8
2
 10
234.72011532787991
 20
146.3590748125909
 30
0.0
 11
215.40811532788001
 21
146.3590748125909
 31
0.0
  0
LINE
  5
734
  8
2
 10
233.90811532788001
 20
145.54707481259101
 30
0.0
 11
215.40811532788001
 21
145.54707481259101
 31
0.0
  0
LINE
  5
735
  8
2
 10
235.10811532787989
 20
148.3590748125909
 30
0.0
 11
213.90811532788001
 21
148.3590748125909
 31
0.0
  0
LINE
  5
736
  8
2
 10
234.72011532787991
 20
134.3590748125909
 30
0.0
 11
215.40811532788001
 21
134.3590748125909
 31
0.0
  0
LINE
  5
737
  8
2
 10
233.90811532788001
 20
135.1710748125908
 30
0.0
 11
215.40811532788001
 21
135.1710748125908
 31
0.0
  0
LINE
  5
738
  8
2
 10
233.90811532788001
 20
140.3590748125909
 30
0.0
 11
233.90811532788001
 21
145.54707481259101
 31
0.0
  0
LINE
  5
739
  8
2
 10
233.90811532788001
 20
140.3590748125909
 30
0.0
 11
233.90811532788001
 21
135.1710748125908
 31
0.0
  0
LINE
  5
73A
  8
2
 10
235.4081153278801
 20
147.04707481259101
 30
0.0
 11
233.90811532788001
 21
145.54707481259101
 31
0.0
  0
LINE
  5
73B
  8
0
 10
235.10811532787989
 20
148.3590748125909
 30
0.0
 11
235.40811532788001
 21
148.3590748125909
 31
0.0
  0
LINE
  5
73C
  8
2
 10
215.40811532788001
 20
146.8590748125909
 30
0.0
 11
215.40811532788001
 21
133.8590748125909
 31
0.0
  0
LINE
  5
73D
  8
0
 10
224.2870709869278
 20
141.52406910696581
 30
0.0
 11
223.43266787863101
 21
146.79268218193491
 31
0.0
  0
ARC
  5
73E
  8
0
 10
222.31286201019759
 20
141.203914587713
 30
0.0
 40
2.0
 50
327.79007508113119
 51
9.2113806730761727
  0
LINE
  5
73F
  8
2
 10
214.40811532788001
 20
133.8590748125909
 30
0.0
 11
215.40811532788001
 21
133.8590748125909
 31
0.0
  0
ARC
  5
740
  8
0
 10
224.41977236699611
 20
146.95275944156131
 30
0.0
 40
1.0
 50
171.77131148582231
 51
189.21138067307609
  0
ARC
  5
741
  8
0
 10
208.6156223542074
 20
147.26845362025659
 30
0.0
 40
5.0
 50
337.04840734276132
 51
15.000000000000099
  0
LINE
  5
742
  8
2
 10
214.40811532788001
 20
146.8590748125909
 30
0.0
 11
215.40811532788001
 21
146.8590748125909
 31
0.0
  0
LINE
  5
743
  8
2
 10
213.9081153278799
 20
148.3590748125909
 30
0.0
 11
213.4081153278799
 21
147.85907481259099
 31
0.0
  0
ARC
  5
744
  8
0
 10
225.7571323615648
 20
155.8590748125909
 30
0.0
 40
2.0
 50
211.4366534772611
 51
270.0
  0
LINE
  5
745
  8
0
 10
225.7571323615648
 20
153.8590748125909
 30
0.0
 11
234.10811532787989
 21
153.8590748125909
 31
0.0
  0
LINE
  5
746
  8
0
 10
234.10811532787989
 20
153.8590748125909
 30
0.0
 11
235.10811532788
 21
152.8590748125909
 31
0.0
  0
ARC
  5
747
  8
0
 10
222.35139314824769
 20
153.61070651542019
 30
0.0
 40
2.0
 50
351.77131148582231
 51
21.99999999999968
  0
LINE
  5
748
  8
0
 10
210.40811532788001
 20
151.6090748125909
 30
0.0
 11
210.40811532788001
 21
137.48807792707191
 31
0.0
  0
LINE
  5
749
  8
0
 10
211.4081153278799
 20
140.27310621530791
 30
0.0
 11
211.4081153278799
 21
151.18017272495879
 31
0.0
  0
ARC
  5
74A
  8
0
 10
207.66450980900169
 20
145.02249900494601
 30
0.0
 40
5.0
 50
337.04840734276121
 51
15.000000000000099
  0
LINE
  5
74B
  8
0
 10
211.1472875650667
 20
152.34824704977771
 30
0.0
 11
210.40811532788001
 21
151.6090748125909
 31
0.0
  0
LINE
  5
74C
  8
0
 10
209.9081153278799
 20
171.8590748125909
 30
0.0
 11
216.11211537630439
 21
171.8590748125911
 31
0.0
  0
ARC
  5
74D
  8
0
 10
216.11211771231979
 20
168.8590748125911
 30
0.0
 40
3.0
 50
21.999999999999851
 51
90.000000000000327
  0
ARC
  5
74E
  8
0
 10
209.9081153278799
 20
169.3590748125909
 30
0.0
 40
2.5
 50
90.0
 51
194.9999999999994
  0
CIRCLE
  5
78E
  8
3
 10
119.20458951468849
 20
140.3590748125909
 30
0.0
 40
6.0
  0
CIRCLE
  5
78F
  8
0
 10
119.20458951468849
 20
140.3590748125909
 30
0.0
 40
5.052999999999999
  0
LINE
  5
7D7
  8
0
 10
209.9081153278799
 20
98.029640519265172
 30
0.0
 11
216.11211537630439
 21
98.029640519265286
 31
0.0
  0
LINE
  5
7DE
  8
1
 10
201.4933007621573
 20
69.108761528482091
 30
0.0
 11
240.40811532788001
 21
69.108761528482091
 31
0.0
  0
ARC
  5
807
  8
0
 10
209.9081153278799
 20
95.529640519265172
 30
0.0
 40
2.5
 50
90.0
 51
185.67443880589261
  0
LINE
  5
80E
  8
0
 10
210.40811532788001
 20
80.358761528482077
 30
0.0
 11
210.40811532788001
 21
69.108761528482091
 31
0.0
  0
LINE
  5
80F
  8
0
 10
211.4081153278799
 20
69.108761528482091
 30
0.0
 11
211.4081153278799
 21
79.65260637484576
 31
0.0
  0
LINE
  5
813
  8
0
 10
211.02996357433861
 20
80.980609774940689
 30
0.0
 11
210.40811532788001
 21
80.358761528482077
 31
0.0
  0
LINE
  5
818
  8
0
 10
223.4081153278799
 20
81.079647638067343
 30
0.0
 11
218.57873626941779
 21
93.330576889966892
 31
0.0
  0
LINE
  5
819
  8
0
 10
224.20576085738131
 20
83.10960641814313
 30
0.0
 11
218.8936683391351
 21
96.153462618385106
 31
0.0
  0
LINE
  5
81A
  8
0
 10
235.10811532787989
 20
76.608761528482091
 30
0.0
 11
235.10811532787989
 21
61.608761528482091
 31
0.0
  0
LINE
  5
81B
  8
0
 10
235.40811532788001
 20
77.108761528482091
 30
0.0
 11
235.40811532788001
 21
61.108761528482091
 31
0.0
  0
LINE
  5
81C
  8
2
 10
214.4081153278799
 20
75.608761528482091
 30
0.0
 11
214.40811532788001
 21
62.608761528482091
 31
0.0
  0
LINE
  5
81D
  8
0
 10
223.43006767575349
 20
75.845570663154433
 30
0.0
 11
224.3308025307328
 21
82.074144219907325
 31
0.0
  0
LINE
  5
81E
  8
2
 10
213.40811532788001
 20
76.608761528482091
 30
0.0
 11
213.40811532788001
 21
61.608761528482091
 31
0.0
  0
LINE
  5
820
  8
0
 10
234.10811532787989
 20
55.608761528482091
 30
0.0
 11
234.10811532787989
 21
82.608761528482106
 31
0.0
  0
LINE
  5
821
  8
0
 10
235.1081153278798
 20
81.608761528482205
 30
0.0
 11
235.10811532788
 21
56.608761528482091
 31
0.0
  0
LINE
  5
822
  8
0
 10
225.7571323615648
 20
55.608761528482091
 30
0.0
 11
234.10811532787989
 21
55.608761528482091
 31
0.0
  0
LINE
  5
823
  8
2
 10
235.1081153278798
 20
61.108761528482091
 30
0.0
 11
213.90811532788001
 21
61.108761528482091
 31
0.0
  0
LINE
  5
824
  8
2
 10
234.72011532787991
 20
63.108761528482091
 30
0.0
 11
215.40811532788001
 21
63.108761528482091
 31
0.0
  0
LINE
  5
825
  8
2
 10
233.90811532788001
 20
63.920761528481989
 30
0.0
 11
215.40811532788001
 21
63.920761528481989
 31
0.0
  0
LINE
  5
826
  8
2
 10
234.72011532787991
 20
75.108761528482034
 30
0.0
 11
215.40811532788001
 21
75.108761528482034
 31
0.0
  0
LINE
  5
827
  8
2
 10
233.90811532788001
 20
74.296761528482136
 30
0.0
 11
215.40811532788001
 21
74.296761528482136
 31
0.0
  0
LINE
  5
829
  8
2
 10
215.40811532788001
 20
75.608761528482091
 30
0.0
 11
215.40811532788001
 21
62.608761528482091
 31
0.0
  0
LINE
  5
82B
  8
2
 10
213.40811532788001
 20
61.608761528482091
 30
0.0
 11
213.90811532788001
 21
61.108761528482091
 31
0.0
  0
LINE
  5
82C
  8
2
 10
214.40811532788001
 20
62.608761528482091
 30
0.0
 11
215.40811532788001
 21
62.608761528482091
 31
0.0
  0
LINE
  5
82D
  8
2
 10
214.40811532788001
 20
75.608761528482091
 30
0.0
 11
215.40811532788001
 21
75.608761528482091
 31
0.0
  0
LINE
  5
82E
  8
0
 10
224.2870709869278
 20
70.27375582285697
 30
0.0
 11
223.43266787863101
 21
75.542368897826066
 31
0.0
  0
ARC
  5
82F
  8
0
 10
222.31286201019759
 20
69.95360130360416
 30
0.0
 40
2.0
 50
335.0125403571825
 51
9.2113806730761727
  0
ARC
  5
830
  8
0
 10
224.41977236699611
 20
75.702446157452471
 30
0.0
 40
1.0
 50
171.77131148582231
 51
189.21138067307609
  0
LINE
  5
831
  8
2
 10
233.90811532788001
 20
69.108761528482091
 30
0.0
 11
233.90811532788001
 21
63.920761528481989
 31
0.0
  0
LINE
  5
832
  8
2
 10
235.4081153278801
 20
62.420761528481933
 30
0.0
 11
233.90811532788001
 21
63.920761528481989
 31
0.0
  0
LINE
  5
833
  8
0
 10
234.10811532787989
 20
55.608761528482091
 30
0.0
 11
235.10811532788
 21
56.608761528482091
 31
0.0
  0
LINE
  5
834
  8
0
 10
235.10811532788
 20
61.108761528482091
 30
0.0
 11
235.40811532788001
 21
61.108761528482091
 31
0.0
  0
LINE
  5
835
  8
2
 10
235.4081153278801
 20
75.796761528482193
 30
0.0
 11
233.90811532788001
 21
74.296761528482136
 31
0.0
  0
LINE
  5
836
  8
2
 10
233.90811532788001
 20
69.108761528482091
 30
0.0
 11
233.90811532788001
 21
74.296761528482136
 31
0.0
  0
LINE
  5
837
  8
0
 10
225.7571323615648
 20
82.608761528482106
 30
0.0
 11
234.10811532787989
 21
82.608761528482106
 31
0.0
  0
LINE
  5
838
  8
2
 10
235.10811532787989
 20
77.108761528482091
 30
0.0
 11
213.90811532788001
 21
77.108761528482091
 31
0.0
  0
LINE
  5
839
  8
2
 10
213.9081153278799
 20
77.108761528482091
 30
0.0
 11
213.4081153278799
 21
76.608761528482091
 31
0.0
  0
ARC
  5
83A
  8
0
 10
225.7571323615648
 20
84.608761528482091
 30
0.0
 40
2.0
 50
201.99999999999969
 51
270.0
  0
ARC
  5
83B
  8
0
 10
222.35139314824769
 20
82.360393231311363
 30
0.0
 40
2.0
 50
351.77131148582231
 51
21.99999999999968
  0
LINE
  5
83C
  8
0
 10
234.10811532787989
 20
82.608761528482106
 30
0.0
 11
235.10811532788
 21
81.608761528482077
 31
0.0
  0
LINE
  5
83D
  8
0
 10
235.10811532787989
 20
77.108761528482091
 30
0.0
 11
235.40811532788001
 21
77.108761528482091
 31
0.0
  0
ARC
  5
83E
  8
0
 10
216.11211771231979
 20
95.029640519265286
 30
0.0
 40
3.0
 50
21.999999999999851
 51
90.000000000000327
  0
LINE
  5
841
  8
0
 10
208.6327697443725
 20
93.330576889966892
 30
0.0
 11
216.35472473206929
 21
93.330576889966892
 31
0.0
  0
LINE
  5
843
  8
0
 10
214.14384988696179
 20
70.045180884431915
 30
0.0
 11
207.64319220461019
 21
92.87436367723916
 31
0.0
  0
ARC
  5
845
  8
0
 10
210.4933007621573
 20
93.810783033188955
 30
0.0
 40
3.0
 50
179.99999999999889
 51
198.18823130521889
  0
LINE
  5
846
  8
0
 10
218.13564326284711
 20
96.322468541397029
 30
0.0
 11
218.13564326284711
 21
93.870429938072562
 31
0.0
  0
LINE
  5
847
  8
0
 10
208.6327697443725
 20
44.886946166997291
 30
0.0
 11
216.35472473206929
 21
44.886946166997291
 31
0.0
  0
LINE
  5
848
  8
0
 10
209.9081153278799
 20
40.187882537698997
 30
0.0
 11
216.11211537630439
 21
40.187882537698897
 31
0.0
  0
LINE
  5
84D
  8
0
 10
223.4081153278799
 20
57.13787541889684
 30
0.0
 11
218.57873626941779
 21
44.886946166997291
 31
0.0
  0
LINE
  5
84E
  8
0
 10
224.20576085738131
 20
55.107916638821052
 30
0.0
 11
218.8936683391351
 21
42.06406043857907
 31
0.0
  0
LINE
  5
84F
  8
0
 10
218.13564326284711
 20
41.895054515567153
 30
0.0
 11
218.13564326284711
 21
44.347093118891621
 31
0.0
  0
ARC
  5
850
  8
0
 10
216.11211771231979
 20
43.187882537698897
 30
0.0
 40
3.0
 50
269.99999999999972
 51
338.00000000000028
  0
ARC
  5
851
  8
0
 10
225.7571323615648
 20
53.608761528482091
 30
0.0
 40
2.0
 50
90.0
 51
158.0000000000004
  0
ARC
  5
852
  8
0
 10
222.35139314824769
 20
55.857129825652798
 30
0.0
 40
2.0
 50
338.00000000000051
 51
8.2286885141776818
  0
LINE
  5
853
  8
0
 10
224.2870709869278
 20
67.943767234107213
 30
0.0
 11
223.43266787863101
 21
62.675154159138117
 31
0.0
  0
ARC
  5
854
  8
0
 10
222.31286201019759
 20
68.263921753360023
 30
0.0
 40
2.0
 50
350.78861932692382
 51
24.987459642817569
  0
LINE
  5
855
  8
0
 10
223.43006767575349
 20
62.37195239380975
 30
0.0
 11
224.3308025307328
 21
56.143378837056837
 31
0.0
  0
ARC
  5
856
  8
0
 10
224.41977236699611
 20
62.515076899511712
 30
0.0
 40
1.0
 50
170.78861932692391
 51
188.22868851417769
  0
ARC
  5
857
  8
0
 10
211.29374132941479
 20
69.10876152848212
 30
0.0
 40
3.0
 50
341.81176869478099
 51
18.188231305219059
  0
LINE
  5
859
  8
0
 10
211.4081153278799
 20
69.108761528482091
 30
0.0
 11
211.4081153278799
 21
58.564916682118259
 31
0.0
  0
LINE
  5
85A
  8
0
 10
210.40811532788001
 20
57.858761528482091
 30
0.0
 11
210.40811532788001
 21
69.108761528482091
 31
0.0
  0
LINE
  5
85B
  8
0
 10
211.02996357433861
 20
57.236913282023473
 30
0.0
 11
210.40811532788001
 21
57.858761528482091
 31
0.0
  0
LINE
  5
85F
  8
0
 10
209.9081153278799
 20
248.79557317400969
 30
0.0
 11
216.02692994202701
 21
248.7955731740096
 31
0.0
  0
LINE
  5
863
  8
1
 10
201.4933007621573
 20
219.8746941832265
 30
0.0
 11
240.40811532788001
 21
219.87469418322641
 31
0.0
  0
LINE
  5
88C
  8
0
 10
210.40811532788001
 20
231.12469418322641
 30
0.0
 11
210.40811532788001
 21
226.8816422249663
 31
0.0
  0
LINE
  5
88D
  8
0
 10
211.4081153278799
 20
228.04727529417369
 30
0.0
 11
211.4081153278799
 21
232.12469418322641
 31
0.0
  0
LINE
  5
89E
  8
0
 10
223.9018770775148
 20
234.5035109086466
 30
0.0
 11
218.8084829048577
 21
246.9193952731294
 31
0.0
  0
ARC
  5
89F
  8
0
 10
216.02693227804249
 20
245.7955731740096
 30
0.0
 40
3.0
 50
21.999999999999449
 51
90.000000000000355
  0
LINE
  5
8A1
  8
0
 10
223.9018770775148
 20
205.2458774578063
 30
0.0
 11
218.8084829048577
 21
192.8299930933234
 31
0.0
  0
LINE
  5
8A5
  8
0
 10
235.1081153278798
 20
207.3746941832263
 30
0.0
 11
235.10811532788
 21
232.37469418322641
 31
0.0
  0
LINE
  5
8A6
  8
0
 10
234.10811532787989
 20
233.37469418322641
 30
0.0
 11
234.10811532787989
 21
206.37469418322641
 31
0.0
  0
LINE
  5
8A9
  8
0
 10
235.40811532788001
 20
211.87469418322641
 30
0.0
 11
235.40811532788001
 21
227.8746941832265
 31
0.0
  0
LINE
  5
8AA
  8
0
 10
235.10811532787989
 20
212.37469418322641
 30
0.0
 11
235.10811532787989
 21
227.37469418322641
 31
0.0
  0
LINE
  5
8AD
  8
0
 10
225.7021658604861
 20
233.3746941832265
 30
0.0
 11
234.10811532787989
 21
233.37469418322641
 31
0.0
  0
LINE
  5
8AE
  8
0
 10
223.67711064197829
 20
231.2802640680367
 30
0.0
 11
217.1503337539107
 21
246.91939295425729
 31
0.0
  0
LINE
  5
8B5
  8
0
 10
234.10811532787989
 20
233.37469418322641
 30
0.0
 11
235.10811532788
 21
232.37469418322641
 31
0.0
  0
LINE
  5
8B6
  8
0
 10
235.10811532788
 20
227.8746941832265
 30
0.0
 11
235.40811532788001
 21
227.8746941832265
 31
0.0
  0
LINE
  5
8B8
  8
0
 10
225.7021658604861
 20
206.37469418322641
 30
0.0
 11
234.10811532787989
 21
206.37469418322641
 31
0.0
  0
LINE
  5
8C8
  8
0
 10
234.10811532787989
 20
206.37469418322641
 30
0.0
 11
235.10811532788
 21
207.37469418322641
 31
0.0
  0
LINE
  5
8CA
  8
0
 10
235.10811532787989
 20
211.87469418322641
 30
0.0
 11
235.40811532788001
 21
211.87469418322641
 31
0.0
  0
ARC
  5
8CC
  8
0
 10
216.02693227804249
 20
193.95381519244319
 30
0.0
 40
3.0
 50
269.99999999999972
 51
338.00000000000028
  0
LINE
  5
8CD
  8
0
 10
209.9081153278799
 20
224.97469418322629
 30
0.0
 11
215.55045782856979
 21
224.97469418322629
 31
0.0
  0
LINE
  5
8CE
  8
0
 10
209.90811532788001
 20
214.7746941832263
 30
0.0
 11
215.55045782856979
 21
214.7746941832263
 31
0.0
  0
LINE
  5
8CF
  8
0
 10
207.40811532788001
 20
217.2746941832263
 30
0.0
 11
207.4081153278799
 21
222.47469418322629
 31
0.0
  0
LINE
  5
8D2
  8
0
 10
224.44812624628929
 20
231.2802640680367
 30
0.0
 11
224.44812624628929
 21
208.4691242984162
 31
0.0
  0
ARC
  5
8D4
  8
0
 10
225.7021658604861
 20
235.3746941832265
 30
0.0
 40
2.0
 50
205.82294665193169
 51
269.99999999999977
  0
ARC
  5
8D5
  8
0
 10
225.7021658604861
 20
204.37469418322641
 30
0.0
 40
2.0
 50
90.0
 51
154.17705334806831
  0
LINE
  5
8D6
  8
0
 10
224.1052327836054
 20
231.28026406803659
 30
0.0
 11
224.3308025307328
 21
232.84007687465169
 31
0.0
  0
ARC
  5
8D7
  8
0
 10
222.35139314824769
 20
233.1263258860557
 30
0.0
 40
2.0
 50
351.77131148582231
 51
21.99999999999968
  0
LINE
  5
8E0
  8
0
 10
218.05045782856979
 20
217.2746941832263
 30
0.0
 11
218.05045782856979
 21
222.47469418322629
 31
0.0
  0
LINE
  5
8E2
  8
0
 10
224.44812624628929
 20
231.2802640680367
 30
0.0
 11
218.05045782856979
 21
224.9746941832264
 31
0.0
  0
ARC
  5
8E9
  8
0
 10
215.55045782856979
 20
222.47469418322629
 30
0.0
 40
2.5
 50
0.0
 51
89.999999999999943
  0
ARC
  5
8EA
  8
0
 10
215.55045782856979
 20
217.2746941832263
 30
0.0
 40
2.5
 50
269.99999999999989
 51
0.0
  0
ARC
  5
8EB
  8
0
 10
209.90811532788001
 20
217.2746941832263
 30
0.0
 40
2.5
 50
180.0
 51
269.99999999999989
  0
ARC
  5
8EC
  8
0
 10
209.9081153278799
 20
222.47469418322629
 30
0.0
 40
2.5
 50
89.999999999999915
 51
180.00000000000011
  0
LINE
  5
8ED
  8
0
 10
212.81108191266779
 20
229.68261954039559
 30
0.0
 11
208.16386068440161
 21
224.26566479680551
 31
0.0
  0
LINE
  5
8EE
  8
0
 10
212.8110819126679
 20
210.0667688260572
 30
0.0
 11
208.16386068440161
 21
215.4837235696474
 31
0.0
  0
ARC
  5
8F1
  8
0
 10
209.9081153278799
 20
246.2955731740096
 30
0.0
 40
2.5
 50
90.0
 51
204.4350371961753
  0
LINE
  5
8F2
  8
0
 10
207.63203814981659
 20
245.26142005212719
 30
0.0
 11
213.34307562857711
 21
233.28397356452629
 31
0.0
  0
ARC
  5
8F3
  8
0
 10
209.9081153278799
 20
193.45381519244319
 30
0.0
 40
2.5
 50
155.5649628038266
 51
270.0
  0
LINE
  5
8F4
  8
0
 10
207.63203814981659
 20
194.48796831432571
 30
0.0
 11
213.34307562857711
 21
206.46541480192661
 31
0.0
  0
LINE
  5
8F5
  8
0
 10
209.9081153278799
 20
190.95381519244319
 30
0.0
 11
216.02692994202701
 21
190.95381519244319
 31
0.0
  0
ARC
  5
8F6
  8
0
 10
210.71797634049381
 20
231.8317842766906
 30
0.0
 40
3.0
 50
314.24291326695538
 51
28.951107226432551
  0
ARC
  5
8F7
  8
0
 10
210.71797634049381
 20
207.91760408976219
 30
0.0
 40
3.0
 50
331.04889277356739
 51
45.757086733044581
  0
LINE
  5
8F9
  8
0
 10
211.40811532788001
 20
232.12469418322641
 30
0.0
 11
213.70364272953549
 21
232.12469418322641
 31
0.0
  0
LINE
  5
8FA
  8
0
 10
211.40811532788001
 20
232.12469418322641
 30
0.0
 11
210.40811532788001
 21
231.12469418322641
 31
0.0
  0
LINE
  5
8FD
  8
0
 10
210.40811532788001
 20
208.6246941832265
 30
0.0
 11
210.40811532788001
 21
212.86774614148661
 31
0.0
  0
LINE
  5
8FE
  8
0
 10
211.4081153278799
 20
211.7021130722791
 30
0.0
 11
211.4081153278799
 21
207.6246941832265
 31
0.0
  0
LINE
  5
8FF
  8
0
 10
211.40811532788001
 20
207.6246941832265
 30
0.0
 11
213.70364272953549
 21
207.62469418322641
 31
0.0
  0
LINE
  5
900
  8
0
 10
211.40811532788001
 20
207.6246941832265
 30
0.0
 11
210.40811532788001
 21
208.6246941832265
 31
0.0
  0
LINE
  5
902
  8
0
 10
223.67711064197829
 20
208.4691242984162
 30
0.0
 11
217.1503337539107
 21
192.8299954121955
 31
0.0
  0
LINE
  5
124F
  8
0
 10
207.40811532788001
 20
66.508761528481955
 30
0.0
 11
207.4081153278799
 21
71.708761528482
 31
0.0
  0
ARC
  5
1250
  8
0
 10
209.9081153278799
 20
71.708761528482
 30
0.0
 40
2.5
 50
134.24291326695541
 51
180.00000000000011
  0
LINE
  5
1251
  8
0
 10
210.40811532788001
 20
76.576399673867684
 30
0.0
 11
208.16386068440161
 21
73.499732142061163
 31
0.0
  0
INSERT
  5
1358
  8
3
  2
BATU
 10
0.0
 20
0.0
 30
0.0
 41
0.001
 42
0.001
 43
0.001
  0
LINE
  5
135B
  8
2
 10
210.40811532788001
 20
133.8590748125909
 30
0.0
 11
214.40811532788001
 21
133.8590748125909
 31
0.0
  0
LINE
  5
135D
  8
2
 10
210.40811532788001
 20
146.8590748125909
 30
0.0
 11
214.40811532788001
 21
146.8590748125909
 31
0.0
  0
LINE
  5
1360
  8
2
 10
210.40811532788001
 20
62.608761528482098
 30
0.0
 11
214.40811532788001
 21
62.608761528482091
 31
0.0
  0
LINE
  5
1361
  8
2
 10
210.40811532788001
 20
75.608761528482091
 30
0.0
 11
214.40811532788001
 21
75.608761528482091
 31
0.0
  0
LINE
  5
1487
  8
0
 10
207.4203658774826
 20
95.282450972464147
 30
0.0
 11
207.49330076215719
 21
93.81078303318904
 31
0.0
  0
ARC
  5
148F
  8
0
 10
209.9081153278799
 20
42.687882537698997
 30
0.0
 40
2.5
 50
174.325561194107
 51
270.0
  0
LINE
  5
1490
  8
0
 10
214.14384988696179
 20
68.172342172532254
 30
0.0
 11
207.64319220461019
 21
45.343159379725023
 31
0.0
  0
ARC
  5
1491
  8
0
 10
210.4933007621573
 20
44.406740023775221
 30
0.0
 40
3.0
 50
161.81176869478139
 51
180.00000000000159
  0
LINE
  5
1492
  8
0
 10
207.4203658774826
 20
42.935072084500028
 30
0.0
 11
207.49330076215719
 21
44.406740023775143
 31
0.0
  0
LINE
  5
153D
  8
0
 10
212.26868301360869
 20
143.07273258253051
 30
0.0
 11
211.43898345142691
 21
140.35907481259099
 31
0.0
  0
ARC
  5
153E
  8
0
 10
209.9081153278799
 20
66.508761528482182
 30
0.0
 40
2.5
 50
180.0
 51
225.7570867330443
  0
LINE
  5
153F
  8
0
 10
210.40811532788001
 20
61.641123383096492
 30
0.0
 11
208.16386068440161
 21
64.71779091490302
 31
0.0
  0
LINE
  5
1540
  8
0
 10
224.1052327836054
 20
208.46912429841629
 30
0.0
 11
224.3308025307328
 21
206.90931149180119
 31
0.0
  0
ARC
  5
1541
  8
0
 10
222.35139314824769
 20
206.62306248039721
 30
0.0
 40
2.0
 50
337.99999999999892
 51
8.2286885141761896
  0
LINE
  5
1542
  8
0
 10
224.44812624628929
 20
208.4691242984162
 30
0.0
 11
218.05045782856979
 21
214.7746941832265
 31
0.0
  0
LINE
  5
158F
  8
2
 10
210.40811532788001
 20
213.37469418322641
 30
0.0
 11
214.40811532788001
 21
213.37469418322641
 31
0.0
  0
LINE
  5
1590
  8
2
 10
211.4081153278799
 20
219.87469418322641
 30
0.0
 11
211.4081153278799
 21
211.7021130722791
 31
0.0
  0
LINE
  5
1591
  8
2
 10
210.40811532788001
 20
212.86774614148661
 30
0.0
 11
210.40811532788001
 21
219.87469418322641
 31
0.0
  0
LINE
  5
1592
  8
2
 10
235.4081153278801
 20
226.5626941832266
 30
0.0
 11
233.90811532788001
 21
225.06269418322651
 31
0.0
  0
LINE
  5
1593
  8
2
 10
215.40811532788001
 20
213.37469418322641
 30
0.0
 11
215.40811532788001
 21
226.37469418322641
 31
0.0
  0
LINE
  5
1594
  8
2
 10
213.4081153278799
 20
212.37469418322641
 30
0.0
 11
213.40811532788001
 21
227.37469418322641
 31
0.0
  0
LINE
  5
1595
  8
2
 10
214.40811532788001
 20
213.37469418322641
 30
0.0
 11
214.40811532788001
 21
226.37469418322641
 31
0.0
  0
LINE
  5
1596
  8
2
 10
234.72011532787991
 20
225.87469418322641
 30
0.0
 11
215.40811532788001
 21
225.87469418322641
 31
0.0
  0
LINE
  5
1597
  8
2
 10
235.1081153278798
 20
227.8746941832265
 30
0.0
 11
213.90811532788001
 21
227.8746941832265
 31
0.0
  0
LINE
  5
1598
  8
2
 10
214.40811532788001
 20
226.37469418322641
 30
0.0
 11
215.40811532788001
 21
226.37469418322641
 31
0.0
  0
LINE
  5
1599
  8
2
 10
213.40811532788001
 20
227.37469418322641
 30
0.0
 11
213.90811532788001
 21
227.8746941832265
 31
0.0
  0
LINE
  5
159A
  8
2
 10
235.10811532787989
 20
211.87469418322641
 30
0.0
 11
213.90811532788001
 21
211.87469418322641
 31
0.0
  0
LINE
  5
159B
  8
2
 10
233.90811532788001
 20
214.68669418322639
 30
0.0
 11
215.40811532788001
 21
214.68669418322639
 31
0.0
  0
LINE
  5
159C
  8
2
 10
234.72011532787991
 20
213.8746941832265
 30
0.0
 11
215.40811532788001
 21
213.8746941832265
 31
0.0
  0
LINE
  5
159D
  8
2
 10
233.90811532788001
 20
225.06269418322651
 30
0.0
 11
215.40811532788001
 21
225.06269418322651
 31
0.0
  0
LINE
  5
159E
  8
2
 10
213.9081153278799
 20
211.87469418322641
 30
0.0
 11
213.4081153278799
 21
212.37469418322641
 31
0.0
  0
LINE
  5
159F
  8
2
 10
214.40811532788001
 20
213.37469418322641
 30
0.0
 11
215.40811532788001
 21
213.37469418322641
 31
0.0
  0
LINE
  5
15A0
  8
2
 10
233.90811532788001
 20
219.87469418322641
 30
0.0
 11
233.90811532788001
 21
214.68669418322639
 31
0.0
  0
LINE
  5
15A1
  8
2
 10
233.90811532788001
 20
219.87469418322641
 30
0.0
 11
233.90811532788001
 21
225.06269418322651
 31
0.0
  0
LINE
  5
15A2
  8
2
 10
235.4081153278801
 20
213.18669418322631
 30
0.0
 11
233.90811532788001
 21
214.68669418322639
 31
0.0
  0
LINE
  5
15A3
  8
2
 10
210.40811532788001
 20
226.8816422249663
 30
0.0
 11
210.40811532788001
 21
219.87469418322641
 31
0.0
  0
LINE
  5
15A4
  8
2
 10
211.4081153278799
 20
219.87469418322641
 30
0.0
 11
211.4081153278799
 21
228.04727529417369
 31
0.0
  0
LINE
  5
15A5
  8
2
 10
210.40811532788001
 20
226.37469418322641
 30
0.0
 11
214.40811532788001
 21
226.37469418322641
 31
0.0
  0
TEXT
  5
164F
  8
0
 62
     3
 10
0.0
 20
0.0
 30
0.0
 40
10.0
  1
TAK60NTA
  7
STANDARD1
  0
ENDSEC
  0
EOF
