  0
SECTION
  2
HEADER
  9
$ACADVER
  1
AC1009
  9
$INSBASE
 10
0.0
 20
0.0
 30
0.0
  9
$EXTMIN
 10
0.0
 20
-2.960436562073669
 30
0.0
  9
$EXTMAX
 10
329.90642063138932
 20
226.39927455331781
 30
0.0
  9
$LIMMIN
 10
0.0
 20
0.0
  9
$LIMMAX
 10
279.39999999999998
 20
215.90000000000001
  9
$ORTHOMODE
 70
     1
  9
$REGENMODE
 70
     1
  9
$FILLMODE
 70
     1
  9
$QTEXTMODE
 70
     0
  9
$MIRRTEXT
 70
     1
  9
$DRAGMODE
 70
     2
  9
$LTSCALE
 40
1.0
  9
$OSMODE
 70
    55
  9
$ATTMODE
 70
     1
  9
$TEXTSIZE
 40
2.5
  9
$TRACEWID
 40
1.0
  9
$TEXTSTYLE
  7
STANDARD
  9
$CLAYER
  8
0
  9
$CELTYPE
  6
BYLAYER
  9
$CECOLOR
 62
   256
  9
$DIMSCALE
 40
1.0
  9
$DIMASZ
 40
5.0
  9
$DIMEXO
 40
0.5
  9
$DIMDLI
 40
1.0
  9
$DIMRND
 40
0.0
  9
$DIMDLE
 40
0.0
  9
$DIMEXE
 40
0.5
  9
$DIMTP
 40
0.0
  9
$DIMTM
 40
0.0
  9
$DIMTXT
 40
3.5
  9
$DIMCEN
 40
2.5
  9
$DIMTSZ
 40
0.0
  9
$DIMTOL
 70
     0
  9
$DIMLIM
 70
     0
  9
$DIMTIH
 70
     0
  9
$DIMTOH
 70
     0
  9
$DIMSE1
 70
     0
  9
$DIMSE2
 70
     0
  9
$DIMTAD
 70
     1
  9
$DIMZIN
 70
     8
  9
$DIMBLK
  1

  9
$DIMASO
 70
     1
  9
$DIMSHO
 70
     1
  9
$DIMPOST
  1

  9
$DIMAPOST
  1

  9
$DIMALT
 70
     0
  9
$DIMALTD
 70
     3
  9
$DIMALTF
 40
0.0393700787401575
  9
$DIMLFAC
 40
1.0
  9
$DIMTOFL
 70
     1
  9
$DIMTVP
 40
0.0
  9
$DIMTIX
 70
     0
  9
$DIMSOXD
 70
     0
  9
$DIMSAH
 70
     0
  9
$DIMBLK1
  1

  9
$DIMBLK2
  1

  9
$DIMSTYLE
  2
ISO-25
  9
$DIMCLRD
 70
     0
  9
$DIMCLRE
 70
     0
  9
$DIMCLRT
 70
     0
  9
$DIMTFAC
 40
1.0
  9
$DIMGAP
 40
0.5
  9
$LUNITS
 70
     2
  9
$LUPREC
 70
     2
  9
$SKETCHINC
 40
1.0
  9
$FILLETRAD
 40
10.0
  9
$AUNITS
 70
     0
  9
$AUPREC
 70
     0
  9
$MENU
  1
.
  9
$ELEVATION
 40
0.0
  9
$PELEVATION
 40
0.0
  9
$THICKNESS
 40
0.0
  9
$LIMCHECK
 70
     0
  9
$BLIPMODE
 70
     0
  9
$CHAMFERA
 40
10.0
  9
$CHAMFERB
 40
10.0
  9
$SKPOLY
 70
     0
  9
$TDCREATE
 40
2454456.559420452
  9
$TDUPDATE
 40
2456598.4228709601
  9
$TDINDWG
 40
0.167009375
  9
$TDUSRTIMER
 40
0.167009375
  9
$USRTIMER
 70
     1
  9
$ANGBASE
 50
0.0
  9
$ANGDIR
 70
     0
  9
$PDMODE
 70
     0
  9
$PDSIZE
 40
-1.0
  9
$PLINEWID
 40
0.0
  9
$COORDS
 70
     1
  9
$SPLFRAME
 70
     0
  9
$SPLINETYPE
 70
     6
  9
$SPLINESEGS
 70
     8
  9
$ATTDIA
 70
     0
  9
$ATTREQ
 70
     1
  9
$HANDLING
 70
     1
  9
$HANDSEED
  5
154D
  9
$SURFTAB1
 70
     6
  9
$SURFTAB2
 70
     6
  9
$SURFTYPE
 70
     6
  9
$SURFU
 70
     6
  9
$SURFV
 70
     6
  9
$UCSNAME
  2

  9
$UCSORG
 10
0.0
 20
0.0
 30
0.0
  9
$UCSXDIR
 10
1.0
 20
0.0
 30
0.0
  9
$UCSYDIR
 10
0.0
 20
1.0
 30
0.0
  9
$PUCSNAME
  2

  9
$PUCSORG
 10
0.0
 20
0.0
 30
0.0
  9
$PUCSXDIR
 10
1.0
 20
0.0
 30
0.0
  9
$PUCSYDIR
 10
0.0
 20
1.0
 30
0.0
  9
$USERI1
 70
     0
  9
$USERI2
 70
     0
  9
$USERI3
 70
     0
  9
$USERI4
 70
     0
  9
$USERI5
 70
     0
  9
$USERR1
 40
0.0
  9
$USERR2
 40
0.0
  9
$USERR3
 40
0.0
  9
$USERR4
 40
0.0
  9
$USERR5
 40
0.0
  9
$WORLDVIEW
 70
     1
  9
$SHADEDGE
 70
     3
  9
$SHADEDIF
 70
    70
  9
$TILEMODE
 70
     1
  9
$MAXACTVP
 70
    64
  9
$PLIMCHECK
 70
     0
  9
$PEXTMIN
 10
1.0000000000000000E+020
 20
1.0000000000000000E+020
 30
1.0000000000000000E+020
  9
$PEXTMAX
 10
-1.0000000000000000E+020
 20
-1.0000000000000000E+020
 30
-1.0000000000000000E+020
  9
$PLIMMIN
 10
0.0
 20
0.0
  9
$PLIMMAX
 10
420.0
 20
297.0
  9
$UNITMODE
 70
     0
  9
$VISRETAIN
 70
     1
  9
$PLINEGEN
 70
     0
  9
$PSLTSCALE
 70
     1
  0
ENDSEC
  0
SECTION
  2
TABLES
  0
TABLE
  2
VPORT
 70
     1
  0
VPORT
  2
*ACTIVE
 70
     0
 10
0.0
 20
0.0
 11
1.0
 21
1.0
 12
164.95321108381779
 22
165.11073598206769
 13
0.0
 23
0.0
 14
10.0
 24
10.0
 15
10.0
 25
10.0
 16
0.0
 26
0.0
 36
1.0
 17
0.0
 27
0.0
 37
0.0
 40
339.10219000335121
 41
1.7807262569832401
 42
50.0
 43
0.0
 44
0.0
 50
0.0
 51
0.0
 71
     0
 72
  2000
 73
     1
 74
     3
 75
     0
 76
     0
 77
     0
 78
     0
  0
ENDTAB
  0
TABLE
  2
LTYPE
 70
     2
  0
LTYPE
  2
CONTINUOUS
 70
     0
  3
Solid line
 72
    65
 73
     0
 40
0.0
  0
LTYPE
  2
CENTER
 70
     0
  3
____ _ ____ _ ____ _ ____ _ ____ _ ____ _ ____
 72
    65
 73
     4
 40
2.0
 49
1.25
 49
-0.25
 49
0.25
 49
-0.25
  0
ENDTAB
  0
TABLE
  2
LAYER
 70
     4
  0
LAYER
  2
0
 70
     0
 62
     7
  6
CONTINUOUS
  0
LAYER
  2
DEFPOINTS
 70
     0
 62
     7
  6
CONTINUOUS
  0
LAYER
  2
3
 70
     0
 62
     3
  6
CONTINUOUS
  0
LAYER
  2
1
 70
     0
 62
     1
  6
CENTER
  0
ENDTAB
  0
TABLE
  2
STYLE
 70
     2
  0
STYLE
  2
STANDARD
 70
     0
 40
0.0
 41
1.0
 50
0.0
 71
     0
 42
2.5
  3
txt
  4
bigfont
  0
STYLE
  2
STANDARD1
 70
     0
 40
0.0
 41
1.0
 50
0.0
 71
     0
 42
3.0
  3
txt
  4

  0
ENDTAB
  0
TABLE
  2
VIEW
 70
     0
  0
ENDTAB
  0
TABLE
  2
UCS
 70
     0
  0
ENDTAB
  0
TABLE
  2
APPID
 70
     3
  0
APPID
  2
ACAD
 70
     0
  0
APPID
  2
ACAD_MLEADERVER
 70
     0
  0
APPID
  2
ACAD_NAV_VCDISPLAY
 70
     0
  0
ENDTAB
  0
TABLE
  2
DIMSTYLE
 70
     2
  0
DIMSTYLE
  2
ISO-25
 70
     0
  3

  4

  5

  6

  7

 40
1.0
 41
2.5
 42
0.625
 43
3.75
 44
1.25
 45
0.0
 46
0.0
 47
0.0
 48
0.0
140
2.5
141
2.5
142
0.0
143
0.03937007874016
144
1.0
145
0.0
146
1.0
147
0.625
 71
     0
 72
     0
 73
     0
 74
     0
 75
     0
 76
     0
 77
     1
 78
     8
170
     0
171
     3
172
     1
173
     0
174
     0
175
     0
176
     0
177
     0
178
     0
  0
DIMSTYLE
  2
STANDARD
 70
     0
  3

  4

  5

  6

  7

 40
1.0
 41
0.18
 42
0.0625
 43
0.38
 44
0.18
 45
0.0
 46
0.0
 47
0.0
 48
0.0
140
0.18
141
0.09
142
0.0
143
25.399999999999999
144
1.0
145
0.0
146
1.0
147
0.09
 71
     0
 72
     0
 73
     1
 74
     1
 75
     0
 76
     0
 77
     0
 78
     0
170
     0
171
     2
172
     0
173
     0
174
     0
175
     0
176
     0
177
     0
178
     0
  0
ENDTAB
  0
ENDSEC
  0
SECTION
  2
BLOCKS
  0
BLOCK
  8
0
  2
$MODEL_SPACE
 70
     0
 10
0.0
 20
0.0
 30
0.0
  3
$MODEL_SPACE
  1

  0
ENDBLK
  5
21
  8
0
  0
BLOCK
 67
     1
  8
0
  2
$PAPER_SPACE
 70
     0
 10
0.0
 20
0.0
 30
0.0
  3
$PAPER_SPACE
  1

  0
ENDBLK
  5
1D
 67
     1
  8
0
  0
ENDSEC
  0
SECTION
  2
ENTITIES
  0
LINE
  5
76B
  8
0
 10
51.943020863810709
 20
52.378947209803727
 30
0.0
 11
51.943020863810709
 21
54.685784798352387
 31
0.0
  0
LINE
  5
76D
  8
0
 10
63.490026366317799
 20
52.378947209803727
 30
0.0
 11
63.490026366317799
 21
54.685784798352387
 31
0.0
  0
LINE
  5
773
  8
0
 10
60.603274699652722
 20
54.685784798352387
 30
0.0
 11
60.603274699652722
 21
52.378947209803727
 31
0.0
  0
LINE
  5
775
  8
0
 10
54.829772297645142
 20
52.378947209803727
 30
0.0
 11
54.829772297645142
 21
54.685784798352387
 31
0.0
  0
LINE
  5
776
  8
0
 10
62.716523852551532
 20
51.932364996759567
 30
0.0
 11
52.71652361040767
 21
51.93236499675956
 31
0.0
  0
LINE
  5
77F
  8
0
 10
63.716524016464291
 20
56.732366156069901
 30
0.0
 11
51.716523679325512
 21
56.732366156069901
 31
0.0
  0
LINE
  5
780
  8
0
 10
63.716524016464291
 20
56.732366156069901
 30
0.0
 11
63.716524016464291
 21
55.132365148751397
 31
0.0
  0
LINE
  5
781
  8
0
 10
51.716523679325512
 20
55.132365148751397
 30
0.0
 11
51.716523679325512
 21
56.732366156069901
 31
0.0
  0
LINE
  5
782
  8
0
 10
51.716523679325512
 20
55.132365148751397
 30
0.0
 11
63.716524016464291
 21
55.132365148751397
 31
0.0
  0
LINE
  5
78F
  8
0
 10
85.716522034609852
 20
117.2605495119974
 30
0.0
 11
85.716522034609852
 21
61.232365962354798
 31
0.0
  0
LINE
  5
791
  8
0
 10
49.716523584316967
 20
117.2605495119974
 30
0.0
 11
49.716523584316967
 21
61.232365962354798
 31
0.0
  0
LINE
  5
793
  8
0
 10
50.716523631828061
 20
61.232365962354798
 30
0.0
 11
50.716523631828068
 21
106.6915284062311
 31
0.0
  0
LINE
  5
794
  8
0
 10
85.716522034609852
 20
61.232365962354798
 30
0.0
 11
49.716523584316967
 21
61.232365962354791
 31
0.0
  0
LINE
  5
795
  8
0
 10
84.716523733342214
 20
106.6915284062311
 30
0.0
 11
84.716523733342214
 21
61.232365962354798
 31
0.0
  0
LINE
  5
796
  8
0
 10
49.716523584316967
 20
101.0355076903983
 30
0.0
 11
85.716522034609852
 21
101.0355076903983
 31
0.0
  0
LINE
  5
798
  8
0
 10
50.716523631828061
 20
106.6915284062311
 30
0.0
 11
84.716523733342214
 21
106.6915284062311
 31
0.0
  0
LINE
  5
79A
  8
0
 10
60.716523524725972
 20
46.786865514008667
 30
0.0
 11
60.162023377025662
 21
46.232365366308358
 31
0.0
  0
LINE
  5
79B
  8
0
 10
55.27102362027221
 20
46.232365366308358
 30
0.0
 11
54.7165234725719
 21
46.786865514008667
 31
0.0
  0
LINE
  5
79C
  8
0
 10
55.27102362027221
 20
46.232365366308358
 30
0.0
 11
60.162023377025662
 21
46.232365366308358
 31
0.0
  0
LINE
  5
79D
  8
0
 10
60.716523524725972
 20
51.93236499675956
 30
0.0
 11
60.716523524725972
 21
46.786865514008667
 31
0.0
  0
LINE
  5
79E
  8
0
 10
60.716523524725972
 20
61.232365962354798
 30
0.0
 11
60.716523524725972
 21
56.732366156069901
 31
0.0
  0
LINE
  5
79F
  8
0
 10
54.7165234725719
 20
56.732366156069901
 30
0.0
 11
54.7165234725719
 21
61.232365962354798
 31
0.0
  0
LINE
  5
7A0
  8
0
 10
54.7165234725719
 20
46.786865514008667
 30
0.0
 11
54.7165234725719
 21
51.93236499675956
 31
0.0
  0
LINE
  5
7A1
  8
0
 10
54.7165234725719
 20
46.786865514008667
 30
0.0
 11
60.716523524725972
 21
46.786865514008667
 31
0.0
  0
LINE
  5
7A2
  8
0
 10
80.716523077691136
 20
51.93236499675956
 30
0.0
 11
80.716523077691136
 21
46.786865514008667
 31
0.0
  0
LINE
  5
7A3
  8
0
 10
80.716523077691136
 20
61.232365962354798
 30
0.0
 11
80.716523077691136
 21
56.732366156069901
 31
0.0
  0
LINE
  5
7A4
  8
0
 10
74.716523956859646
 20
56.732366156069901
 30
0.0
 11
74.716523956859646
 21
61.232365962354798
 31
0.0
  0
LINE
  5
7A5
  8
0
 10
74.716523956859646
 20
46.786865514008667
 30
0.0
 11
74.716523956859646
 21
51.93236499675956
 31
0.0
  0
LINE
  5
7A6
  8
0
 10
80.716523077691136
 20
46.786865514008667
 30
0.0
 11
80.162022929990826
 21
46.232365366308358
 31
0.0
  0
LINE
  5
7A7
  8
0
 10
74.716523956859646
 20
46.786865514008667
 30
0.0
 11
80.716523077691136
 21
46.786865514008667
 31
0.0
  0
LINE
  5
7A8
  8
0
 10
75.271024104559956
 20
46.232365366308358
 30
0.0
 11
74.716523956859646
 21
46.786865514008667
 31
0.0
  0
LINE
  5
7A9
  8
0
 10
75.271024104559956
 20
46.232365366308358
 30
0.0
 11
80.162022929990826
 21
46.232365366308358
 31
0.0
  0
LINE
  5
7AE
  8
0
 10
52.716523610407641
 20
55.132365148751397
 30
0.0
 11
51.943020863810709
 21
54.685784798352387
 31
0.0
  0
LINE
  5
7AF
  8
0
 10
51.943020863810709
 20
52.378947209803727
 30
0.0
 11
52.716523610407641
 21
51.93236499675956
 31
0.0
  0
LINE
  5
7B0
  8
0
 10
62.716523852551511
 20
51.93236499675956
 30
0.0
 11
63.490026366317799
 21
52.378947209803727
 31
0.0
  0
LINE
  5
7B1
  8
0
 10
63.490026366317799
 20
54.685784798352387
 30
0.0
 11
62.716523852551511
 21
55.132365148751397
 31
0.0
  0
ARC
  5
7B2
  8
0
 10
83.740710985272472
 20
117.25669745423519
 30
0.0
 40
1.9758148699857081
 50
0.1126764403874908
 51
90.701363651258134
  0
ARC
  5
7B3
  8
0
 10
51.693357304401282
 20
117.2556602739557
 30
0.0
 40
1.976839766271473
 50
89.328541485589469
 51
179.85829251556081
  0
LINE
  5
7B4
  8
0
 10
83.716525432074377
 20
119.23236429342479
 30
0.0
 11
51.716523679325292
 21
119.23236429342479
 31
0.0
  0
ARC
  5
8E5
  8
0
 10
171.90641841584801
 20
189.39927815797211
 30
0.0
 40
1.0
 50
180.0
 51
270.0
  0
ARC
  5
8E7
  8
0
 10
171.90641841584801
 20
223.39927815797211
 30
0.0
 40
1.0
 50
90.0
 51
179.9999999999992
  0
ARC
  5
8E9
  8
0
 10
321.90641841584812
 20
191.39927815797211
 30
0.0
 40
3.0
 50
270.0
 51
0.0
  0
ARC
  5
8EB
  8
0
 10
321.90641841584812
 20
221.39927815797211
 30
0.0
 40
3.0
 50
359.99999999999972
 51
90.0
  0
LINE
  5
8EC
  8
0
 10
170.90642146585441
 20
223.39927811046101
 30
0.0
 11
170.90642146585441
 21
189.39927800894679
 31
0.0
  0
LINE
  5
8F0
  8
0
 10
324.90642063138949
 20
191.3992783367724
 30
0.0
 11
324.90642063138949
 21
221.3992781318814
 31
0.0
  0
POLYLINE
  8
0
  5
13A7
  62
4
  66
     1
 10
0.000000
 20
0.000000
 30
0.000000
  70
     8
  0
VERTEX
  8
0
  5
13A8
 10
319.908
 20
188.399
 30
0.000000
  70
    32
  0
VERTEX
  8
0
  5
13A9
 10
319.913
 20
188.401
 30
0.000000
  70
    32
  0
VERTEX
  8
0
  5
13AA
 10
319.919
 20
188.403
 30
0.000000
  70
    32
  0
VERTEX
  8
0
  5
13AB
 10
319.924
 20
188.405
 30
0.000000
  70
    32
  0
VERTEX
  8
0
  5
13AC
 10
319.930
 20
188.406
 30
0.000000
  70
    32
  0
VERTEX
  8
0
  5
13AD
 10
319.935
 20
188.408
 30
0.000000
  70
    32
  0
VERTEX
  8
0
  5
13AE
 10
319.941
 20
188.410
 30
0.000000
  70
    32
  0
VERTEX
  8
0
  5
13AF
 10
319.946
 20
188.412
 30
0.000000
  70
    32
  0
VERTEX
  8
0
  5
13B0
 10
319.952
 20
188.413
 30
0.000000
  70
    32
  0
VERTEX
  8
0
  5
13B1
 10
319.957
 20
188.415
 30
0.000000
  70
    32
  0
VERTEX
  8
0
  5
13B2
 10
319.963
 20
188.417
 30
0.000000
  70
    32
  0
VERTEX
  8
0
  5
13B3
 10
319.968
 20
188.419
 30
0.000000
  70
    32
  0
VERTEX
  8
0
  5
13B4
 10
319.974
 20
188.421
 30
0.000000
  70
    32
  0
VERTEX
  8
0
  5
13B5
 10
319.979
 20
188.423
 30
0.000000
  70
    32
  0
VERTEX
  8
0
  5
13B6
 10
319.984
 20
188.425
 30
0.000000
  70
    32
  0
VERTEX
  8
0
  5
13B7
 10
319.990
 20
188.426
 30
0.000000
  70
    32
  0
VERTEX
  8
0
  5
13B8
 10
319.995
 20
188.428
 30
0.000000
  70
    32
  0
VERTEX
  8
0
  5
13B9
 10
320.001
 20
188.430
 30
0.000000
  70
    32
  0
VERTEX
  8
0
  5
13BA
 10
320.006
 20
188.432
 30
0.000000
  70
    32
  0
VERTEX
  8
0
  5
13BB
 10
320.012
 20
188.434
 30
0.000000
  70
    32
  0
VERTEX
  8
0
  5
13BC
 10
320.017
 20
188.436
 30
0.000000
  70
    32
  0
VERTEX
  8
0
  5
13BD
 10
320.023
 20
188.439
 30
0.000000
  70
    32
  0
VERTEX
  8
0
  5
13BE
 10
320.028
 20
188.441
 30
0.000000
  70
    32
  0
VERTEX
  8
0
  5
13BF
 10
320.034
 20
188.443
 30
0.000000
  70
    32
  0
VERTEX
  8
0
  5
13C0
 10
320.039
 20
188.445
 30
0.000000
  70
    32
  0
VERTEX
  8
0
  5
13C1
 10
320.045
 20
188.447
 30
0.000000
  70
    32
  0
VERTEX
  8
0
  5
13C2
 10
320.050
 20
188.450
 30
0.000000
  70
    32
  0
VERTEX
  8
0
  5
13C3
 10
320.055
 20
188.452
 30
0.000000
  70
    32
  0
VERTEX
  8
0
  5
13C4
 10
320.061
 20
188.454
 30
0.000000
  70
    32
  0
VERTEX
  8
0
  5
13C5
 10
320.066
 20
188.457
 30
0.000000
  70
    32
  0
VERTEX
  8
0
  5
13C6
 10
320.072
 20
188.459
 30
0.000000
  70
    32
  0
VERTEX
  8
0
  5
13C7
 10
320.077
 20
188.462
 30
0.000000
  70
    32
  0
VERTEX
  8
0
  5
13C8
 10
320.083
 20
188.464
 30
0.000000
  70
    32
  0
VERTEX
  8
0
  5
13C9
 10
320.088
 20
188.467
 30
0.000000
  70
    32
  0
VERTEX
  8
0
  5
13CA
 10
320.093
 20
188.470
 30
0.000000
  70
    32
  0
VERTEX
  8
0
  5
13CB
 10
320.099
 20
188.472
 30
0.000000
  70
    32
  0
VERTEX
  8
0
  5
13CC
 10
320.104
 20
188.475
 30
0.000000
  70
    32
  0
VERTEX
  8
0
  5
13CD
 10
320.110
 20
188.478
 30
0.000000
  70
    32
  0
VERTEX
  8
0
  5
13CE
 10
320.115
 20
188.481
 30
0.000000
  70
    32
  0
VERTEX
  8
0
  5
13CF
 10
320.120
 20
188.484
 30
0.000000
  70
    32
  0
VERTEX
  8
0
  5
13D0
 10
320.126
 20
188.487
 30
0.000000
  70
    32
  0
VERTEX
  8
0
  5
13D1
 10
320.131
 20
188.490
 30
0.000000
  70
    32
  0
VERTEX
  8
0
  5
13D2
 10
320.136
 20
188.493
 30
0.000000
  70
    32
  0
VERTEX
  8
0
  5
13D3
 10
320.142
 20
188.497
 30
0.000000
  70
    32
  0
VERTEX
  8
0
  5
13D4
 10
320.147
 20
188.500
 30
0.000000
  70
    32
  0
VERTEX
  8
0
  5
13D5
 10
320.152
 20
188.503
 30
0.000000
  70
    32
  0
VERTEX
  8
0
  5
13D6
 10
320.158
 20
188.507
 30
0.000000
  70
    32
  0
VERTEX
  8
0
  5
13D7
 10
320.163
 20
188.510
 30
0.000000
  70
    32
  0
VERTEX
  8
0
  5
13D8
 10
320.168
 20
188.514
 30
0.000000
  70
    32
  0
VERTEX
  8
0
  5
13D9
 10
320.174
 20
188.518
 30
0.000000
  70
    32
  0
VERTEX
  8
0
  5
13DA
 10
320.179
 20
188.522
 30
0.000000
  70
    32
  0
VERTEX
  8
0
  5
13DB
 10
320.184
 20
188.525
 30
0.000000
  70
    32
  0
VERTEX
  8
0
  5
13DC
 10
320.189
 20
188.529
 30
0.000000
  70
    32
  0
VERTEX
  8
0
  5
13DD
 10
320.195
 20
188.533
 30
0.000000
  70
    32
  0
VERTEX
  8
0
  5
13DE
 10
320.200
 20
188.538
 30
0.000000
  70
    32
  0
VERTEX
  8
0
  5
13DF
 10
320.205
 20
188.542
 30
0.000000
  70
    32
  0
VERTEX
  8
0
  5
13E0
 10
320.210
 20
188.546
 30
0.000000
  70
    32
  0
VERTEX
  8
0
  5
13E1
 10
320.216
 20
188.551
 30
0.000000
  70
    32
  0
VERTEX
  8
0
  5
13E2
 10
320.221
 20
188.555
 30
0.000000
  70
    32
  0
VERTEX
  8
0
  5
13E3
 10
320.226
 20
188.560
 30
0.000000
  70
    32
  0
VERTEX
  8
0
  5
13E4
 10
320.231
 20
188.564
 30
0.000000
  70
    32
  0
VERTEX
  8
0
  5
13E5
 10
320.236
 20
188.569
 30
0.000000
  70
    32
  0
VERTEX
  8
0
  5
13E6
 10
320.242
 20
188.574
 30
0.000000
  70
    32
  0
VERTEX
  8
0
  5
13E7
 10
320.247
 20
188.579
 30
0.000000
  70
    32
  0
VERTEX
  8
0
  5
13E8
 10
320.252
 20
188.584
 30
0.000000
  70
    32
  0
VERTEX
  8
0
  5
13E9
 10
320.257
 20
188.589
 30
0.000000
  70
    32
  0
VERTEX
  8
0
  5
13EA
 10
320.262
 20
188.595
 30
0.000000
  70
    32
  0
VERTEX
  8
0
  5
13EB
 10
320.267
 20
188.600
 30
0.000000
  70
    32
  0
VERTEX
  8
0
  5
13EC
 10
320.272
 20
188.606
 30
0.000000
  70
    32
  0
VERTEX
  8
0
  5
13ED
 10
320.278
 20
188.611
 30
0.000000
  70
    32
  0
VERTEX
  8
0
  5
13EE
 10
320.283
 20
188.617
 30
0.000000
  70
    32
  0
VERTEX
  8
0
  5
13EF
 10
320.288
 20
188.623
 30
0.000000
  70
    32
  0
VERTEX
  8
0
  5
13F0
 10
320.293
 20
188.629
 30
0.000000
  70
    32
  0
VERTEX
  8
0
  5
13F1
 10
320.298
 20
188.635
 30
0.000000
  70
    32
  0
VERTEX
  8
0
  5
13F2
 10
320.303
 20
188.642
 30
0.000000
  70
    32
  0
VERTEX
  8
0
  5
13F3
 10
320.308
 20
188.648
 30
0.000000
  70
    32
  0
VERTEX
  8
0
  5
13F4
 10
320.313
 20
188.654
 30
0.000000
  70
    32
  0
VERTEX
  8
0
  5
13F5
 10
320.318
 20
188.661
 30
0.000000
  70
    32
  0
VERTEX
  8
0
  5
13F6
 10
320.323
 20
188.668
 30
0.000000
  70
    32
  0
VERTEX
  8
0
  5
13F7
 10
320.328
 20
188.674
 30
0.000000
  70
    32
  0
VERTEX
  8
0
  5
13F8
 10
320.333
 20
188.681
 30
0.000000
  70
    32
  0
VERTEX
  8
0
  5
13F9
 10
320.338
 20
188.688
 30
0.000000
  70
    32
  0
VERTEX
  8
0
  5
13FA
 10
320.343
 20
188.695
 30
0.000000
  70
    32
  0
VERTEX
  8
0
  5
13FB
 10
320.348
 20
188.702
 30
0.000000
  70
    32
  0
VERTEX
  8
0
  5
13FC
 10
320.352
 20
188.710
 30
0.000000
  70
    32
  0
VERTEX
  8
0
  5
13FD
 10
320.357
 20
188.717
 30
0.000000
  70
    32
  0
VERTEX
  8
0
  5
13FE
 10
320.362
 20
188.724
 30
0.000000
  70
    32
  0
VERTEX
  8
0
  5
13FF
 10
320.367
 20
188.732
 30
0.000000
  70
    32
  0
VERTEX
  8
0
  5
1400
 10
320.372
 20
188.740
 30
0.000000
  70
    32
  0
VERTEX
  8
0
  5
1401
 10
320.377
 20
188.747
 30
0.000000
  70
    32
  0
VERTEX
  8
0
  5
1402
 10
320.382
 20
188.755
 30
0.000000
  70
    32
  0
VERTEX
  8
0
  5
1403
 10
320.386
 20
188.763
 30
0.000000
  70
    32
  0
VERTEX
  8
0
  5
1404
 10
320.391
 20
188.771
 30
0.000000
  70
    32
  0
VERTEX
  8
0
  5
1405
 10
320.396
 20
188.779
 30
0.000000
  70
    32
  0
VERTEX
  8
0
  5
1406
 10
320.401
 20
188.787
 30
0.000000
  70
    32
  0
VERTEX
  8
0
  5
1407
 10
320.405
 20
188.795
 30
0.000000
  70
    32
  0
VERTEX
  8
0
  5
1408
 10
320.410
 20
188.804
 30
0.000000
  70
    32
  0
VERTEX
  8
0
  5
1409
 10
320.415
 20
188.812
 30
0.000000
  70
    32
  0
VERTEX
  8
0
  5
140A
 10
320.420
 20
188.820
 30
0.000000
  70
    32
  0
VERTEX
  8
0
  5
140B
 10
320.424
 20
188.829
 30
0.000000
  70
    32
  0
VERTEX
  8
0
  5
140C
 10
320.429
 20
188.838
 30
0.000000
  70
    32
  0
VERTEX
  8
0
  5
140D
 10
320.434
 20
188.846
 30
0.000000
  70
    32
  0
VERTEX
  8
0
  5
140E
 10
320.438
 20
188.855
 30
0.000000
  70
    32
  0
VERTEX
  8
0
  5
140F
 10
320.443
 20
188.864
 30
0.000000
  70
    32
  0
VERTEX
  8
0
  5
1410
 10
320.448
 20
188.873
 30
0.000000
  70
    32
  0
VERTEX
  8
0
  5
1411
 10
320.452
 20
188.882
 30
0.000000
  70
    32
  0
VERTEX
  8
0
  5
1412
 10
320.457
 20
188.891
 30
0.000000
  70
    32
  0
VERTEX
  8
0
  5
1413
 10
320.461
 20
188.900
 30
0.000000
  70
    32
  0
VERTEX
  8
0
  5
1414
 10
320.466
 20
188.909
 30
0.000000
  70
    32
  0
VERTEX
  8
0
  5
1415
 10
320.470
 20
188.918
 30
0.000000
  70
    32
  0
VERTEX
  8
0
  5
1416
 10
320.475
 20
188.928
 30
0.000000
  70
    32
  0
VERTEX
  8
0
  5
1417
 10
320.479
 20
188.937
 30
0.000000
  70
    32
  0
VERTEX
  8
0
  5
1418
 10
320.484
 20
188.946
 30
0.000000
  70
    32
  0
VERTEX
  8
0
  5
1419
 10
320.488
 20
188.956
 30
0.000000
  70
    32
  0
VERTEX
  8
0
  5
141A
 10
320.493
 20
188.966
 30
0.000000
  70
    32
  0
VERTEX
  8
0
  5
141B
 10
320.497
 20
188.975
 30
0.000000
  70
    32
  0
VERTEX
  8
0
  5
141C
 10
320.502
 20
188.985
 30
0.000000
  70
    32
  0
VERTEX
  8
0
  5
141D
 10
320.506
 20
188.995
 30
0.000000
  70
    32
  0
VERTEX
  8
0
  5
141E
 10
320.510
 20
189.005
 30
0.000000
  70
    32
  0
VERTEX
  8
0
  5
141F
 10
320.515
 20
189.014
 30
0.000000
  70
    32
  0
VERTEX
  8
0
  5
1420
 10
320.519
 20
189.024
 30
0.000000
  70
    32
  0
VERTEX
  8
0
  5
1421
 10
320.523
 20
189.034
 30
0.000000
  70
    32
  0
VERTEX
  8
0
  5
1422
 10
320.528
 20
189.045
 30
0.000000
  70
    32
  0
VERTEX
  8
0
  5
1423
 10
320.532
 20
189.055
 30
0.000000
  70
    32
  0
VERTEX
  8
0
  5
1424
 10
320.536
 20
189.065
 30
0.000000
  70
    32
  0
VERTEX
  8
0
  5
1425
 10
320.541
 20
189.075
 30
0.000000
  70
    32
  0
VERTEX
  8
0
  5
1426
 10
320.545
 20
189.086
 30
0.000000
  70
    32
  0
VERTEX
  8
0
  5
1427
 10
320.549
 20
189.096
 30
0.000000
  70
    32
  0
VERTEX
  8
0
  5
1428
 10
320.553
 20
189.107
 30
0.000000
  70
    32
  0
VERTEX
  8
0
  5
1429
 10
320.557
 20
189.117
 30
0.000000
  70
    32
  0
VERTEX
  8
0
  5
142A
 10
320.561
 20
189.128
 30
0.000000
  70
    32
  0
VERTEX
  8
0
  5
142B
 10
320.566
 20
189.139
 30
0.000000
  70
    32
  0
VERTEX
  8
0
  5
142C
 10
320.570
 20
189.149
 30
0.000000
  70
    32
  0
VERTEX
  8
0
  5
142D
 10
320.574
 20
189.160
 30
0.000000
  70
    32
  0
VERTEX
  8
0
  5
142E
 10
320.578
 20
189.171
 30
0.000000
  70
    32
  0
VERTEX
  8
0
  5
142F
 10
320.582
 20
189.182
 30
0.000000
  70
    32
  0
VERTEX
  8
0
  5
1430
 10
320.586
 20
189.193
 30
0.000000
  70
    32
  0
VERTEX
  8
0
  5
1431
 10
320.590
 20
189.204
 30
0.000000
  70
    32
  0
VERTEX
  8
0
  5
1432
 10
320.594
 20
189.215
 30
0.000000
  70
    32
  0
VERTEX
  8
0
  5
1433
 10
320.598
 20
189.227
 30
0.000000
  70
    32
  0
VERTEX
  8
0
  5
1434
 10
320.602
 20
189.238
 30
0.000000
  70
    32
  0
VERTEX
  8
0
  5
1435
 10
320.606
 20
189.249
 30
0.000000
  70
    32
  0
VERTEX
  8
0
  5
1436
 10
320.610
 20
189.261
 30
0.000000
  70
    32
  0
VERTEX
  8
0
  5
1437
 10
320.614
 20
189.272
 30
0.000000
  70
    32
  0
VERTEX
  8
0
  5
1438
 10
320.617
 20
189.284
 30
0.000000
  70
    32
  0
VERTEX
  8
0
  5
1439
 10
320.621
 20
189.295
 30
0.000000
  70
    32
  0
VERTEX
  8
0
  5
143A
 10
320.625
 20
189.307
 30
0.000000
  70
    32
  0
VERTEX
  8
0
  5
143B
 10
320.629
 20
189.319
 30
0.000000
  70
    32
  0
VERTEX
  8
0
  5
143C
 10
320.633
 20
189.331
 30
0.000000
  70
    32
  0
VERTEX
  8
0
  5
143D
 10
320.636
 20
189.343
 30
0.000000
  70
    32
  0
VERTEX
  8
0
  5
143E
 10
320.640
 20
189.354
 30
0.000000
  70
    32
  0
VERTEX
  8
0
  5
143F
 10
320.644
 20
189.367
 30
0.000000
  70
    32
  0
VERTEX
  8
0
  5
1440
 10
320.648
 20
189.379
 30
0.000000
  70
    32
  0
VERTEX
  8
0
  5
1441
 10
320.651
 20
189.391
 30
0.000000
  70
    32
  0
VERTEX
  8
0
  5
1442
 10
320.655
 20
189.403
 30
0.000000
  70
    32
  0
VERTEX
  8
0
  5
1443
 10
320.658
 20
189.415
 30
0.000000
  70
    32
  0
VERTEX
  8
0
  5
1444
 10
320.662
 20
189.428
 30
0.000000
  70
    32
  0
VERTEX
  8
0
  5
1445
 10
320.666
 20
189.440
 30
0.000000
  70
    32
  0
VERTEX
  8
0
  5
1446
 10
320.669
 20
189.452
 30
0.000000
  70
    32
  0
VERTEX
  8
0
  5
1447
 10
320.673
 20
189.465
 30
0.000000
  70
    32
  0
VERTEX
  8
0
  5
1448
 10
320.676
 20
189.477
 30
0.000000
  70
    32
  0
VERTEX
  8
0
  5
1449
 10
320.680
 20
189.490
 30
0.000000
  70
    32
  0
VERTEX
  8
0
  5
144A
 10
320.683
 20
189.503
 30
0.000000
  70
    32
  0
VERTEX
  8
0
  5
144B
 10
320.687
 20
189.515
 30
0.000000
  70
    32
  0
VERTEX
  8
0
  5
144C
 10
320.690
 20
189.528
 30
0.000000
  70
    32
  0
VERTEX
  8
0
  5
144D
 10
320.693
 20
189.541
 30
0.000000
  70
    32
  0
VERTEX
  8
0
  5
144E
 10
320.697
 20
189.554
 30
0.000000
  70
    32
  0
VERTEX
  8
0
  5
144F
 10
320.700
 20
189.567
 30
0.000000
  70
    32
  0
VERTEX
  8
0
  5
1450
 10
320.703
 20
189.580
 30
0.000000
  70
    32
  0
VERTEX
  8
0
  5
1451
 10
320.707
 20
189.593
 30
0.000000
  70
    32
  0
VERTEX
  8
0
  5
1452
 10
320.710
 20
189.606
 30
0.000000
  70
    32
  0
VERTEX
  8
0
  5
1453
 10
320.713
 20
189.619
 30
0.000000
  70
    32
  0
VERTEX
  8
0
  5
1454
 10
320.717
 20
189.632
 30
0.000000
  70
    32
  0
VERTEX
  8
0
  5
1455
 10
320.720
 20
189.646
 30
0.000000
  70
    32
  0
VERTEX
  8
0
  5
1456
 10
320.723
 20
189.659
 30
0.000000
  70
    32
  0
VERTEX
  8
0
  5
1457
 10
320.726
 20
189.672
 30
0.000000
  70
    32
  0
VERTEX
  8
0
  5
1458
 10
320.729
 20
189.686
 30
0.000000
  70
    32
  0
VERTEX
  8
0
  5
1459
 10
320.732
 20
189.699
 30
0.000000
  70
    32
  0
VERTEX
  8
0
  5
145A
 10
320.736
 20
189.713
 30
0.000000
  70
    32
  0
VERTEX
  8
0
  5
145B
 10
320.739
 20
189.726
 30
0.000000
  70
    32
  0
VERTEX
  8
0
  5
145C
 10
320.742
 20
189.740
 30
0.000000
  70
    32
  0
VERTEX
  8
0
  5
145D
 10
320.745
 20
189.754
 30
0.000000
  70
    32
  0
VERTEX
  8
0
  5
145E
 10
320.748
 20
189.768
 30
0.000000
  70
    32
  0
VERTEX
  8
0
  5
145F
 10
320.751
 20
189.781
 30
0.000000
  70
    32
  0
VERTEX
  8
0
  5
1460
 10
320.754
 20
189.795
 30
0.000000
  70
    32
  0
VERTEX
  8
0
  5
1461
 10
320.757
 20
189.809
 30
0.000000
  70
    32
  0
VERTEX
  8
0
  5
1462
 10
320.760
 20
189.823
 30
0.000000
  70
    32
  0
VERTEX
  8
0
  5
1463
 10
320.762
 20
189.837
 30
0.000000
  70
    32
  0
VERTEX
  8
0
  5
1464
 10
320.765
 20
189.851
 30
0.000000
  70
    32
  0
VERTEX
  8
0
  5
1465
 10
320.768
 20
189.865
 30
0.000000
  70
    32
  0
VERTEX
  8
0
  5
1466
 10
320.771
 20
189.879
 30
0.000000
  70
    32
  0
VERTEX
  8
0
  5
1467
 10
320.774
 20
189.893
 30
0.000000
  70
    32
  0
VERTEX
  8
0
  5
1468
 10
320.777
 20
189.907
 30
0.000000
  70
    32
  0
VERTEX
  8
0
  5
1469
 10
320.779
 20
189.922
 30
0.000000
  70
    32
  0
VERTEX
  8
0
  5
146A
 10
320.782
 20
189.936
 30
0.000000
  70
    32
  0
VERTEX
  8
0
  5
146B
 10
320.785
 20
189.950
 30
0.000000
  70
    32
  0
VERTEX
  8
0
  5
146C
 10
320.787
 20
189.965
 30
0.000000
  70
    32
  0
VERTEX
  8
0
  5
146D
 10
320.790
 20
189.979
 30
0.000000
  70
    32
  0
VERTEX
  8
0
  5
146E
 10
320.793
 20
189.993
 30
0.000000
  70
    32
  0
VERTEX
  8
0
  5
146F
 10
320.795
 20
190.008
 30
0.000000
  70
    32
  0
VERTEX
  8
0
  5
1470
 10
320.798
 20
190.022
 30
0.000000
  70
    32
  0
VERTEX
  8
0
  5
1471
 10
320.800
 20
190.037
 30
0.000000
  70
    32
  0
VERTEX
  8
0
  5
1472
 10
320.803
 20
190.052
 30
0.000000
  70
    32
  0
VERTEX
  8
0
  5
1473
 10
320.805
 20
190.066
 30
0.000000
  70
    32
  0
VERTEX
  8
0
  5
1474
 10
320.808
 20
190.081
 30
0.000000
  70
    32
  0
VERTEX
  8
0
  5
1475
 10
320.810
 20
190.096
 30
0.000000
  70
    32
  0
VERTEX
  8
0
  5
1476
 10
320.812
 20
190.110
 30
0.000000
  70
    32
  0
VERTEX
  8
0
  5
1477
 10
320.815
 20
190.125
 30
0.000000
  70
    32
  0
VERTEX
  8
0
  5
1478
 10
320.817
 20
190.140
 30
0.000000
  70
    32
  0
VERTEX
  8
0
  5
1479
 10
320.819
 20
190.155
 30
0.000000
  70
    32
  0
VERTEX
  8
0
  5
147A
 10
320.821
 20
190.170
 30
0.000000
  70
    32
  0
VERTEX
  8
0
  5
147B
 10
320.824
 20
190.185
 30
0.000000
  70
    32
  0
VERTEX
  8
0
  5
147C
 10
320.826
 20
190.200
 30
0.000000
  70
    32
  0
VERTEX
  8
0
  5
147D
 10
320.828
 20
190.215
 30
0.000000
  70
    32
  0
VERTEX
  8
0
  5
147E
 10
320.830
 20
190.230
 30
0.000000
  70
    32
  0
VERTEX
  8
0
  5
147F
 10
320.832
 20
190.245
 30
0.000000
  70
    32
  0
VERTEX
  8
0
  5
1480
 10
320.834
 20
190.260
 30
0.000000
  70
    32
  0
VERTEX
  8
0
  5
1481
 10
320.836
 20
190.276
 30
0.000000
  70
    32
  0
VERTEX
  8
0
  5
1482
 10
320.838
 20
190.291
 30
0.000000
  70
    32
  0
VERTEX
  8
0
  5
1483
 10
320.840
 20
190.306
 30
0.000000
  70
    32
  0
VERTEX
  8
0
  5
1484
 10
320.842
 20
190.321
 30
0.000000
  70
    32
  0
VERTEX
  8
0
  5
1485
 10
320.844
 20
190.337
 30
0.000000
  70
    32
  0
VERTEX
  8
0
  5
1486
 10
320.845
 20
190.352
 30
0.000000
  70
    32
  0
VERTEX
  8
0
  5
1487
 10
320.847
 20
190.367
 30
0.000000
  70
    32
  0
VERTEX
  8
0
  5
1488
 10
320.849
 20
190.383
 30
0.000000
  70
    32
  0
VERTEX
  8
0
  5
1489
 10
320.850
 20
190.398
 30
0.000000
  70
    32
  0
VERTEX
  8
0
  5
148A
 10
320.852
 20
190.414
 30
0.000000
  70
    32
  0
VERTEX
  8
0
  5
148B
 10
320.854
 20
190.429
 30
0.000000
  70
    32
  0
VERTEX
  8
0
  5
148C
 10
320.855
 20
190.445
 30
0.000000
  70
    32
  0
VERTEX
  8
0
  5
148D
 10
320.857
 20
190.461
 30
0.000000
  70
    32
  0
VERTEX
  8
0
  5
148E
 10
320.858
 20
190.476
 30
0.000000
  70
    32
  0
VERTEX
  8
0
  5
148F
 10
320.860
 20
190.492
 30
0.000000
  70
    32
  0
VERTEX
  8
0
  5
1490
 10
320.861
 20
190.507
 30
0.000000
  70
    32
  0
VERTEX
  8
0
  5
1491
 10
320.863
 20
190.523
 30
0.000000
  70
    32
  0
VERTEX
  8
0
  5
1492
 10
320.864
 20
190.539
 30
0.000000
  70
    32
  0
VERTEX
  8
0
  5
1493
 10
320.865
 20
190.555
 30
0.000000
  70
    32
  0
VERTEX
  8
0
  5
1494
 10
320.867
 20
190.570
 30
0.000000
  70
    32
  0
VERTEX
  8
0
  5
1495
 10
320.868
 20
190.586
 30
0.000000
  70
    32
  0
VERTEX
  8
0
  5
1496
 10
320.869
 20
190.602
 30
0.000000
  70
    32
  0
VERTEX
  8
0
  5
1497
 10
320.870
 20
190.618
 30
0.000000
  70
    32
  0
VERTEX
  8
0
  5
1498
 10
320.872
 20
190.634
 30
0.000000
  70
    32
  0
VERTEX
  8
0
  5
1499
 10
320.873
 20
190.650
 30
0.000000
  70
    32
  0
VERTEX
  8
0
  5
149A
 10
320.874
 20
190.666
 30
0.000000
  70
    32
  0
VERTEX
  8
0
  5
149B
 10
320.875
 20
190.682
 30
0.000000
  70
    32
  0
VERTEX
  8
0
  5
149C
 10
320.876
 20
190.698
 30
0.000000
  70
    32
  0
VERTEX
  8
0
  5
149D
 10
320.877
 20
190.714
 30
0.000000
  70
    32
  0
VERTEX
  8
0
  5
149E
 10
320.878
 20
190.730
 30
0.000000
  70
    32
  0
VERTEX
  8
0
  5
149F
 10
320.879
 20
190.746
 30
0.000000
  70
    32
  0
VERTEX
  8
0
  5
14A0
 10
320.880
 20
190.762
 30
0.000000
  70
    32
  0
VERTEX
  8
0
  5
14A1
 10
320.881
 20
190.778
 30
0.000000
  70
    32
  0
VERTEX
  8
0
  5
14A2
 10
320.882
 20
190.794
 30
0.000000
  70
    32
  0
VERTEX
  8
0
  5
14A3
 10
320.883
 20
190.810
 30
0.000000
  70
    32
  0
VERTEX
  8
0
  5
14A4
 10
320.884
 20
190.826
 30
0.000000
  70
    32
  0
VERTEX
  8
0
  5
14A5
 10
320.885
 20
190.843
 30
0.000000
  70
    32
  0
VERTEX
  8
0
  5
14A6
 10
320.886
 20
190.859
 30
0.000000
  70
    32
  0
VERTEX
  8
0
  5
14A7
 10
320.887
 20
190.875
 30
0.000000
  70
    32
  0
VERTEX
  8
0
  5
14A8
 10
320.888
 20
190.891
 30
0.000000
  70
    32
  0
VERTEX
  8
0
  5
14A9
 10
320.889
 20
190.907
 30
0.000000
  70
    32
  0
VERTEX
  8
0
  5
14AA
 10
320.890
 20
190.924
 30
0.000000
  70
    32
  0
VERTEX
  8
0
  5
14AB
 10
320.890
 20
190.940
 30
0.000000
  70
    32
  0
VERTEX
  8
0
  5
14AC
 10
320.891
 20
190.956
 30
0.000000
  70
    32
  0
VERTEX
  8
0
  5
14AD
 10
320.892
 20
190.972
 30
0.000000
  70
    32
  0
VERTEX
  8
0
  5
14AE
 10
320.893
 20
190.989
 30
0.000000
  70
    32
  0
VERTEX
  8
0
  5
14AF
 10
320.893
 20
191.005
 30
0.000000
  70
    32
  0
VERTEX
  8
0
  5
14B0
 10
320.894
 20
191.021
 30
0.000000
  70
    32
  0
VERTEX
  8
0
  5
14B1
 10
320.895
 20
191.038
 30
0.000000
  70
    32
  0
VERTEX
  8
0
  5
14B2
 10
320.896
 20
191.054
 30
0.000000
  70
    32
  0
VERTEX
  8
0
  5
14B3
 10
320.896
 20
191.070
 30
0.000000
  70
    32
  0
VERTEX
  8
0
  5
14B4
 10
320.897
 20
191.087
 30
0.000000
  70
    32
  0
VERTEX
  8
0
  5
14B5
 10
320.898
 20
191.103
 30
0.000000
  70
    32
  0
VERTEX
  8
0
  5
14B6
 10
320.898
 20
191.120
 30
0.000000
  70
    32
  0
VERTEX
  8
0
  5
14B7
 10
320.899
 20
191.136
 30
0.000000
  70
    32
  0
VERTEX
  8
0
  5
14B8
 10
320.900
 20
191.152
 30
0.000000
  70
    32
  0
VERTEX
  8
0
  5
14B9
 10
320.900
 20
191.169
 30
0.000000
  70
    32
  0
VERTEX
  8
0
  5
14BA
 10
320.901
 20
191.185
 30
0.000000
  70
    32
  0
VERTEX
  8
0
  5
14BB
 10
320.902
 20
191.202
 30
0.000000
  70
    32
  0
VERTEX
  8
0
  5
14BC
 10
320.902
 20
191.218
 30
0.000000
  70
    32
  0
VERTEX
  8
0
  5
14BD
 10
320.903
 20
191.235
 30
0.000000
  70
    32
  0
VERTEX
  8
0
  5
14BE
 10
320.903
 20
191.251
 30
0.000000
  70
    32
  0
VERTEX
  8
0
  5
14BF
 10
320.904
 20
191.268
 30
0.000000
  70
    32
  0
VERTEX
  8
0
  5
14C0
 10
320.905
 20
191.284
 30
0.000000
  70
    32
  0
VERTEX
  8
0
  5
14C1
 10
320.905
 20
191.300
 30
0.000000
  70
    32
  0
VERTEX
  8
0
  5
14C2
 10
320.906
 20
191.317
 30
0.000000
  70
    32
  0
VERTEX
  8
0
  5
14C3
 10
320.906
 20
191.333
 30
0.000000
  70
    32
  0
VERTEX
  8
0
  5
14C4
 10
320.907
 20
191.350
 30
0.000000
  70
    32
  0
VERTEX
  8
0
  5
14C5
 10
320.908
 20
191.366
 30
0.000000
  70
    32
  0
VERTEX
  8
0
  5
14C6
 10
320.908
 20
191.383
 30
0.000000
  70
    32
  0
VERTEX
  8
0
  5
14C7
 10
320.909
 20
191.399
 30
0.000000
  70
    32
  0
SEQEND
  8
0
  5
14C8
  0
LINE
  5
8F8
  8
0
 10
174.9040677380369
 20
223.39927811046101
 30
0.0
 11
174.9040677380369
 21
189.39927800894679
 31
0.0
  0
LINE
  5
8FA
  8
0
 10
320.90876690862638
 20
191.39927833677231
 30
0.0
 11
320.90876690862638
 21
221.3992781318814
 31
0.0
  0
LINE
  5
90C
  8
0
 10
179.95726756570801
 20
218.90927826390569
 30
0.0
 11
182.85556576965311
 21
218.90927826390569
 31
0.0
  0
LINE
  5
90D
  8
0
 10
182.85556576965311
 20
218.90927826390569
 30
0.0
 11
184.30471859691599
 21
216.3992777779788
 31
0.0
  0
LINE
  5
90E
  8
0
 10
184.30471859691599
 20
216.3992777779788
 30
0.0
 11
182.85556576965311
 21
213.88927775771319
 31
0.0
  0
LINE
  5
90F
  8
0
 10
182.85556576965311
 20
213.88927775771319
 30
0.0
 11
179.95726756570801
 21
213.88927775771319
 31
0.0
  0
LINE
  5
910
  8
0
 10
179.95726756570801
 20
213.88927775771319
 30
0.0
 11
178.5081221890257
 21
216.3992777779788
 31
0.0
  0
LINE
  5
911
  8
0
 10
178.5081221890257
 20
216.3992777779788
 30
0.0
 11
179.95726756570801
 21
218.90927826390569
 31
0.0
  0
LINE
  5
91E
  8
0
 10
179.95726756570801
 20
198.90927731395661
 30
0.0
 11
182.85556576965311
 21
198.90927731395661
 31
0.0
  0
LINE
  5
91F
  8
0
 10
182.85556576965311
 20
198.90927731395661
 30
0.0
 11
184.30471859691599
 21
196.399277293691
 31
0.0
  0
LINE
  5
920
  8
0
 10
184.30471859691599
 20
196.399277293691
 30
0.0
 11
182.85556576965311
 21
193.88927727342551
 31
0.0
  0
LINE
  5
921
  8
0
 10
182.85556576965311
 20
193.88927727342551
 30
0.0
 11
179.95726756570801
 21
193.88927727342551
 31
0.0
  0
LINE
  5
922
  8
0
 10
179.95726756570801
 20
193.88927727342551
 30
0.0
 11
178.5081221890257
 21
196.399277293691
 31
0.0
  0
LINE
  5
923
  8
0
 10
178.5081221890257
 20
196.399277293691
 30
0.0
 11
179.95726756570801
 21
198.90927731395661
 31
0.0
  0
LINE
  5
927
  8
0
 10
186.40641562459919
 20
51.93236499675956
 30
0.0
 11
176.40641771076179
 21
51.93236499675956
 31
0.0
  0
LINE
  5
92F
  8
0
 10
176.40641771076179
 20
55.132365148751411
 30
0.0
 11
176.40641771076179
 21
51.932364996759567
 31
0.0
  0
LINE
  5
934
  8
0
 10
186.4064156245993
 20
51.932364996759567
 30
0.0
 11
186.40641562459919
 21
55.132365148751411
 31
0.0
  0
LINE
  5
937
  8
0
  6
BYBLOCK
 10
181.4064203929708
 20
52.378947209803727
 30
0.0
 11
181.4064203929708
 21
54.685784798352387
 31
0.0
  0
LINE
  5
93B
  8
0
 10
187.4064176511572
 20
56.732366156069908
 30
0.0
 11
175.40641568420389
 21
56.732366156069901
 31
0.0
  0
LINE
  5
93C
  8
0
 10
175.40641568420389
 20
55.132365148751397
 30
0.0
 11
187.4064176511572
 21
55.132365148751397
 31
0.0
  0
POLYLINE
  8
0
  5
14C9
  62
4
  66
     1
 10
0.000000
 20
0.000000
 30
0.000000
  70
     8
  0
VERTEX
  8
0
  5
14CA
 10
306.445
 20
92.0568
 30
0.000000
  70
    32
  0
VERTEX
  8
0
  5
14CB
 10
306.438
 20
92.0559
 30
0.000000
  70
    32
  0
VERTEX
  8
0
  5
14CC
 10
306.431
 20
92.0551
 30
0.000000
  70
    32
  0
VERTEX
  8
0
  5
14CD
 10
306.424
 20
92.0542
 30
0.000000
  70
    32
  0
VERTEX
  8
0
  5
14CE
 10
306.417
 20
92.0533
 30
0.000000
  70
    32
  0
VERTEX
  8
0
  5
14CF
 10
306.410
 20
92.0524
 30
0.000000
  70
    32
  0
VERTEX
  8
0
  5
14D0
 10
306.403
 20
92.0515
 30
0.000000
  70
    32
  0
VERTEX
  8
0
  5
14D1
 10
306.396
 20
92.0507
 30
0.000000
  70
    32
  0
VERTEX
  8
0
  5
14D2
 10
306.388
 20
92.0498
 30
0.000000
  70
    32
  0
VERTEX
  8
0
  5
14D3
 10
306.381
 20
92.0489
 30
0.000000
  70
    32
  0
VERTEX
  8
0
  5
14D4
 10
306.374
 20
92.0480
 30
0.000000
  70
    32
  0
VERTEX
  8
0
  5
14D5
 10
306.367
 20
92.0471
 30
0.000000
  70
    32
  0
VERTEX
  8
0
  5
14D6
 10
306.360
 20
92.0462
 30
0.000000
  70
    32
  0
VERTEX
  8
0
  5
14D7
 10
306.353
 20
92.0454
 30
0.000000
  70
    32
  0
VERTEX
  8
0
  5
14D8
 10
306.346
 20
92.0445
 30
0.000000
  70
    32
  0
VERTEX
  8
0
  5
14D9
 10
306.339
 20
92.0436
 30
0.000000
  70
    32
  0
VERTEX
  8
0
  5
14DA
 10
306.332
 20
92.0427
 30
0.000000
  70
    32
  0
VERTEX
  8
0
  5
14DB
 10
306.325
 20
92.0418
 30
0.000000
  70
    32
  0
VERTEX
  8
0
  5
14DC
 10
306.318
 20
92.0410
 30
0.000000
  70
    32
  0
VERTEX
  8
0
  5
14DD
 10
306.310
 20
92.0401
 30
0.000000
  70
    32
  0
VERTEX
  8
0
  5
14DE
 10
306.303
 20
92.0392
 30
0.000000
  70
    32
  0
VERTEX
  8
0
  5
14DF
 10
306.296
 20
92.0383
 30
0.000000
  70
    32
  0
VERTEX
  8
0
  5
14E0
 10
306.289
 20
92.0374
 30
0.000000
  70
    32
  0
VERTEX
  8
0
  5
14E1
 10
306.282
 20
92.0366
 30
0.000000
  70
    32
  0
VERTEX
  8
0
  5
14E2
 10
306.275
 20
92.0357
 30
0.000000
  70
    32
  0
VERTEX
  8
0
  5
14E3
 10
306.268
 20
92.0348
 30
0.000000
  70
    32
  0
VERTEX
  8
0
  5
14E4
 10
306.261
 20
92.0339
 30
0.000000
  70
    32
  0
VERTEX
  8
0
  5
14E5
 10
306.254
 20
92.0330
 30
0.000000
  70
    32
  0
VERTEX
  8
0
  5
14E6
 10
306.247
 20
92.0322
 30
0.000000
  70
    32
  0
VERTEX
  8
0
  5
14E7
 10
306.240
 20
92.0313
 30
0.000000
  70
    32
  0
VERTEX
  8
0
  5
14E8
 10
306.232
 20
92.0304
 30
0.000000
  70
    32
  0
VERTEX
  8
0
  5
14E9
 10
306.225
 20
92.0295
 30
0.000000
  70
    32
  0
VERTEX
  8
0
  5
14EA
 10
306.218
 20
92.0286
 30
0.000000
  70
    32
  0
VERTEX
  8
0
  5
14EB
 10
306.211
 20
92.0278
 30
0.000000
  70
    32
  0
VERTEX
  8
0
  5
14EC
 10
306.204
 20
92.0269
 30
0.000000
  70
    32
  0
VERTEX
  8
0
  5
14ED
 10
306.197
 20
92.0260
 30
0.000000
  70
    32
  0
VERTEX
  8
0
  5
14EE
 10
306.190
 20
92.0251
 30
0.000000
  70
    32
  0
VERTEX
  8
0
  5
14EF
 10
306.183
 20
92.0242
 30
0.000000
  70
    32
  0
VERTEX
  8
0
  5
14F0
 10
306.176
 20
92.0234
 30
0.000000
  70
    32
  0
VERTEX
  8
0
  5
14F1
 10
306.169
 20
92.0225
 30
0.000000
  70
    32
  0
VERTEX
  8
0
  5
14F2
 10
306.162
 20
92.0216
 30
0.000000
  70
    32
  0
VERTEX
  8
0
  5
14F3
 10
306.154
 20
92.0207
 30
0.000000
  70
    32
  0
VERTEX
  8
0
  5
14F4
 10
306.147
 20
92.0198
 30
0.000000
  70
    32
  0
VERTEX
  8
0
  5
14F5
 10
306.140
 20
92.0189
 30
0.000000
  70
    32
  0
VERTEX
  8
0
  5
14F6
 10
306.133
 20
92.0181
 30
0.000000
  70
    32
  0
VERTEX
  8
0
  5
14F7
 10
306.126
 20
92.0172
 30
0.000000
  70
    32
  0
VERTEX
  8
0
  5
14F8
 10
306.119
 20
92.0163
 30
0.000000
  70
    32
  0
VERTEX
  8
0
  5
14F9
 10
306.112
 20
92.0154
 30
0.000000
  70
    32
  0
VERTEX
  8
0
  5
14FA
 10
306.105
 20
92.0145
 30
0.000000
  70
    32
  0
VERTEX
  8
0
  5
14FB
 10
306.098
 20
92.0137
 30
0.000000
  70
    32
  0
VERTEX
  8
0
  5
14FC
 10
306.091
 20
92.0128
 30
0.000000
  70
    32
  0
VERTEX
  8
0
  5
14FD
 10
306.084
 20
92.0119
 30
0.000000
  70
    32
  0
VERTEX
  8
0
  5
14FE
 10
306.076
 20
92.0110
 30
0.000000
  70
    32
  0
VERTEX
  8
0
  5
14FF
 10
306.069
 20
92.0101
 30
0.000000
  70
    32
  0
VERTEX
  8
0
  5
1500
 10
306.062
 20
92.0093
 30
0.000000
  70
    32
  0
VERTEX
  8
0
  5
1501
 10
306.055
 20
92.0084
 30
0.000000
  70
    32
  0
VERTEX
  8
0
  5
1502
 10
306.048
 20
92.0075
 30
0.000000
  70
    32
  0
VERTEX
  8
0
  5
1503
 10
306.041
 20
92.0066
 30
0.000000
  70
    32
  0
VERTEX
  8
0
  5
1504
 10
306.034
 20
92.0057
 30
0.000000
  70
    32
  0
VERTEX
  8
0
  5
1505
 10
306.027
 20
92.0049
 30
0.000000
  70
    32
  0
VERTEX
  8
0
  5
1506
 10
306.020
 20
92.0040
 30
0.000000
  70
    32
  0
VERTEX
  8
0
  5
1507
 10
306.013
 20
92.0031
 30
0.000000
  70
    32
  0
VERTEX
  8
0
  5
1508
 10
306.006
 20
92.0022
 30
0.000000
  70
    32
  0
VERTEX
  8
0
  5
1509
 10
305.999
 20
92.0013
 30
0.000000
  70
    32
  0
SEQEND
  8
0
  5
150A
  0
POLYLINE
  8
0
  5
150B
  62
4
  66
     1
 10
0.000000
 20
0.000000
 30
0.000000
  70
     8
  0
VERTEX
  8
0
  5
150C
 10
309.000
 20
92.4000
 30
0.000000
  70
    32
  0
VERTEX
  8
0
  5
150D
 10
308.998
 20
92.3998
 30
0.000000
  70
    32
  0
VERTEX
  8
0
  5
150E
 10
308.996
 20
92.3995
 30
0.000000
  70
    32
  0
VERTEX
  8
0
  5
150F
 10
308.994
 20
92.3992
 30
0.000000
  70
    32
  0
VERTEX
  8
0
  5
1510
 10
308.992
 20
92.3990
 30
0.000000
  70
    32
  0
VERTEX
  8
0
  5
1511
 10
308.991
 20
92.3987
 30
0.000000
  70
    32
  0
VERTEX
  8
0
  5
1512
 10
308.989
 20
92.3984
 30
0.000000
  70
    32
  0
VERTEX
  8
0
  5
1513
 10
308.987
 20
92.3982
 30
0.000000
  70
    32
  0
VERTEX
  8
0
  5
1514
 10
308.985
 20
92.3979
 30
0.000000
  70
    32
  0
VERTEX
  8
0
  5
1515
 10
308.983
 20
92.3977
 30
0.000000
  70
    32
  0
VERTEX
  8
0
  5
1516
 10
308.982
 20
92.3974
 30
0.000000
  70
    32
  0
VERTEX
  8
0
  5
1517
 10
308.980
 20
92.3971
 30
0.000000
  70
    32
  0
VERTEX
  8
0
  5
1518
 10
308.978
 20
92.3969
 30
0.000000
  70
    32
  0
VERTEX
  8
0
  5
1519
 10
308.976
 20
92.3966
 30
0.000000
  70
    32
  0
VERTEX
  8
0
  5
151A
 10
308.974
 20
92.3963
 30
0.000000
  70
    32
  0
VERTEX
  8
0
  5
151B
 10
308.972
 20
92.3961
 30
0.000000
  70
    32
  0
VERTEX
  8
0
  5
151C
 10
308.971
 20
92.3958
 30
0.000000
  70
    32
  0
VERTEX
  8
0
  5
151D
 10
308.969
 20
92.3955
 30
0.000000
  70
    32
  0
VERTEX
  8
0
  5
151E
 10
308.967
 20
92.3953
 30
0.000000
  70
    32
  0
VERTEX
  8
0
  5
151F
 10
308.965
 20
92.3950
 30
0.000000
  70
    32
  0
VERTEX
  8
0
  5
1520
 10
308.963
 20
92.3947
 30
0.000000
  70
    32
  0
VERTEX
  8
0
  5
1521
 10
308.962
 20
92.3945
 30
0.000000
  70
    32
  0
VERTEX
  8
0
  5
1522
 10
308.960
 20
92.3942
 30
0.000000
  70
    32
  0
VERTEX
  8
0
  5
1523
 10
308.958
 20
92.3940
 30
0.000000
  70
    32
  0
VERTEX
  8
0
  5
1524
 10
308.956
 20
92.3937
 30
0.000000
  70
    32
  0
VERTEX
  8
0
  5
1525
 10
308.954
 20
92.3934
 30
0.000000
  70
    32
  0
VERTEX
  8
0
  5
1526
 10
308.953
 20
92.3932
 30
0.000000
  70
    32
  0
VERTEX
  8
0
  5
1527
 10
308.951
 20
92.3929
 30
0.000000
  70
    32
  0
VERTEX
  8
0
  5
1528
 10
308.949
 20
92.3926
 30
0.000000
  70
    32
  0
VERTEX
  8
0
  5
1529
 10
308.947
 20
92.3924
 30
0.000000
  70
    32
  0
VERTEX
  8
0
  5
152A
 10
308.945
 20
92.3921
 30
0.000000
  70
    32
  0
VERTEX
  8
0
  5
152B
 10
308.943
 20
92.3918
 30
0.000000
  70
    32
  0
VERTEX
  8
0
  5
152C
 10
308.942
 20
92.3916
 30
0.000000
  70
    32
  0
VERTEX
  8
0
  5
152D
 10
308.940
 20
92.3913
 30
0.000000
  70
    32
  0
VERTEX
  8
0
  5
152E
 10
308.938
 20
92.3910
 30
0.000000
  70
    32
  0
VERTEX
  8
0
  5
152F
 10
308.936
 20
92.3908
 30
0.000000
  70
    32
  0
VERTEX
  8
0
  5
1530
 10
308.934
 20
92.3905
 30
0.000000
  70
    32
  0
VERTEX
  8
0
  5
1531
 10
308.933
 20
92.3902
 30
0.000000
  70
    32
  0
VERTEX
  8
0
  5
1532
 10
308.931
 20
92.3900
 30
0.000000
  70
    32
  0
VERTEX
  8
0
  5
1533
 10
308.929
 20
92.3897
 30
0.000000
  70
    32
  0
VERTEX
  8
0
  5
1534
 10
308.927
 20
92.3895
 30
0.000000
  70
    32
  0
VERTEX
  8
0
  5
1535
 10
308.925
 20
92.3892
 30
0.000000
  70
    32
  0
VERTEX
  8
0
  5
1536
 10
308.923
 20
92.3889
 30
0.000000
  70
    32
  0
VERTEX
  8
0
  5
1537
 10
308.922
 20
92.3887
 30
0.000000
  70
    32
  0
VERTEX
  8
0
  5
1538
 10
308.920
 20
92.3884
 30
0.000000
  70
    32
  0
VERTEX
  8
0
  5
1539
 10
308.918
 20
92.3881
 30
0.000000
  70
    32
  0
VERTEX
  8
0
  5
153A
 10
308.916
 20
92.3879
 30
0.000000
  70
    32
  0
VERTEX
  8
0
  5
153B
 10
308.914
 20
92.3876
 30
0.000000
  70
    32
  0
VERTEX
  8
0
  5
153C
 10
308.913
 20
92.3873
 30
0.000000
  70
    32
  0
VERTEX
  8
0
  5
153D
 10
308.911
 20
92.3871
 30
0.000000
  70
    32
  0
VERTEX
  8
0
  5
153E
 10
308.909
 20
92.3868
 30
0.000000
  70
    32
  0
VERTEX
  8
0
  5
153F
 10
308.907
 20
92.3865
 30
0.000000
  70
    32
  0
VERTEX
  8
0
  5
1540
 10
308.905
 20
92.3863
 30
0.000000
  70
    32
  0
VERTEX
  8
0
  5
1541
 10
308.904
 20
92.3860
 30
0.000000
  70
    32
  0
VERTEX
  8
0
  5
1542
 10
308.902
 20
92.3858
 30
0.000000
  70
    32
  0
VERTEX
  8
0
  5
1543
 10
308.900
 20
92.3855
 30
0.000000
  70
    32
  0
VERTEX
  8
0
  5
1544
 10
308.898
 20
92.3852
 30
0.000000
  70
    32
  0
VERTEX
  8
0
  5
1545
 10
308.896
 20
92.3850
 30
0.000000
  70
    32
  0
VERTEX
  8
0
  5
1546
 10
308.894
 20
92.3847
 30
0.000000
  70
    32
  0
VERTEX
  8
0
  5
1547
 10
308.893
 20
92.3844
 30
0.000000
  70
    32
  0
VERTEX
  8
0
  5
1548
 10
308.891
 20
92.3842
 30
0.000000
  70
    32
  0
VERTEX
  8
0
  5
1549
 10
308.889
 20
92.3839
 30
0.000000
  70
    32
  0
VERTEX
  8
0
  5
154A
 10
308.887
 20
92.3836
 30
0.000000
  70
    32
  0
VERTEX
  8
0
  5
154B
 10
308.885
 20
92.3834
 30
0.000000
  70
    32
  0
SEQEND
  8
0
  5
154C
  0
LINE
  5
943
  8
0
 10
170.90642146585441
 20
61.232365962354798
 30
0.0
 11
192.90642134664509
 21
61.232365962354798
 31
0.0
  0
LINE
  5
944
  8
0
 10
192.90642134664509
 20
61.232365962354798
 30
0.0
 11
192.90642134664509
 21
88.471357073871758
 31
0.0
  0
LINE
  5
94E
  8
0
 10
324.90642063138949
 20
100.5069355631753
 30
0.0
 11
324.90642063138949
 21
101.0355076903983
 31
0.0
  0
LINE
  5
956
  8
0
 10
170.90642146585441
 20
101.0355076903983
 30
0.0
 11
170.90642146585441
 21
61.232365962354798
 31
0.0
  0
LINE
  5
959
  8
0
 10
171.90641604183179
 20
101.0355076903983
 30
0.0
 11
171.90641604183179
 21
61.232365962354798
 31
0.0
  0
LINE
  5
95B
  8
0
 10
189.90641526697141
 20
61.232365962354798
 30
0.0
 11
189.90641526697141
 21
88.471357073871758
 31
0.0
  0
LINE
  5
960
  8
0
 10
321.90642200229632
 20
100.5069355631753
 30
0.0
 11
321.90642200229632
 21
101.0355076903983
 31
0.0
  0
LINE
  5
963
  8
0
 10
178.96091632364249
 20
46.232365366308358
 30
0.0
 11
181.4064203929708
 21
46.232365366308358
 31
0.0
  0
LINE
  5
964
  8
0
 10
178.40642176387769
 20
46.786865514008667
 30
0.0
 11
181.4064203929708
 21
46.786865514008667
 31
0.0
  0
LINE
  5
965
  8
0
 10
181.4064203929708
 20
46.786865514008667
 30
0.0
 11
184.406419022064
 21
46.786865514008667
 31
0.0
  0
LINE
  5
967
  8
0
 10
181.4064203929708
 20
46.232365366308358
 30
0.0
 11
183.85191701171851
 21
46.232365366308358
 31
0.0
  0
LINE
  5
968
  8
0
  6
BYBLOCK
 10
187.4064176511572
 20
55.132365148751397
 30
0.0
 11
187.4064176511572
 21
56.732366156069901
 31
0.0
  0
LINE
  5
969
  8
0
  6
BYBLOCK
 10
175.40641568420389
 20
56.732366156069901
 30
0.0
 11
175.40641568420389
 21
55.132365148751397
 31
0.0
  0
LINE
  5
96A
  8
0
 10
184.406419022064
 20
56.732366156069901
 30
0.0
 11
184.406419022064
 21
61.232365962354798
 31
0.0
  0
LINE
  5
96B
  8
0
 10
184.406419022064
 20
46.786865514008667
 30
0.0
 11
184.406419022064
 21
51.93236499675956
 31
0.0
  0
LINE
  5
96C
  8
0
 10
178.40642176387769
 20
46.786865514008667
 30
0.0
 11
178.96091632364249
 21
46.232365366308358
 31
0.0
  0
LINE
  5
96D
  8
0
 10
178.40642176387769
 20
51.93236499675956
 30
0.0
 11
178.40642176387769
 21
46.786865514008667
 31
0.0
  0
LINE
  5
96E
  8
0
 10
178.40642176387769
 20
61.232365962354798
 30
0.0
 11
178.40642176387769
 21
56.732366156069901
 31
0.0
  0
LINE
  5
96F
  8
0
 10
183.85191701171851
 20
46.232365366308358
 30
0.0
 11
184.406419022064
 21
46.786865514008667
 31
0.0
  0
LINE
  5
970
  8
1
 10
165.90642146585441
 20
206.3992780597039
 30
0.0
 11
329.90642063138932
 21
206.3992780597039
 31
0.0
  0
LINE
  5
971
  8
1
 10
171.41444918230329
 20
216.3992777779788
 30
0.0
 11
191.41444918230329
 21
216.3992777779788
 31
0.0
  0
LINE
  5
972
  8
1
 10
181.40641841584849
 20
226.39927455331781
 30
0.0
 11
181.40641841584869
 21
206.39927243694029
 31
0.0
  0
LINE
  5
973
  8
1
 10
57.716523498648932
 20
41.232365366308358
 30
0.0
 11
57.716523498648932
 21
122.23236429342479
 31
0.0
  0
LINE
  5
974
  8
1
 10
77.716523517275391
 20
41.232365366308358
 30
0.0
 11
77.716523517275505
 21
122.23236429342479
 31
0.0
  0
LINE
  5
975
  8
1
 10
67.716523682585134
 20
56.232365962354798
 30
0.0
 11
67.716523682585205
 21
124.23236429342479
 31
0.0
  0
LINE
  5
976
  8
1
 10
181.4064203929708
 20
41.232365366308358
 30
0.0
 11
181.4064203929708
 21
114.1240061937648
 31
0.0
  0
CIRCLE
  5
97B
  8
0
 10
181.41444918230329
 20
216.3992777779788
 30
0.0
 40
5.0
  0
LINE
  5
97C
  8
1
 10
171.4064203929708
 20
196.39927243694041
 30
0.0
 11
191.4064203929708
 21
196.39927243694041
 31
0.0
  0
LINE
  5
97D
  8
1
 10
181.4064203929708
 20
206.39927243694049
 30
0.0
 11
181.4064203929708
 21
186.39927243694049
 31
0.0
  0
CIRCLE
  5
97E
  8
0
 10
181.4064203929708
 20
196.39927243694049
 30
0.0
 40
5.0
  0
LINE
  5
9BC
  8
3
 10
55.258023498648861
 20
61.232365962354798
 30
0.0
 11
55.258023498648811
 21
56.732366156069901
 31
0.0
  0
LINE
  5
9BD
  8
3
 10
60.175023498649011
 20
61.232365962354798
 30
0.0
 11
60.175023498649011
 21
56.732366156069901
 31
0.0
  0
LINE
  5
9BE
  8
3
 10
55.258023498648861
 20
51.93236499675956
 30
0.0
 11
55.258023498648932
 21
46.2453654879317
 31
0.0
  0
LINE
  5
9BF
  8
3
 10
60.175023498649068
 20
51.93236499675956
 30
0.0
 11
60.175023498649011
 21
46.245365487931693
 31
0.0
  0
LINE
  5
9C0
  8
3
 10
80.175023517275463
 20
61.232365962354798
 30
0.0
 11
80.175023517275463
 21
56.732366156069901
 31
0.0
  0
LINE
  5
9C1
  8
3
 10
75.258023517275319
 20
61.232365962354798
 30
0.0
 11
75.258023517275262
 21
56.732366156069901
 31
0.0
  0
LINE
  5
9C2
  8
3
 10
75.258023517275319
 20
51.93236499675956
 30
0.0
 11
75.258023517275376
 21
46.2453654879317
 31
0.0
  0
LINE
  5
9C3
  8
3
 10
80.17502351727552
 20
51.93236499675956
 30
0.0
 11
80.175023517275463
 21
46.245365487931693
 31
0.0
  0
LINE
  5
9C4
  8
3
 10
178.9479203929709
 20
61.232365962354798
 30
0.0
 11
178.9479203929709
 21
56.732366156069901
 31
0.0
  0
LINE
  5
9C5
  8
3
 10
183.8649203929709
 20
61.232365962354798
 30
0.0
 11
183.8649203929709
 21
56.732366156069901
 31
0.0
  0
LINE
  5
9C6
  8
3
 10
178.9479203929709
 20
51.93236499675956
 30
0.0
 11
178.94792039297079
 21
46.245361427946847
 31
0.0
  0
LINE
  5
9C7
  8
3
 10
183.8649203929709
 20
51.93236499675956
 30
0.0
 11
183.8649203929709
 21
46.245368703880573
 31
0.0
  0
CIRCLE
  5
9E0
  8
0
 10
181.40641841584861
 20
216.3992777779788
 30
0.0
 40
6.0
  0
CIRCLE
  5
9E1
  8
0
 10
181.4064203929708
 20
196.39927671979021
 30
0.0
 40
6.0
  0
CIRCLE
  5
AAE
  8
0
 10
181.4064203929708
 20
196.39927243694049
 30
0.0
 40
4.4000048329086781
  0
CIRCLE
  5
AAF
  8
0
 10
181.40641841584861
 20
216.3992777779788
 30
0.0
 40
4.4000003362274072
  0
POLYLINE
  5
B63
  8
0
 66
     1
 10
0.0
 20
0.0
 30
0.0
 70
     2
  0
VERTEX
  5
B77
  8
0
 10
54.829772297645142
 20
54.685784798352387
 30
0.0
 42
0.0045774445615652
  0
VERTEX
  5
B7F
  8
0
 10
54.687269756057511
 20
54.762354220673387
 30
0.0
 42
0.0092735553481038
 70
     1
  0
VERTEX
  5
B78
  8
0
 10
54.615905739838787
 20
54.798188609099192
 30
0.0
 42
0.0011531260689187
  0
VERTEX
  5
B80
  8
0
 10
54.38216173253749
 20
54.909518883165219
 30
0.0
 42
0.0059934556213194
 70
     1
  0
VERTEX
  5
B79
  8
0
 10
54.336886848611961
 20
54.93029432339992
 30
0.0
 42
0.0183824550066066
  0
VERTEX
  5
B81
  8
0
 10
54.21509399061609
 20
54.979146382277627
 30
0.0
 42
0.0169518072702298
 70
     1
  0
VERTEX
  5
B7A
  8
0
 10
54.07961869589176
 20
55.02266235167923
 30
0.0
 42
0.019251484252239
  0
VERTEX
  5
B82
  8
0
 10
53.899449166834408
 20
55.066447667638101
 30
0.0
 42
0.0190731231232712
 70
     1
  0
VERTEX
  5
B7B
  8
0
 10
53.714746104896378
 20
55.09658885495088
 30
0.0
 42
0.0012382426837052
  0
VERTEX
  5
B84
  8
0
 10
53.673583624964522
 20
55.101599951765358
 30
0.0
 42
0.0004038370678018
 70
     1
  0
VERTEX
  5
B7C
  8
0
 10
53.547321879912033
 20
55.116550342153161
 30
0.0
 42
0.0047730082200499
  0
VERTEX
  5
B83
  8
0
 10
53.491563649101408
 20
55.122567860693088
 30
0.0
 42
0.0025342643801518
 70
     1
  0
VERTEX
  5
B7D
  8
0
 10
53.386396464312682
 20
55.132365148751397
 30
0.0
  0
SEQEND
  5
B7E
  8
0
  0
POLYLINE
  5
B64
  8
0
 66
     1
 10
0.0
 20
0.0
 30
0.0
 70
     2
  0
VERTEX
  5
B65
  8
0
 10
53.386396464312682
 20
55.132365148751397
 30
0.0
 42
0.001620307786448
  0
VERTEX
  5
B6F
  8
0
 10
53.302039136620813
 20
55.124614388069908
 30
0.0
 42
0.003288453936274
 70
     1
  0
VERTEX
  5
B66
  8
0
 10
53.260513216992337
 20
55.120387475319028
 30
0.0
 42
0.0001264625646596
  0
VERTEX
  5
B70
  8
0
 10
53.135015755677159
 20
55.106746500320689
 30
0.0
 42
0.0011554009441844
 70
     1
  0
VERTEX
  5
B67
  8
0
 10
53.121283486313651
 20
55.10521823646409
 30
0.0
 42
0.0075271895813844
  0
VERTEX
  5
B71
  8
0
 10
53.059066220327622
 20
55.097198072971423
 30
0.0
 42
0.0040708857903
 70
     1
  0
VERTEX
  5
B68
  8
0
 10
52.944404130556357
 20
55.079704996536577
 30
0.0
 42
0.0133757572452958
  0
VERTEX
  5
B72
  8
0
 10
52.842406166883961
 20
55.060481290602503
 30
0.0
 42
0.0121985468293687
 70
     1
  0
VERTEX
  5
B69
  8
0
 10
52.731792182271953
 20
55.03371307312274
 30
0.0
 42
0.0112578108510823
  0
VERTEX
  5
B73
  8
0
 10
52.642185806381569
 20
55.007524540736142
 30
0.0
 42
0.012182912564987
 70
     1
  0
VERTEX
  5
B6A
  8
0
 10
52.560606893745927
 20
54.979470310984119
 30
0.0
 42
0.007326600809374
  0
VERTEX
  5
B74
  8
0
 10
52.468801284583947
 20
54.943837003223223
 30
0.0
 42
0.0090748545892854
 70
     1
  0
VERTEX
  5
B6B
  8
0
 10
52.3956631327789
 20
54.912652126640971
 30
0.0
 42
0.0051494895896943
  0
VERTEX
  5
B76
  8
0
 10
52.383551599423761
 20
54.90707567014578
 30
0.0
 42
0.0003578031228141
 70
     1
  0
VERTEX
  5
B6C
  8
0
 10
52.210141962542721
 20
54.824906662877488
 30
0.0
 42
0.0092363364059377
  0
VERTEX
  5
B75
  8
0
 10
52.107158493809379
 20
54.773666431852462
 30
0.0
 42
0.0057060325370452
 70
     1
  0
VERTEX
  5
B6D
  8
0
 10
51.943020863810709
 20
54.68578479835238
 30
0.0
  0
SEQEND
  5
B6E
  8
0
  0
POLYLINE
  5
B85
  8
0
 66
     1
 10
0.0
 20
0.0
 30
0.0
 70
     2
  0
VERTEX
  5
B86
  8
0
 10
54.829772297645142
 20
52.378947209803727
 30
0.0
 42
-0.0045774445615652
  0
VERTEX
  5
B87
  8
0
 10
54.687269756057511
 20
52.302377787482719
 30
0.0
 42
-0.0092735553481038
 70
     1
  0
VERTEX
  5
B88
  8
0
 10
54.615905739838787
 20
52.266543399056921
 30
0.0
 42
-0.0011531260689187
  0
VERTEX
  5
B89
  8
0
 10
54.38216173253749
 20
52.155213124990887
 30
0.0
 42
-0.0059934556213194
 70
     1
  0
VERTEX
  5
B8A
  8
0
 10
54.336886848611961
 20
52.134437684756193
 30
0.0
 42
-0.0183824550066066
  0
VERTEX
  5
B8B
  8
0
 10
54.21509399061609
 20
52.08558562587848
 30
0.0
 42
-0.0169518072702298
 70
     1
  0
VERTEX
  5
B8C
  8
0
 10
54.07961869589176
 20
52.04206965647689
 30
0.0
 42
-0.019251484252239
  0
VERTEX
  5
B8D
  8
0
 10
53.899449166834408
 20
51.998284340518012
 30
0.0
 42
-0.0190731231232712
 70
     1
  0
VERTEX
  5
B8E
  8
0
 10
53.714746104896378
 20
51.968143153205233
 30
0.0
 42
-0.0012382426837052
  0
VERTEX
  5
B8F
  8
0
 10
53.673583624964522
 20
51.963132056390748
 30
0.0
 42
-0.0004038370678018
 70
     1
  0
VERTEX
  5
B90
  8
0
 10
53.547321879912033
 20
51.948181666002952
 30
0.0
 42
-0.0047730082200499
  0
VERTEX
  5
B91
  8
0
 10
53.491563649101408
 20
51.942164147463018
 30
0.0
 42
-0.0025342643801518
 70
     1
  0
VERTEX
  5
B92
  8
0
 10
53.386396464312682
 20
51.932366859404709
 30
0.0
  0
SEQEND
  5
B93
  8
0
  0
POLYLINE
  5
B94
  8
0
 66
     1
 10
0.0
 20
0.0
 30
0.0
 70
     2
  0
VERTEX
  5
B95
  8
0
 10
53.386396464312682
 20
51.932366859404709
 30
0.0
 42
-0.001620307786448
  0
VERTEX
  5
B96
  8
0
 10
53.302039136620813
 20
51.940117620086198
 30
0.0
 42
-0.003288453936274
 70
     1
  0
VERTEX
  5
B97
  8
0
 10
53.260513216992337
 20
51.944344532837079
 30
0.0
 42
-0.0001264625646596
  0
VERTEX
  5
B98
  8
0
 10
53.135015755677159
 20
51.957985507835417
 30
0.0
 42
-0.0011554009441844
 70
     1
  0
VERTEX
  5
B99
  8
0
 10
53.121283486313651
 20
51.959513771692023
 30
0.0
 42
-0.0075271895813844
  0
VERTEX
  5
B9A
  8
0
 10
53.059066220327622
 20
51.96753393518469
 30
0.0
 42
-0.0040708857903
 70
     1
  0
VERTEX
  5
B9B
  8
0
 10
52.944404130556357
 20
51.985027011619529
 30
0.0
 42
-0.0133757572452958
  0
VERTEX
  5
B9C
  8
0
 10
52.842406166883961
 20
52.00425071755361
 30
0.0
 42
-0.0121985468293687
 70
     1
  0
VERTEX
  5
B9D
  8
0
 10
52.731792182271953
 20
52.031018935033373
 30
0.0
 42
-0.0112578108510823
  0
VERTEX
  5
B9E
  8
0
 10
52.642185806381569
 20
52.057207467419971
 30
0.0
 42
-0.012182912564987
 70
     1
  0
VERTEX
  5
B9F
  8
0
 10
52.560606893745927
 20
52.085261697171987
 30
0.0
 42
-0.007326600809374
  0
VERTEX
  5
BA0
  8
0
 10
52.468801284583947
 20
52.120895004932891
 30
0.0
 42
-0.0090748545892854
 70
     1
  0
VERTEX
  5
BA1
  8
0
 10
52.3956631327789
 20
52.152079881515142
 30
0.0
 42
-0.0051494895896943
  0
VERTEX
  5
BA2
  8
0
 10
52.383551599423761
 20
52.157656338010327
 30
0.0
 42
-0.0003578031228141
 70
     1
  0
VERTEX
  5
BA3
  8
0
 10
52.210141962542721
 20
52.239825345278618
 30
0.0
 42
-0.0092363364059377
  0
VERTEX
  5
BA4
  8
0
 10
52.107158493809379
 20
52.291065576303652
 30
0.0
 42
-0.0057060325370452
 70
     1
  0
VERTEX
  5
BA5
  8
0
 10
51.943020863810709
 20
52.378947209803727
 30
0.0
  0
SEQEND
  5
BA6
  8
0
  0
POLYLINE
  5
BA8
  8
0
 66
     1
 10
0.0
 20
0.0
 30
0.0
 70
     2
  0
VERTEX
  5
BA9
  8
0
 10
54.829772297645142
 20
54.685784798352387
 30
0.0
 42
-0.0005069331852106
  0
VERTEX
  5
BB8
  8
0
 10
54.960891361892209
 20
54.720660743927063
 30
0.0
 42
-0.0008916050767957
 70
     1
  0
VERTEX
  5
BAA
  8
0
 10
55.035495953080783
 20
54.740281310687209
 30
0.0
 42
-0.0000041946689673
  0
VERTEX
  5
BB9
  8
0
 10
55.191356163515593
 20
54.780973212767996
 30
0.0
 42
-0.0003116139930013
 70
     1
  0
VERTEX
  5
BAB
  8
0
 10
55.193454560068673
 20
54.781519645552883
 30
0.0
 42
-0.0012216565710883
  0
VERTEX
  5
BBA
  8
0
 10
55.23989727190564
 20
54.79346160111799
 30
0.0
 42
-0.0004794583343022
 70
     1
  0
VERTEX
  5
BAC
  8
0
 10
55.358335673912002
 20
54.823486804210539
 30
0.0
 42
-0.0028904191088831
  0
VERTEX
  5
BBB
  8
0
 10
55.490162488170881
 20
54.855962111173312
 30
0.0
 42
-0.0024055881964484
 70
     1
  0
VERTEX
  5
BAD
  8
0
 10
55.648962157623913
 20
54.89330262998218
 30
0.0
 42
-0.0028561843217706
  0
VERTEX
  5
BBC
  8
0
 10
55.755771432737667
 20
54.91723473428862
 30
0.0
 42
-0.0027121164662465
 70
     1
  0
VERTEX
  5
BAE
  8
0
 10
55.868528033394007
 20
54.941183882758253
 30
0.0
 42
-0.0026097054553793
  0
VERTEX
  5
BBD
  8
0
 10
55.95237153249581
 20
54.958061391231013
 30
0.0
 42
-0.0022510147746306
 70
     1
  0
VERTEX
  5
BAF
  8
0
 10
56.049760627613281
 20
54.976682367064342
 30
0.0
 42
-0.0039102563075925
  0
VERTEX
  5
BBE
  8
0
 10
56.143767889820531
 20
54.993458738999038
 30
0.0
 42
-0.0032475178015132
 70
     1
  0
VERTEX
  5
BB0
  8
0
 10
56.257236748735863
 20
55.012036257199988
 30
0.0
 42
-0.0048648396311696
  0
VERTEX
  5
BBF
  8
0
 10
56.381009076560531
 20
55.030243990348602
 30
0.0
 42
-0.0045921401180325
 70
     1
  0
VERTEX
  5
BB1
  8
0
 10
56.512472511460551
 20
55.04704959984803
 30
0.0
 42
-0.0029481189368251
  0
VERTEX
  5
BC0
  8
0
 10
56.637574313075667
 20
55.061128095403042
 30
0.0
 42
-0.003423147559634
 70
     1
  0
VERTEX
  5
BB2
  8
0
 10
56.745461870756252
 20
55.071879115241558
 30
0.0
 42
-0.0023029020329513
  0
VERTEX
  5
BC1
  8
0
 10
56.87402698333063
 20
55.083205331804322
 30
0.0
 42
-0.0028303897134985
 70
     1
  0
VERTEX
  5
BB3
  8
0
 10
56.978721342746148
 20
55.091346351532508
 30
0.0
 42
-0.002247098492506
  0
VERTEX
  5
BC2
  8
0
 10
57.168149108239049
 20
55.104142428798809
 30
0.0
 42
-0.0027590171461636
 70
     1
  0
VERTEX
  5
BB4
  8
0
 10
57.322526724256299
 20
55.113019109050541
 30
0.0
 42
-0.0003297148383123
  0
VERTEX
  5
BC4
  8
0
 10
57.33266073529375
 20
55.113539024720922
 30
0.0
 42
-0.0000153120758189
 70
     1
  0
VERTEX
  5
BB5
  8
0
 10
57.550883985273927
 20
55.124583781432747
 30
0.0
 42
-0.0008988346095479
  0
VERTEX
  5
BC3
  8
0
 10
57.600486889710737
 20
55.127003380450681
 30
0.0
 42
-0.0003842755620313
 70
     1
  0
VERTEX
  5
BB6
  8
0
 10
57.71652396431034
 20
55.132365148751397
 30
0.0
  0
SEQEND
  5
BB7
  8
0
  0
POLYLINE
  5
BC5
  8
0
 66
     1
 10
0.0
 20
0.0
 30
0.0
 70
     2
  0
VERTEX
  5
BC6
  8
0
 10
60.603275376198141
 20
54.685783151442273
 30
0.0
 42
0.0005069331852106
  0
VERTEX
  5
BC7
  8
0
 10
60.472156331848048
 20
54.720659171821197
 30
0.0
 42
0.0008916050767957
 70
     1
  0
VERTEX
  5
BC8
  8
0
 10
60.39755175185315
 20
54.740279781143741
 30
0.0
 42
0.0000041946689673
  0
VERTEX
  5
BC9
  8
0
 10
60.241691564633349
 20
54.780971772143758
 30
0.0
 42
0.0003116139930013
 70
     1
  0
VERTEX
  5
BCA
  8
0
 10
60.23959316839202
 20
54.781518206125803
 30
0.0
 42
0.0012216565710883
  0
VERTEX
  5
BCB
  8
0
 10
60.193150463367999
 20
54.793460188186771
 30
0.0
 42
0.0004794583343022
 70
     1
  0
VERTEX
  5
BCC
  8
0
 10
60.074712078491252
 20
54.82348545884917
 30
0.0
 42
0.0028904191088831
  0
VERTEX
  5
BCD
  8
0
 10
59.942885282759747
 20
54.855960841019971
 30
0.0
 42
0.0024055881964484
 70
     1
  0
VERTEX
  5
BCE
  8
0
 10
59.784085634609767
 20
54.893301450425049
 30
0.0
 42
0.0028561843217706
  0
VERTEX
  5
BCF
  8
0
 10
59.677276373149432
 20
54.917233615666873
 30
0.0
 42
0.0027121164662465
 70
     1
  0
VERTEX
  5
BD0
  8
0
 10
59.564519786156247
 20
54.941182828464861
 30
0.0
 42
0.0026097054553793
  0
VERTEX
  5
BD1
  8
0
 10
59.480676296683193
 20
54.958060384770853
 30
0.0
 42
0.0022510147746306
 70
     1
  0
VERTEX
  5
BD2
  8
0
 10
59.383287212189117
 20
54.976681416165277
 30
0.0
 42
0.0039102563075925
  0
VERTEX
  5
BD3
  8
0
 10
59.289279959552907
 20
54.993457841731711
 30
0.0
 42
0.0032475178015132
 70
     1
  0
VERTEX
  5
BD4
  8
0
 10
59.1758111112362
 20
55.012035424667367
 30
0.0
 42
0.0048648396311696
  0
VERTEX
  5
BD5
  8
0
 10
59.05203879379917
 20
55.030243228428859
 30
0.0
 42
0.0045921401180325
 70
     1
  0
VERTEX
  5
BD6
  8
0
 10
58.92057536848688
 20
55.047048912929029
 30
0.0
 42
0.0029481189368251
  0
VERTEX
  5
BD7
  8
0
 10
58.795473574903639
 20
55.061127479855401
 30
0.0
 42
0.003423147559634
 70
     1
  0
VERTEX
  5
BD8
  8
0
 10
58.687586023356609
 20
55.071878561244468
 30
0.0
 42
0.0023029020329513
  0
VERTEX
  5
BD9
  8
0
 10
58.559020917243942
 20
55.083204851154441
 30
0.0
 42
0.0028303897134985
 70
     1
  0
VERTEX
  5
BDA
  8
0
 10
58.454326562472929
 20
55.091345930611418
 30
0.0
 42
0.002247098492506
  0
VERTEX
  5
BDB
  8
0
 10
58.264898804280307
 20
55.104142115947461
 30
0.0
 42
0.0027590171461636
 70
     1
  0
VERTEX
  5
BDC
  8
0
 10
58.11052119332728
 20
55.113018884272613
 30
0.0
 42
0.0003297148383123
  0
VERTEX
  5
BDD
  8
0
 10
58.100387182586452
 20
55.113538805724509
 30
0.0
 42
0.0000153120758189
 70
     1
  0
VERTEX
  5
BDE
  8
0
 10
57.882163938907411
 20
55.124583686934081
 30
0.0
 42
0.0008988346095479
  0
VERTEX
  5
BDF
  8
0
 10
57.832561035851008
 20
55.127003314250778
 30
0.0
 42
0.0003842755620313
 70
     1
  0
VERTEX
  5
BE0
  8
0
 10
57.716523964310348
 20
55.132365148751397
 30
0.0
  0
SEQEND
  5
BE1
  8
0
  0
POLYLINE
  5
BE2
  8
0
 66
     1
 10
0.0
 20
0.0
 30
0.0
 70
     2
  0
VERTEX
  5
BE3
  8
0
 10
60.603275376198141
 20
52.378948856713841
 30
0.0
 42
-0.0005069331852106
  0
VERTEX
  5
BE4
  8
0
 10
60.472156331848048
 20
52.344072836334909
 30
0.0
 42
-0.0008916050767957
 70
     1
  0
VERTEX
  5
BE5
  8
0
 10
60.39755175185315
 20
52.324452227012372
 30
0.0
 42
-0.0000041946689673
  0
VERTEX
  5
BE6
  8
0
 10
60.241691564633349
 20
52.283760236012348
 30
0.0
 42
-0.0003116139930013
 70
     1
  0
VERTEX
  5
BE7
  8
0
 10
60.23959316839202
 20
52.283213802030311
 30
0.0
 42
-0.0012216565710883
  0
VERTEX
  5
BE8
  8
0
 10
60.193150463367999
 20
52.271271819969343
 30
0.0
 42
-0.0004794583343022
 70
     1
  0
VERTEX
  5
BE9
  8
0
 10
60.074712078491252
 20
52.241246549306943
 30
0.0
 42
-0.0028904191088831
  0
VERTEX
  5
BEA
  8
0
 10
59.942885282759747
 20
52.208771167136142
 30
0.0
 42
-0.0024055881964484
 70
     1
  0
VERTEX
  5
BEB
  8
0
 10
59.784085634609767
 20
52.171430557731057
 30
0.0
 42
-0.0028561843217706
  0
VERTEX
  5
BEC
  8
0
 10
59.677276373149432
 20
52.14749839248924
 30
0.0
 42
-0.0027121164662465
 70
     1
  0
VERTEX
  5
BED
  8
0
 10
59.564519786156247
 20
52.123549179691253
 30
0.0
 42
-0.0026097054553793
  0
VERTEX
  5
BEE
  8
0
 10
59.480676296683193
 20
52.10667162338526
 30
0.0
 42
-0.0022510147746306
 70
     1
  0
VERTEX
  5
BEF
  8
0
 10
59.383287212189117
 20
52.088050591990829
 30
0.0
 42
-0.0039102563075925
  0
VERTEX
  5
BF0
  8
0
 10
59.289279959552907
 20
52.071274166424402
 30
0.0
 42
-0.0032475178015132
 70
     1
  0
VERTEX
  5
BF1
  8
0
 10
59.1758111112362
 20
52.052696583488739
 30
0.0
 42
-0.0048648396311696
  0
VERTEX
  5
BF2
  8
0
 10
59.05203879379917
 20
52.034488779727248
 30
0.0
 42
-0.0045921401180325
 70
     1
  0
VERTEX
  5
BF3
  8
0
 10
58.92057536848688
 20
52.017683095227078
 30
0.0
 42
-0.0029481189368251
  0
VERTEX
  5
BF4
  8
0
 10
58.795473574903639
 20
52.003604528300713
 30
0.0
 42
-0.003423147559634
 70
     1
  0
VERTEX
  5
BF5
  8
0
 10
58.687586023356609
 20
51.992853446911639
 30
0.0
 42
-0.0023029020329513
  0
VERTEX
  5
BF6
  8
0
 10
58.559020917243942
 20
51.981527157001672
 30
0.0
 42
-0.0028303897134985
 70
     1
  0
VERTEX
  5
BF7
  8
0
 10
58.454326562472929
 20
51.973386077544689
 30
0.0
 42
-0.002247098492506
  0
VERTEX
  5
BF8
  8
0
 10
58.264898804280307
 20
51.960589892208652
 30
0.0
 42
-0.0027590171461636
 70
     1
  0
VERTEX
  5
BF9
  8
0
 10
58.11052119332728
 20
51.951713123883501
 30
0.0
 42
-0.0003297148383123
  0
VERTEX
  5
BFA
  8
0
 10
58.100387182586452
 20
51.951193202431597
 30
0.0
 42
-0.0000153120758189
 70
     1
  0
VERTEX
  5
BFB
  8
0
 10
57.882163938907411
 20
51.940148321222033
 30
0.0
 42
-0.0008988346095479
  0
VERTEX
  5
BFC
  8
0
 10
57.832561035851008
 20
51.937728693905328
 30
0.0
 42
-0.0003842755620313
 70
     1
  0
VERTEX
  5
BFD
  8
0
 10
57.716523964310348
 20
51.932366859404709
 30
0.0
  0
SEQEND
  5
BFE
  8
0
  0
POLYLINE
  5
BFF
  8
0
 66
     1
 10
0.0
 20
0.0
 30
0.0
 70
     2
  0
VERTEX
  5
C00
  8
0
 10
54.829772297645142
 20
52.378947209803727
 30
0.0
 42
0.0005069331852106
  0
VERTEX
  5
C01
  8
0
 10
54.960891361892209
 20
52.344071264229051
 30
0.0
 42
0.0008916050767957
 70
     1
  0
VERTEX
  5
C02
  8
0
 10
55.035495953080783
 20
52.324450697468897
 30
0.0
 42
0.0000041946689673
  0
VERTEX
  5
C03
  8
0
 10
55.191356163515593
 20
52.28375879538811
 30
0.0
 42
0.0003116139930013
 70
     1
  0
VERTEX
  5
C04
  8
0
 10
55.193454560068673
 20
52.28321236260323
 30
0.0
 42
0.0012216565710883
  0
VERTEX
  5
C05
  8
0
 10
55.23989727190564
 20
52.271270407038124
 30
0.0
 42
0.0004794583343022
 70
     1
  0
VERTEX
  5
C06
  8
0
 10
55.358335673912002
 20
52.241245203945567
 30
0.0
 42
0.0028904191088831
  0
VERTEX
  5
C07
  8
0
 10
55.490162488170881
 20
52.208769896982801
 30
0.0
 42
0.0024055881964484
 70
     1
  0
VERTEX
  5
C08
  8
0
 10
55.648962157623913
 20
52.171429378173933
 30
0.0
 42
0.0028561843217706
  0
VERTEX
  5
C09
  8
0
 10
55.755771432737667
 20
52.147497273867486
 30
0.0
 42
0.0027121164662465
 70
     1
  0
VERTEX
  5
C0A
  8
0
 10
55.868528033394007
 20
52.123548125397861
 30
0.0
 42
0.0026097054553793
  0
VERTEX
  5
C0B
  8
0
 10
55.95237153249581
 20
52.106670616925101
 30
0.0
 42
0.0022510147746306
 70
     1
  0
VERTEX
  5
C0C
  8
0
 10
56.049760627613281
 20
52.088049641091779
 30
0.0
 42
0.0039102563075925
  0
VERTEX
  5
C0D
  8
0
 10
56.143767889820531
 20
52.071273269157068
 30
0.0
 42
0.0032475178015132
 70
     1
  0
VERTEX
  5
C0E
  8
0
 10
56.257236748735863
 20
52.052695750956119
 30
0.0
 42
0.0048648396311696
  0
VERTEX
  5
C0F
  8
0
 10
56.381009076560531
 20
52.034488017807512
 30
0.0
 42
0.0045921401180325
 70
     1
  0
VERTEX
  5
C10
  8
0
 10
56.512472511460551
 20
52.017682408308083
 30
0.0
 42
0.0029481189368251
  0
VERTEX
  5
C11
  8
0
 10
56.637574313075667
 20
52.003603912753078
 30
0.0
 42
0.003423147559634
 70
     1
  0
VERTEX
  5
C12
  8
0
 10
56.745461870756252
 20
51.992852892914549
 30
0.0
 42
0.0023029020329513
  0
VERTEX
  5
C13
  8
0
 10
56.87402698333063
 20
51.981526676351791
 30
0.0
 42
0.0028303897134985
 70
     1
  0
VERTEX
  5
C14
  8
0
 10
56.978721342746148
 20
51.973385656623599
 30
0.0
 42
0.002247098492506
  0
VERTEX
  5
C15
  8
0
 10
57.168149108239049
 20
51.960589579357297
 30
0.0
 42
0.0027590171461636
 70
     1
  0
VERTEX
  5
C16
  8
0
 10
57.322526724256299
 20
51.951712899105573
 30
0.0
 42
0.0003297148383123
  0
VERTEX
  5
C17
  8
0
 10
57.33266073529375
 20
51.951192983435192
 30
0.0
 42
0.0000153120758189
 70
     1
  0
VERTEX
  5
C18
  8
0
 10
57.550883985273927
 20
51.940148226723359
 30
0.0
 42
0.0008988346095479
  0
VERTEX
  5
C19
  8
0
 10
57.600486889710737
 20
51.937728627705432
 30
0.0
 42
0.0003842755620313
 70
     1
  0
VERTEX
  5
C1A
  8
0
 10
57.71652396431034
 20
51.932366859404709
 30
0.0
  0
SEQEND
  5
C1B
  8
0
  0
POLYLINE
  5
C1C
  8
0
 66
     1
 10
0.0
 20
0.0
 30
0.0
 70
     2
  0
VERTEX
  5
C1D
  8
0
 10
60.603274699652722
 20
54.685784798352387
 30
0.0
 42
-0.0045774445615652
  0
VERTEX
  5
C1E
  8
0
 10
60.745777241240361
 20
54.762354220673402
 30
0.0
 42
-0.0092735553481038
 70
     1
  0
VERTEX
  5
C1F
  8
0
 10
60.817141257459078
 20
54.798188609099199
 30
0.0
 42
-0.0011531260689187
  0
VERTEX
  5
C20
  8
0
 10
61.050885264760382
 20
54.909518883165227
 30
0.0
 42
-0.0059934556213194
 70
     1
  0
VERTEX
  5
C21
  8
0
 10
61.096160148685911
 20
54.930294323399927
 30
0.0
 42
-0.0183824550066066
  0
VERTEX
  5
C22
  8
0
 10
61.217953006681782
 20
54.979146382277648
 30
0.0
 42
-0.0169518072702298
 70
     1
  0
VERTEX
  5
C23
  8
0
 10
61.353428301406112
 20
55.022662351679237
 30
0.0
 42
-0.019251484252239
  0
VERTEX
  5
C24
  8
0
 10
61.533597830463457
 20
55.066447667638123
 30
0.0
 42
-0.0190731231232712
 70
     1
  0
VERTEX
  5
C25
  8
0
 10
61.718300892401487
 20
55.096588854950902
 30
0.0
 42
-0.0012382426837052
  0
VERTEX
  5
C26
  8
0
 10
61.75946337233335
 20
55.10159995176538
 30
0.0
 42
-0.0004038370678018
 70
     1
  0
VERTEX
  5
C27
  8
0
 10
61.885725117385839
 20
55.116550342153182
 30
0.0
 42
-0.0047730082200499
  0
VERTEX
  5
C28
  8
0
 10
61.941483348196464
 20
55.12256786069311
 30
0.0
 42
-0.0025342643801518
 70
     1
  0
VERTEX
  5
C29
  8
0
 10
62.04665053298519
 20
55.132365148751418
 30
0.0
  0
SEQEND
  5
C2A
  8
0
  0
POLYLINE
  5
C2B
  8
0
 66
     1
 10
0.0
 20
0.0
 30
0.0
 70
     2
  0
VERTEX
  5
C2C
  8
0
 10
62.04665053298519
 20
55.132365148751418
 30
0.0
 42
-0.001620307786448
  0
VERTEX
  5
C2D
  8
0
 10
62.131007860677059
 20
55.124614388069929
 30
0.0
 42
-0.003288453936274
 70
     1
  0
VERTEX
  5
C2E
  8
0
 10
62.172533780305528
 20
55.120387475319042
 30
0.0
 42
-0.0001264625646596
  0
VERTEX
  5
C2F
  8
0
 10
62.298031241620713
 20
55.10674650032071
 30
0.0
 42
-0.0011554009441844
 70
     1
  0
VERTEX
  5
C30
  8
0
 10
62.311763510984207
 20
55.105218236464097
 30
0.0
 42
-0.0075271895813844
  0
VERTEX
  5
C31
  8
0
 10
62.373980776970249
 20
55.097198072971437
 30
0.0
 42
-0.0040708857903
 70
     1
  0
VERTEX
  5
C32
  8
0
 10
62.488642866741507
 20
55.079704996536591
 30
0.0
 42
-0.0133757572452958
  0
VERTEX
  5
C33
  8
0
 10
62.590640830413911
 20
55.06048129060251
 30
0.0
 42
-0.0121985468293687
 70
     1
  0
VERTEX
  5
C34
  8
0
 10
62.701254815025919
 20
55.033713073122762
 30
0.0
 42
-0.0112578108510823
  0
VERTEX
  5
C35
  8
0
 10
62.790861190916303
 20
55.007524540736163
 30
0.0
 42
-0.012182912564987
 70
     1
  0
VERTEX
  5
C36
  8
0
 10
62.872440103551938
 20
54.979470310984127
 30
0.0
 42
-0.007326600809374
  0
VERTEX
  5
C37
  8
0
 10
62.964245712713918
 20
54.94383700322323
 30
0.0
 42
-0.0090748545892854
 70
     1
  0
VERTEX
  5
C38
  8
0
 10
63.037383864518972
 20
54.912652126640992
 30
0.0
 42
-0.0051494895896943
  0
VERTEX
  5
C39
  8
0
 10
63.049495397874111
 20
54.907075670145801
 30
0.0
 42
-0.0003578031228141
 70
     1
  0
VERTEX
  5
C3A
  8
0
 10
63.222905034755151
 20
54.824906662877517
 30
0.0
 42
-0.0092363364059377
  0
VERTEX
  5
C3B
  8
0
 10
63.325888503488493
 20
54.77366643185249
 30
0.0
 42
-0.0057060325370452
 70
     1
  0
VERTEX
  5
C3C
  8
0
 10
63.490026133487163
 20
54.685784798352401
 30
0.0
  0
SEQEND
  5
C3D
  8
0
  0
POLYLINE
  5
C3E
  8
0
 66
     1
 10
0.0
 20
0.0
 30
0.0
 70
     2
  0
VERTEX
  5
C3F
  8
0
 10
62.046650532985211
 20
51.932366859404731
 30
0.0
 42
0.001620307786448
  0
VERTEX
  5
C40
  8
0
 10
62.13100786067708
 20
51.940117620086212
 30
0.0
 42
0.003288453936274
 70
     1
  0
VERTEX
  5
C41
  8
0
 10
62.172533780305542
 20
51.9443445328371
 30
0.0
 42
0.0001264625646596
  0
VERTEX
  5
C42
  8
0
 10
62.298031241620727
 20
51.957985507835431
 30
0.0
 42
0.0011554009441844
 70
     1
  0
VERTEX
  5
C43
  8
0
 10
62.311763510984221
 20
51.959513771692038
 30
0.0
 42
0.0075271895813844
  0
VERTEX
  5
C44
  8
0
 10
62.373980776970257
 20
51.967533935184697
 30
0.0
 42
0.0040708857903
 70
     1
  0
VERTEX
  5
C45
  8
0
 10
62.488642866741522
 20
51.98502701161955
 30
0.0
 42
0.0133757572452958
  0
VERTEX
  5
C46
  8
0
 10
62.590640830413918
 20
52.004250717553631
 30
0.0
 42
0.0121985468293687
 70
     1
  0
VERTEX
  5
C47
  8
0
 10
62.701254815025941
 20
52.03101893503338
 30
0.0
 42
0.0112578108510823
  0
VERTEX
  5
C48
  8
0
 10
62.79086119091631
 20
52.057207467419992
 30
0.0
 42
0.012182912564987
 70
     1
  0
VERTEX
  5
C49
  8
0
 10
62.872440103551952
 20
52.085261697172008
 30
0.0
 42
0.007326600809374
  0
VERTEX
  5
C4A
  8
0
 10
62.964245712713939
 20
52.120895004932912
 30
0.0
 42
0.0090748545892854
 70
     1
  0
VERTEX
  5
C4B
  8
0
 10
63.037383864518979
 20
52.152079881515149
 30
0.0
 42
0.0051494895896943
  0
VERTEX
  5
C4C
  8
0
 10
63.049495397874132
 20
52.157656338010341
 30
0.0
 42
0.0003578031228141
 70
     1
  0
VERTEX
  5
C4D
  8
0
 10
63.222905034755172
 20
52.239825345278639
 30
0.0
 42
0.0092363364059377
  0
VERTEX
  5
C4E
  8
0
 10
63.3258885034885
 20
52.291065576303673
 30
0.0
 42
0.0057060325370452
 70
     1
  0
VERTEX
  5
C4F
  8
0
 10
63.490026133487163
 20
52.378947209803748
 30
0.0
  0
SEQEND
  5
C50
  8
0
  0
POLYLINE
  5
C51
  8
0
 66
     1
 10
0.0
 20
0.0
 30
0.0
 70
     2
  0
VERTEX
  5
C52
  8
0
 10
60.603274699652722
 20
52.378947209803727
 30
0.0
 42
0.0045774445615652
  0
VERTEX
  5
C53
  8
0
 10
60.745777241240368
 20
52.302377787482733
 30
0.0
 42
0.0092735553481038
 70
     1
  0
VERTEX
  5
C54
  8
0
 10
60.817141257459092
 20
52.266543399056921
 30
0.0
 42
0.0011531260689187
  0
VERTEX
  5
C55
  8
0
 10
61.050885264760389
 20
52.155213124990908
 30
0.0
 42
0.0059934556213194
 70
     1
  0
VERTEX
  5
C56
  8
0
 10
61.096160148685918
 20
52.1344376847562
 30
0.0
 42
0.0183824550066066
  0
VERTEX
  5
C57
  8
0
 10
61.217953006681803
 20
52.085585625878501
 30
0.0
 42
0.0169518072702298
 70
     1
  0
VERTEX
  5
C58
  8
0
 10
61.353428301406133
 20
52.04206965647689
 30
0.0
 42
0.019251484252239
  0
VERTEX
  5
C59
  8
0
 10
61.533597830463471
 20
51.998284340518019
 30
0.0
 42
0.0190731231232712
 70
     1
  0
VERTEX
  5
C5A
  8
0
 10
61.718300892401501
 20
51.96814315320524
 30
0.0
 42
0.0012382426837052
  0
VERTEX
  5
C5B
  8
0
 10
61.759463372333357
 20
51.963132056390762
 30
0.0
 42
0.0004038370678018
 70
     1
  0
VERTEX
  5
C5C
  8
0
 10
61.885725117385853
 20
51.948181666002952
 30
0.0
 42
0.0047730082200499
  0
VERTEX
  5
C5D
  8
0
 10
61.941483348196471
 20
51.942164147463032
 30
0.0
 42
0.0025342643801518
 70
     1
  0
VERTEX
  5
C5E
  8
0
 10
62.046650532985211
 20
51.932366859404731
 30
0.0
  0
SEQEND
  5
C5F
  8
0
  0
POLYLINE
  5
C60
  8
0
 66
     1
 10
0.0
 20
0.0
 30
0.0
 70
     2
  0
VERTEX
  5
C61
  8
0
 10
80.603274369033244
 20
52.378947209803712
 30
0.0
 42
0.0045774445615652
  0
VERTEX
  5
C62
  8
0
 10
80.74577691062089
 20
52.302377787482712
 30
0.0
 42
0.0092735553481038
 70
     1
  0
VERTEX
  5
C63
  8
0
 10
80.817140926839613
 20
52.266543399056907
 30
0.0
 42
0.0011531260689187
  0
VERTEX
  5
C64
  8
0
 10
81.050884934140896
 20
52.15521312499088
 30
0.0
 42
0.0059934556213194
 70
     1
  0
VERTEX
  5
C65
  8
0
 10
81.09615981806644
 20
52.134437684756179
 30
0.0
 42
0.0183824550066066
  0
VERTEX
  5
C66
  8
0
 10
81.217952676062311
 20
52.085585625878473
 30
0.0
 42
0.0169518072702298
 70
     1
  0
VERTEX
  5
C67
  8
0
 10
81.35342797078664
 20
52.042069656476883
 30
0.0
 42
0.019251484252239
  0
VERTEX
  5
C68
  8
0
 10
81.533597499843978
 20
51.998284340517998
 30
0.0
 42
0.0190731231232712
 70
     1
  0
VERTEX
  5
C69
  8
0
 10
81.718300561782016
 20
51.968143153205219
 30
0.0
 42
0.0012382426837052
  0
VERTEX
  5
C6A
  8
0
 10
81.759463041713886
 20
51.963132056390741
 30
0.0
 42
0.0004038370678018
 70
     1
  0
VERTEX
  5
C6B
  8
0
 10
81.88572478676636
 20
51.948181666002938
 30
0.0
 42
0.0047730082200499
  0
VERTEX
  5
C6C
  8
0
 10
81.941483017576985
 20
51.942164147463011
 30
0.0
 42
0.0025342643801518
 70
     1
  0
VERTEX
  5
C6D
  8
0
 10
82.046650202365726
 20
51.932366859404702
 30
0.0
  0
SEQEND
  5
C6E
  8
0
  0
POLYLINE
  5
C6F
  8
0
 66
     1
 10
0.0
 20
0.0
 30
0.0
 70
     2
  0
VERTEX
  5
C70
  8
0
 10
82.046650202365726
 20
51.932366859404702
 30
0.0
 42
0.001620307786448
  0
VERTEX
  5
C71
  8
0
 10
82.131007530057587
 20
51.940117620086191
 30
0.0
 42
0.003288453936274
 70
     1
  0
VERTEX
  5
C72
  8
0
 10
82.172533449686057
 20
51.944344532837079
 30
0.0
 42
0.0001264625646596
  0
VERTEX
  5
C73
  8
0
 10
82.298030911001234
 20
51.95798550783541
 30
0.0
 42
0.0011554009441844
 70
     1
  0
VERTEX
  5
C74
  8
0
 10
82.311763180364736
 20
51.959513771692009
 30
0.0
 42
0.0075271895813844
  0
VERTEX
  5
C75
  8
0
 10
82.373980446350757
 20
51.967533935184683
 30
0.0
 42
0.0040708857903
 70
     1
  0
VERTEX
  5
C76
  8
0
 10
82.488642536122015
 20
51.985027011619522
 30
0.0
 42
0.0133757572452958
  0
VERTEX
  5
C77
  8
0
 10
82.590640499794432
 20
52.00425071755361
 30
0.0
 42
0.0121985468293687
 70
     1
  0
VERTEX
  5
C78
  8
0
 10
82.701254484406462
 20
52.031018935033359
 30
0.0
 42
0.0112578108510823
  0
VERTEX
  5
C79
  8
0
 10
82.790860860296817
 20
52.057207467419957
 30
0.0
 42
0.012182912564987
 70
     1
  0
VERTEX
  5
C7A
  8
0
 10
82.872439772932466
 20
52.085261697171987
 30
0.0
 42
0.007326600809374
  0
VERTEX
  5
C7B
  8
0
 10
82.964245382094447
 20
52.120895004932883
 30
0.0
 42
0.0090748545892854
 70
     1
  0
VERTEX
  5
C7C
  8
0
 10
83.037383533899487
 20
52.152079881515128
 30
0.0
 42
0.0051494895896943
  0
VERTEX
  5
C7D
  8
0
 10
83.049495067254625
 20
52.15765633801032
 30
0.0
 42
0.0003578031228141
 70
     1
  0
VERTEX
  5
C7E
  8
0
 10
83.222904704135686
 20
52.239825345278618
 30
0.0
 42
0.0092363364059377
  0
VERTEX
  5
C7F
  8
0
 10
83.325888172869014
 20
52.291065576303652
 30
0.0
 42
0.0057060325370452
 70
     1
  0
VERTEX
  5
C80
  8
0
 10
83.490025802867677
 20
52.378947209803727
 30
0.0
  0
SEQEND
  5
C81
  8
0
  0
POLYLINE
  5
C82
  8
0
 66
     1
 10
0.0
 20
0.0
 30
0.0
 70
     2
  0
VERTEX
  5
C83
  8
0
 10
82.046650202365711
 20
55.13236514875139
 30
0.0
 42
-0.001620307786448
  0
VERTEX
  5
C84
  8
0
 10
82.131007530057587
 20
55.124614388069901
 30
0.0
 42
-0.003288453936274
 70
     1
  0
VERTEX
  5
C85
  8
0
 10
82.172533449686043
 20
55.120387475319021
 30
0.0
 42
-0.0001264625646596
  0
VERTEX
  5
C86
  8
0
 10
82.298030911001234
 20
55.106746500320682
 30
0.0
 42
-0.0011554009441844
 70
     1
  0
VERTEX
  5
C87
  8
0
 10
82.311763180364736
 20
55.105218236464083
 30
0.0
 42
-0.0075271895813844
  0
VERTEX
  5
C88
  8
0
 10
82.373980446350757
 20
55.097198072971409
 30
0.0
 42
-0.0040708857903
 70
     1
  0
VERTEX
  5
C89
  8
0
 10
82.488642536122015
 20
55.07970499653657
 30
0.0
 42
-0.0133757572452958
  0
VERTEX
  5
C8A
  8
0
 10
82.590640499794432
 20
55.060481290602489
 30
0.0
 42
-0.0121985468293687
 70
     1
  0
VERTEX
  5
C8B
  8
0
 10
82.701254484406434
 20
55.03371307312274
 30
0.0
 42
-0.0112578108510823
  0
VERTEX
  5
C8C
  8
0
 10
82.790860860296817
 20
55.007524540736128
 30
0.0
 42
-0.012182912564987
 70
     1
  0
VERTEX
  5
C8D
  8
0
 10
82.872439772932452
 20
54.979470310984112
 30
0.0
 42
-0.007326600809374
  0
VERTEX
  5
C8E
  8
0
 10
82.964245382094447
 20
54.943837003223209
 30
0.0
 42
-0.0090748545892854
 70
     1
  0
VERTEX
  5
C8F
  8
0
 10
83.037383533899487
 20
54.912652126640957
 30
0.0
 42
-0.0051494895896943
  0
VERTEX
  5
C90
  8
0
 10
83.049495067254625
 20
54.907075670145773
 30
0.0
 42
-0.0003578031228141
 70
     1
  0
VERTEX
  5
C91
  8
0
 10
83.222904704135658
 20
54.824906662877488
 30
0.0
 42
-0.0092363364059377
  0
VERTEX
  5
C92
  8
0
 10
83.325888172869014
 20
54.773666431852462
 30
0.0
 42
-0.0057060325370452
 70
     1
  0
VERTEX
  5
C93
  8
0
 10
83.490025802867677
 20
54.68578479835238
 30
0.0
  0
SEQEND
  5
C94
  8
0
  0
POLYLINE
  5
C95
  8
0
 66
     1
 10
0.0
 20
0.0
 30
0.0
 70
     2
  0
VERTEX
  5
C96
  8
0
 10
80.603274369033244
 20
54.685784798352373
 30
0.0
 42
-0.0045774445615652
  0
VERTEX
  5
C97
  8
0
 10
80.74577691062089
 20
54.762354220673373
 30
0.0
 42
-0.0092735553481038
 70
     1
  0
VERTEX
  5
C98
  8
0
 10
80.817140926839585
 20
54.798188609099178
 30
0.0
 42
-0.0011531260689187
  0
VERTEX
  5
C99
  8
0
 10
81.050884934140896
 20
54.909518883165212
 30
0.0
 42
-0.0059934556213194
 70
     1
  0
VERTEX
  5
C9A
  8
0
 10
81.096159818066425
 20
54.930294323399913
 30
0.0
 42
-0.0183824550066066
  0
VERTEX
  5
C9B
  8
0
 10
81.217952676062311
 20
54.979146382277619
 30
0.0
 42
-0.0169518072702298
 70
     1
  0
VERTEX
  5
C9C
  8
0
 10
81.35342797078664
 20
55.02266235167923
 30
0.0
 42
-0.019251484252239
  0
VERTEX
  5
C9D
  8
0
 10
81.533597499843978
 20
55.066447667638087
 30
0.0
 42
-0.0190731231232712
 70
     1
  0
VERTEX
  5
C9E
  8
0
 10
81.718300561781987
 20
55.09658885495088
 30
0.0
 42
-0.0012382426837052
  0
VERTEX
  5
C9F
  8
0
 10
81.759463041713886
 20
55.101599951765358
 30
0.0
 42
-0.0004038370678018
 70
     1
  0
VERTEX
  5
CA0
  8
0
 10
81.88572478676636
 20
55.116550342153161
 30
0.0
 42
-0.0047730082200499
  0
VERTEX
  5
CA1
  8
0
 10
81.941483017576985
 20
55.122567860693088
 30
0.0
 42
-0.0025342643801518
 70
     1
  0
VERTEX
  5
CA2
  8
0
 10
82.046650202365711
 20
55.13236514875139
 30
0.0
  0
SEQEND
  5
CA3
  8
0
  0
POLYLINE
  5
CA4
  8
0
 66
     1
 10
0.0
 20
0.0
 30
0.0
 70
     2
  0
VERTEX
  5
CA5
  8
0
 10
74.829771967025664
 20
52.378947209803712
 30
0.0
 42
0.0005069331852106
  0
VERTEX
  5
CA6
  8
0
 10
74.960891031272723
 20
52.344071264229044
 30
0.0
 42
0.0008916050767957
 70
     1
  0
VERTEX
  5
CA7
  8
0
 10
75.035495622461298
 20
52.324450697468869
 30
0.0
 42
0.0000041946689673
  0
VERTEX
  5
CA8
  8
0
 10
75.191355832896093
 20
52.283758795388088
 30
0.0
 42
0.0003116139930013
 70
     1
  0
VERTEX
  5
CA9
  8
0
 10
75.193454229449173
 20
52.283212362603201
 30
0.0
 42
0.0012216565710883
  0
VERTEX
  5
CAA
  8
0
 10
75.239896941286162
 20
52.271270407038088
 30
0.0
 42
0.0004794583343022
 70
     1
  0
VERTEX
  5
CAB
  8
0
 10
75.358335343292509
 20
52.241245203945553
 30
0.0
 42
0.0028904191088831
  0
VERTEX
  5
CAC
  8
0
 10
75.490162157551396
 20
52.20876989698278
 30
0.0
 42
0.0024055881964484
 70
     1
  0
VERTEX
  5
CAD
  8
0
 10
75.648961827004428
 20
52.171429378173912
 30
0.0
 42
0.0028561843217706
  0
VERTEX
  5
CAE
  8
0
 10
75.755771102118189
 20
52.147497273867458
 30
0.0
 42
0.0027121164662465
 70
     1
  0
VERTEX
  5
CAF
  8
0
 10
75.868527702774514
 20
52.123548125397839
 30
0.0
 42
0.0026097054553793
  0
VERTEX
  5
CB0
  8
0
 10
75.952371201876332
 20
52.106670616925072
 30
0.0
 42
0.0022510147746306
 70
     1
  0
VERTEX
  5
CB1
  8
0
 10
76.049760296993796
 20
52.088049641091757
 30
0.0
 42
0.0039102563075925
  0
VERTEX
  5
CB2
  8
0
 10
76.143767559201052
 20
52.071273269157047
 30
0.0
 42
0.0032475178015132
 70
     1
  0
VERTEX
  5
CB3
  8
0
 10
76.257236418116378
 20
52.05269575095609
 30
0.0
 42
0.0048648396311696
  0
VERTEX
  5
CB4
  8
0
 10
76.381008745941045
 20
52.034488017807497
 30
0.0
 42
0.0045921401180325
 70
     1
  0
VERTEX
  5
CB5
  8
0
 10
76.512472180841058
 20
52.017682408308048
 30
0.0
 42
0.0029481189368251
  0
VERTEX
  5
CB6
  8
0
 10
76.637573982456189
 20
52.003603912753057
 30
0.0
 42
0.003423147559634
 70
     1
  0
VERTEX
  5
CB7
  8
0
 10
76.745461540136773
 20
51.99285289291452
 30
0.0
 42
0.0023029020329513
  0
VERTEX
  5
CB8
  8
0
 10
76.874026652711137
 20
51.98152667635177
 30
0.0
 42
0.0028303897134985
 70
     1
  0
VERTEX
  5
CB9
  8
0
 10
76.978721012126655
 20
51.973385656623577
 30
0.0
 42
0.002247098492506
  0
VERTEX
  5
CBA
  8
0
 10
77.168148777619564
 20
51.960589579357283
 30
0.0
 42
0.0027590171461636
 70
     1
  0
VERTEX
  5
CBB
  8
0
 10
77.322526393636821
 20
51.951712899105559
 30
0.0
 42
0.0003297148383123
  0
VERTEX
  5
CBC
  8
0
 10
77.332660404674272
 20
51.95119298343517
 30
0.0
 42
0.0000153120758189
 70
     1
  0
VERTEX
  5
CBD
  8
0
 10
77.550883654654456
 20
51.940148226723331
 30
0.0
 42
0.0008988346095479
  0
VERTEX
  5
CBE
  8
0
 10
77.600486559091252
 20
51.937728627705418
 30
0.0
 42
0.0003842755620313
 70
     1
  0
VERTEX
  5
CBF
  8
0
 10
77.716523633690855
 20
51.932366859404688
 30
0.0
  0
SEQEND
  5
CC0
  8
0
  0
POLYLINE
  5
CC1
  8
0
 66
     1
 10
0.0
 20
0.0
 30
0.0
 70
     2
  0
VERTEX
  5
CC2
  8
0
 10
80.603275045578656
 20
52.378948856713819
 30
0.0
 42
-0.0005069331852106
  0
VERTEX
  5
CC3
  8
0
 10
80.472156001228569
 20
52.344072836334902
 30
0.0
 42
-0.0008916050767957
 70
     1
  0
VERTEX
  5
CC4
  8
0
 10
80.397551421233658
 20
52.324452227012337
 30
0.0
 42
-0.0000041946689673
  0
VERTEX
  5
CC5
  8
0
 10
80.241691234013871
 20
52.28376023601232
 30
0.0
 42
-0.0003116139930013
 70
     1
  0
VERTEX
  5
CC6
  8
0
 10
80.239592837772534
 20
52.283213802030303
 30
0.0
 42
-0.0012216565710883
  0
VERTEX
  5
CC7
  8
0
 10
80.193150132748514
 20
52.271271819969321
 30
0.0
 42
-0.0004794583343022
 70
     1
  0
VERTEX
  5
CC8
  8
0
 10
80.074711747871746
 20
52.241246549306922
 30
0.0
 42
-0.0028904191088831
  0
VERTEX
  5
CC9
  8
0
 10
79.942884952140275
 20
52.208771167136121
 30
0.0
 42
-0.0024055881964484
 70
     1
  0
VERTEX
  5
CCA
  8
0
 10
79.784085303990281
 20
52.171430557731028
 30
0.0
 42
-0.0028561843217706
  0
VERTEX
  5
CCB
  8
0
 10
79.67727604252994
 20
52.147498392489233
 30
0.0
 42
-0.0027121164662465
 70
     1
  0
VERTEX
  5
CCC
  8
0
 10
79.564519455536768
 20
52.123549179691238
 30
0.0
 42
-0.0026097054553793
  0
VERTEX
  5
CCD
  8
0
 10
79.4806759660637
 20
52.106671623385232
 30
0.0
 42
-0.0022510147746306
 70
     1
  0
VERTEX
  5
CCE
  8
0
 10
79.383286881569632
 20
52.088050591990807
 30
0.0
 42
-0.0039102563075925
  0
VERTEX
  5
CCF
  8
0
 10
79.289279628933429
 20
52.071274166424381
 30
0.0
 42
-0.0032475178015132
 70
     1
  0
VERTEX
  5
CD0
  8
0
 10
79.175810780616715
 20
52.052696583488711
 30
0.0
 42
-0.0048648396311696
  0
VERTEX
  5
CD1
  8
0
 10
79.052038463179684
 20
52.034488779727219
 30
0.0
 42
-0.0045921401180325
 70
     1
  0
VERTEX
  5
CD2
  8
0
 10
78.920575037867394
 20
52.017683095227049
 30
0.0
 42
-0.0029481189368251
  0
VERTEX
  5
CD3
  8
0
 10
78.795473244284153
 20
52.003604528300677
 30
0.0
 42
-0.003423147559634
 70
     1
  0
VERTEX
  5
CD4
  8
0
 10
78.68758569273713
 20
51.992853446911617
 30
0.0
 42
-0.0023029020329513
  0
VERTEX
  5
CD5
  8
0
 10
78.559020586624456
 20
51.981527157001651
 30
0.0
 42
-0.0028303897134985
 70
     1
  0
VERTEX
  5
CD6
  8
0
 10
78.454326231853443
 20
51.973386077544667
 30
0.0
 42
-0.002247098492506
  0
VERTEX
  5
CD7
  8
0
 10
78.264898473660821
 20
51.960589892208617
 30
0.0
 42
-0.0027590171461636
 70
     1
  0
VERTEX
  5
CD8
  8
0
 10
78.110520862707801
 20
51.951713123883493
 30
0.0
 42
-0.0003297148383123
  0
VERTEX
  5
CD9
  8
0
 10
78.10038685196696
 20
51.951193202431583
 30
0.0
 42
-0.0000153120758189
 70
     1
  0
VERTEX
  5
CDA
  8
0
 10
77.882163608287925
 20
51.940148321221997
 30
0.0
 42
-0.0008988346095479
  0
VERTEX
  5
CDB
  8
0
 10
77.832560705231515
 20
51.937728693905321
 30
0.0
 42
-0.0003842755620313
 70
     1
  0
VERTEX
  5
CDC
  8
0
 10
77.716523633690855
 20
51.932366859404688
 30
0.0
  0
SEQEND
  5
CDD
  8
0
  0
POLYLINE
  5
CDE
  8
0
 66
     1
 10
0.0
 20
0.0
 30
0.0
 70
     2
  0
VERTEX
  5
CDF
  8
0
 10
80.603275045578656
 20
54.685783151442251
 30
0.0
 42
0.0005069331852106
  0
VERTEX
  5
CE0
  8
0
 10
80.472156001228569
 20
54.720659171821168
 30
0.0
 42
0.0008916050767957
 70
     1
  0
VERTEX
  5
CE1
  8
0
 10
80.397551421233658
 20
54.740279781143727
 30
0.0
 42
0.0000041946689673
  0
VERTEX
  5
CE2
  8
0
 10
80.241691234013871
 20
54.780971772143737
 30
0.0
 42
0.0003116139930013
 70
     1
  0
VERTEX
  5
CE3
  8
0
 10
80.239592837772534
 20
54.781518206125767
 30
0.0
 42
0.0012216565710883
  0
VERTEX
  5
CE4
  8
0
 10
80.193150132748514
 20
54.793460188186749
 30
0.0
 42
0.0004794583343022
 70
     1
  0
VERTEX
  5
CE5
  8
0
 10
80.074711747871746
 20
54.823485458849149
 30
0.0
 42
0.0028904191088831
  0
VERTEX
  5
CE6
  8
0
 10
79.942884952140275
 20
54.85596084101995
 30
0.0
 42
0.0024055881964484
 70
     1
  0
VERTEX
  5
CE7
  8
0
 10
79.784085303990281
 20
54.893301450425042
 30
0.0
 42
0.0028561843217706
  0
VERTEX
  5
CE8
  8
0
 10
79.67727604252994
 20
54.917233615666838
 30
0.0
 42
0.0027121164662465
 70
     1
  0
VERTEX
  5
CE9
  8
0
 10
79.564519455536768
 20
54.941182828464832
 30
0.0
 42
0.0026097054553793
  0
VERTEX
  5
CEA
  8
0
 10
79.4806759660637
 20
54.958060384770832
 30
0.0
 42
0.0022510147746306
 70
     1
  0
VERTEX
  5
CEB
  8
0
 10
79.383286881569632
 20
54.976681416165249
 30
0.0
 42
0.0039102563075925
  0
VERTEX
  5
CEC
  8
0
 10
79.289279628933429
 20
54.993457841731683
 30
0.0
 42
0.0032475178015132
 70
     1
  0
VERTEX
  5
CED
  8
0
 10
79.175810780616715
 20
55.012035424667353
 30
0.0
 42
0.0048648396311696
  0
VERTEX
  5
CEE
  8
0
 10
79.052038463179684
 20
55.030243228428837
 30
0.0
 42
0.0045921401180325
 70
     1
  0
VERTEX
  5
CEF
  8
0
 10
78.920575037867394
 20
55.047048912929007
 30
0.0
 42
0.0029481189368251
  0
VERTEX
  5
CF0
  8
0
 10
78.795473244284153
 20
55.061127479855386
 30
0.0
 42
0.003423147559634
 70
     1
  0
VERTEX
  5
CF1
  8
0
 10
78.68758569273713
 20
55.071878561244461
 30
0.0
 42
0.0023029020329513
  0
VERTEX
  5
CF2
  8
0
 10
78.559020586624456
 20
55.08320485115442
 30
0.0
 42
0.0028303897134985
 70
     1
  0
VERTEX
  5
CF3
  8
0
 10
78.454326231853443
 20
55.091345930611411
 30
0.0
 42
0.002247098492506
  0
VERTEX
  5
CF4
  8
0
 10
78.264898473660821
 20
55.104142115947447
 30
0.0
 42
0.0027590171461636
 70
     1
  0
VERTEX
  5
CF5
  8
0
 10
78.110520862707801
 20
55.113018884272577
 30
0.0
 42
0.0003297148383123
  0
VERTEX
  5
CF6
  8
0
 10
78.10038685196696
 20
55.113538805724488
 30
0.0
 42
0.0000153120758189
 70
     1
  0
VERTEX
  5
CF7
  8
0
 10
77.882163608287925
 20
55.124583686934059
 30
0.0
 42
0.0008988346095479
  0
VERTEX
  5
CF8
  8
0
 10
77.832560705231515
 20
55.127003314250757
 30
0.0
 42
0.0003842755620313
 70
     1
  0
VERTEX
  5
CF9
  8
0
 10
77.716523633690855
 20
55.132365148751383
 30
0.0
  0
SEQEND
  5
CFA
  8
0
  0
POLYLINE
  5
CFB
  8
0
 66
     1
 10
0.0
 20
0.0
 30
0.0
 70
     2
  0
VERTEX
  5
CFC
  8
0
 10
74.829771967025664
 20
54.685784798352373
 30
0.0
 42
-0.0005069331852106
  0
VERTEX
  5
CFD
  8
0
 10
74.960891031272723
 20
54.720660743927027
 30
0.0
 42
-0.0008916050767957
 70
     1
  0
VERTEX
  5
CFE
  8
0
 10
75.035495622461298
 20
54.740281310687187
 30
0.0
 42
-0.0000041946689673
  0
VERTEX
  5
CFF
  8
0
 10
75.191355832896093
 20
54.780973212767982
 30
0.0
 42
-0.0003116139930013
 70
     1
  0
VERTEX
  5
D00
  8
0
 10
75.193454229449173
 20
54.781519645552862
 30
0.0
 42
-0.0012216565710883
  0
VERTEX
  5
D01
  8
0
 10
75.239896941286162
 20
54.793461601117983
 30
0.0
 42
-0.0004794583343022
 70
     1
  0
VERTEX
  5
D02
  8
0
 10
75.358335343292509
 20
54.823486804210511
 30
0.0
 42
-0.0028904191088831
  0
VERTEX
  5
D03
  8
0
 10
75.490162157551396
 20
54.855962111173291
 30
0.0
 42
-0.0024055881964484
 70
     1
  0
VERTEX
  5
D04
  8
0
 10
75.648961827004428
 20
54.893302629982152
 30
0.0
 42
-0.0028561843217706
  0
VERTEX
  5
D05
  8
0
 10
75.755771102118189
 20
54.917234734288598
 30
0.0
 42
-0.0027121164662465
 70
     1
  0
VERTEX
  5
D06
  8
0
 10
75.868527702774514
 20
54.941183882758232
 30
0.0
 42
-0.0026097054553793
  0
VERTEX
  5
D07
  8
0
 10
75.952371201876332
 20
54.958061391230991
 30
0.0
 42
-0.0022510147746306
 70
     1
  0
VERTEX
  5
D08
  8
0
 10
76.049760296993796
 20
54.976682367064313
 30
0.0
 42
-0.0039102563075925
  0
VERTEX
  5
D09
  8
0
 10
76.143767559201052
 20
54.99345873899901
 30
0.0
 42
-0.0032475178015132
 70
     1
  0
VERTEX
  5
D0A
  8
0
 10
76.257236418116378
 20
55.012036257199973
 30
0.0
 42
-0.0048648396311696
  0
VERTEX
  5
D0B
  8
0
 10
76.381008745941045
 20
55.030243990348573
 30
0.0
 42
-0.0045921401180325
 70
     1
  0
VERTEX
  5
D0C
  8
0
 10
76.512472180841058
 20
55.047049599848023
 30
0.0
 42
-0.0029481189368251
  0
VERTEX
  5
D0D
  8
0
 10
76.637573982456189
 20
55.061128095403006
 30
0.0
 42
-0.003423147559634
 70
     1
  0
VERTEX
  5
D0E
  8
0
 10
76.745461540136773
 20
55.071879115241543
 30
0.0
 42
-0.0023029020329513
  0
VERTEX
  5
D0F
  8
0
 10
76.874026652711137
 20
55.083205331804301
 30
0.0
 42
-0.0028303897134985
 70
     1
  0
VERTEX
  5
D10
  8
0
 10
76.978721012126655
 20
55.091346351532479
 30
0.0
 42
-0.002247098492506
  0
VERTEX
  5
D11
  8
0
 10
77.168148777619564
 20
55.104142428798781
 30
0.0
 42
-0.0027590171461636
 70
     1
  0
VERTEX
  5
D12
  8
0
 10
77.322526393636821
 20
55.113019109050512
 30
0.0
 42
-0.0003297148383123
  0
VERTEX
  5
D13
  8
0
 10
77.332660404674272
 20
55.1135390247209
 30
0.0
 42
-0.0000153120758189
 70
     1
  0
VERTEX
  5
D14
  8
0
 10
77.550883654654456
 20
55.124583781432733
 30
0.0
 42
-0.0008988346095479
  0
VERTEX
  5
D15
  8
0
 10
77.600486559091252
 20
55.127003380450653
 30
0.0
 42
-0.0003842755620313
 70
     1
  0
VERTEX
  5
D16
  8
0
 10
77.716523633690855
 20
55.132365148751383
 30
0.0
  0
SEQEND
  5
D17
  8
0
  0
POLYLINE
  5
D18
  8
0
 66
     1
 10
0.0
 20
0.0
 30
0.0
 70
     2
  0
VERTEX
  5
D19
  8
0
 10
73.386396133693182
 20
51.932366859404688
 30
0.0
 42
-0.001620307786448
  0
VERTEX
  5
D1A
  8
0
 10
73.30203880600132
 20
51.94011762008617
 30
0.0
 42
-0.003288453936274
 70
     1
  0
VERTEX
  5
D1B
  8
0
 10
73.260512886372851
 20
51.944344532837057
 30
0.0
 42
-0.0001264625646596
  0
VERTEX
  5
D1C
  8
0
 10
73.135015425057674
 20
51.957985507835389
 30
0.0
 42
-0.0011554009441844
 70
     1
  0
VERTEX
  5
D1D
  8
0
 10
73.121283155694172
 20
51.959513771692002
 30
0.0
 42
-0.0075271895813844
  0
VERTEX
  5
D1E
  8
0
 10
73.059065889708137
 20
51.967533935184662
 30
0.0
 42
-0.0040708857903
 70
     1
  0
VERTEX
  5
D1F
  8
0
 10
72.944403799936865
 20
51.985027011619522
 30
0.0
 42
-0.0133757572452958
  0
VERTEX
  5
D20
  8
0
 10
72.842405836264476
 20
52.004250717553589
 30
0.0
 42
-0.0121985468293687
 70
     1
  0
VERTEX
  5
D21
  8
0
 10
72.73179185165246
 20
52.031018935033337
 30
0.0
 42
-0.0112578108510823
  0
VERTEX
  5
D22
  8
0
 10
72.642185475762091
 20
52.05720746741995
 30
0.0
 42
-0.012182912564987
 70
     1
  0
VERTEX
  5
D23
  8
0
 10
72.560606563126441
 20
52.085261697171973
 30
0.0
 42
-0.007326600809374
  0
VERTEX
  5
D24
  8
0
 10
72.468800953964461
 20
52.120895004932869
 30
0.0
 42
-0.0090748545892854
 70
     1
  0
VERTEX
  5
D25
  8
0
 10
72.395662802159421
 20
52.152079881515121
 30
0.0
 42
-0.0051494895896943
  0
VERTEX
  5
D26
  8
0
 10
72.383551268804268
 20
52.157656338010298
 30
0.0
 42
-0.0003578031228141
 70
     1
  0
VERTEX
  5
D27
  8
0
 10
72.210141631923236
 20
52.239825345278589
 30
0.0
 42
-0.0092363364059377
  0
VERTEX
  5
D28
  8
0
 10
72.107158163189894
 20
52.29106557630363
 30
0.0
 42
-0.0057060325370452
 70
     1
  0
VERTEX
  5
D29
  8
0
 10
71.94302053319123
 20
52.378947209803712
 30
0.0
  0
SEQEND
  5
D2A
  8
0
  0
POLYLINE
  5
D2B
  8
0
 66
     1
 10
0.0
 20
0.0
 30
0.0
 70
     2
  0
VERTEX
  5
D2C
  8
0
 10
74.829771967025664
 20
52.378947209803712
 30
0.0
 42
-0.0045774445615652
  0
VERTEX
  5
D2D
  8
0
 10
74.687269425438018
 20
52.302377787482712
 30
0.0
 42
-0.0092735553481038
 70
     1
  0
VERTEX
  5
D2E
  8
0
 10
74.615905409219295
 20
52.2665433990569
 30
0.0
 42
-0.0011531260689187
  0
VERTEX
  5
D2F
  8
0
 10
74.382161401918012
 20
52.155213124990873
 30
0.0
 42
-0.0059934556213194
 70
     1
  0
VERTEX
  5
D30
  8
0
 10
74.336886517992468
 20
52.134437684756172
 30
0.0
 42
-0.0183824550066066
  0
VERTEX
  5
D31
  8
0
 10
74.215093659996597
 20
52.085585625878458
 30
0.0
 42
-0.0169518072702298
 70
     1
  0
VERTEX
  5
D32
  8
0
 10
74.079618365272268
 20
52.042069656476862
 30
0.0
 42
-0.019251484252239
  0
VERTEX
  5
D33
  8
0
 10
73.89944883621493
 20
51.998284340517991
 30
0.0
 42
-0.0190731231232712
 70
     1
  0
VERTEX
  5
D34
  8
0
 10
73.714745774276906
 20
51.968143153205197
 30
0.0
 42
-0.0012382426837052
  0
VERTEX
  5
D35
  8
0
 10
73.673583294345036
 20
51.96313205639072
 30
0.0
 42
-0.0004038370678018
 70
     1
  0
VERTEX
  5
D36
  8
0
 10
73.547321549292548
 20
51.948181666002917
 30
0.0
 42
-0.0047730082200499
  0
VERTEX
  5
D37
  8
0
 10
73.491563318481923
 20
51.942164147462996
 30
0.0
 42
-0.0025342643801518
 70
     1
  0
VERTEX
  5
D38
  8
0
 10
73.386396133693182
 20
51.932366859404688
 30
0.0
  0
SEQEND
  5
D39
  8
0
  0
POLYLINE
  5
D3A
  8
0
 66
     1
 10
0.0
 20
0.0
 30
0.0
 70
     2
  0
VERTEX
  5
D3B
  8
0
 10
73.386396133693182
 20
55.132365148751383
 30
0.0
 42
0.001620307786448
  0
VERTEX
  5
D3C
  8
0
 10
73.30203880600132
 20
55.124614388069887
 30
0.0
 42
0.003288453936274
 70
     1
  0
VERTEX
  5
D3D
  8
0
 10
73.260512886372851
 20
55.120387475318999
 30
0.0
 42
0.0001264625646596
  0
VERTEX
  5
D3E
  8
0
 10
73.135015425057674
 20
55.106746500320682
 30
0.0
 42
0.0011554009441844
 70
     1
  0
VERTEX
  5
D3F
  8
0
 10
73.121283155694172
 20
55.105218236464061
 30
0.0
 42
0.0075271895813844
  0
VERTEX
  5
D40
  8
0
 10
73.059065889708137
 20
55.097198072971402
 30
0.0
 42
0.0040708857903
 70
     1
  0
VERTEX
  5
D41
  8
0
 10
72.944403799936865
 20
55.079704996536549
 30
0.0
 42
0.0133757572452958
  0
VERTEX
  5
D42
  8
0
 10
72.842405836264476
 20
55.060481290602468
 30
0.0
 42
0.0121985468293687
 70
     1
  0
VERTEX
  5
D43
  8
0
 10
72.73179185165246
 20
55.033713073122719
 30
0.0
 42
0.0112578108510823
  0
VERTEX
  5
D44
  8
0
 10
72.642185475762091
 20
55.007524540736121
 30
0.0
 42
0.012182912564987
 70
     1
  0
VERTEX
  5
D45
  8
0
 10
72.560606563126441
 20
54.979470310984091
 30
0.0
 42
0.007326600809374
  0
VERTEX
  5
D46
  8
0
 10
72.468800953964461
 20
54.943837003223202
 30
0.0
 42
0.0090748545892854
 70
     1
  0
VERTEX
  5
D47
  8
0
 10
72.395662802159421
 20
54.91265212664095
 30
0.0
 42
0.0051494895896943
  0
VERTEX
  5
D48
  8
0
 10
72.383551268804268
 20
54.907075670145773
 30
0.0
 42
0.0003578031228141
 70
     1
  0
VERTEX
  5
D49
  8
0
 10
72.210141631923236
 20
54.824906662877467
 30
0.0
 42
0.0092363364059377
  0
VERTEX
  5
D4A
  8
0
 10
72.107158163189894
 20
54.77366643185244
 30
0.0
 42
0.0057060325370452
 70
     1
  0
VERTEX
  5
D4B
  8
0
 10
71.94302053319123
 20
54.685784798352358
 30
0.0
  0
SEQEND
  5
D4C
  8
0
  0
POLYLINE
  5
D4D
  8
0
 66
     1
 10
0.0
 20
0.0
 30
0.0
 70
     2
  0
VERTEX
  5
D4E
  8
0
 10
74.829771967025664
 20
54.685784798352373
 30
0.0
 42
0.0045774445615652
  0
VERTEX
  5
D4F
  8
0
 10
74.687269425438018
 20
54.762354220673359
 30
0.0
 42
0.0092735553481038
 70
     1
  0
VERTEX
  5
D50
  8
0
 10
74.615905409219295
 20
54.798188609099171
 30
0.0
 42
0.0011531260689187
  0
VERTEX
  5
D51
  8
0
 10
74.382161401918012
 20
54.909518883165191
 30
0.0
 42
0.0059934556213194
 70
     1
  0
VERTEX
  5
D52
  8
0
 10
74.336886517992468
 20
54.930294323399899
 30
0.0
 42
0.0183824550066066
  0
VERTEX
  5
D53
  8
0
 10
74.215093659996597
 20
54.979146382277612
 30
0.0
 42
0.0169518072702298
 70
     1
  0
VERTEX
  5
D54
  8
0
 10
74.079618365272268
 20
55.022662351679209
 30
0.0
 42
0.019251484252239
  0
VERTEX
  5
D55
  8
0
 10
73.89944883621493
 20
55.06644766763808
 30
0.0
 42
0.0190731231232712
 70
     1
  0
VERTEX
  5
D56
  8
0
 10
73.714745774276906
 20
55.096588854950859
 30
0.0
 42
0.0012382426837052
  0
VERTEX
  5
D57
  8
0
 10
73.673583294345036
 20
55.101599951765337
 30
0.0
 42
0.0004038370678018
 70
     1
  0
VERTEX
  5
D58
  8
0
 10
73.547321549292548
 20
55.116550342153147
 30
0.0
 42
0.0047730082200499
  0
VERTEX
  5
D59
  8
0
 10
73.491563318481923
 20
55.122567860693081
 30
0.0
 42
0.0025342643801518
 70
     1
  0
VERTEX
  5
D5A
  8
0
 10
73.386396133693182
 20
55.132365148751383
 30
0.0
  0
SEQEND
  5
D5B
  8
0
  0
LINE
  5
D5C
  8
0
 10
83.490026035698321
 20
54.685784798352373
 30
0.0
 11
82.716523521932032
 21
55.132365148751383
 31
0.0
  0
LINE
  5
D5D
  8
0
 10
82.716523521932032
 20
51.932364996759539
 30
0.0
 11
83.490026035698321
 21
52.378947209803712
 31
0.0
  0
LINE
  5
D5E
  8
0
 10
71.94302053319123
 20
52.378947209803712
 30
0.0
 11
72.716523279788163
 21
51.932364996759539
 31
0.0
  0
LINE
  5
D5F
  8
0
 10
72.716523279788163
 20
55.132365148751383
 30
0.0
 11
71.94302053319123
 21
54.685784798352373
 31
0.0
  0
LINE
  5
D60
  8
0
 10
71.716523348706033
 20
55.132365148751383
 30
0.0
 11
83.716523685844805
 21
55.132365148751383
 31
0.0
  0
LINE
  5
D61
  8
0
 10
71.716523348706033
 20
55.132365148751383
 30
0.0
 11
71.716523348706033
 21
56.73236615606988
 31
0.0
  0
LINE
  5
D62
  8
0
 10
83.716523685844805
 20
56.73236615606988
 30
0.0
 11
83.716523685844805
 21
55.132365148751383
 31
0.0
  0
LINE
  5
D63
  8
0
 10
83.716523685844805
 20
56.73236615606988
 30
0.0
 11
71.716523348706033
 21
56.73236615606988
 31
0.0
  0
LINE
  5
D64
  8
0
 10
82.716523521932046
 20
51.932364996759539
 30
0.0
 11
72.716523279788191
 21
51.932364996759539
 31
0.0
  0
LINE
  5
D65
  8
0
 10
74.829771967025664
 20
52.378947209803712
 30
0.0
 11
74.829771967025664
 21
54.685784798352373
 31
0.0
  0
LINE
  5
D66
  8
0
 10
80.603274369033244
 20
54.685784798352373
 30
0.0
 11
80.603274369033244
 21
52.378947209803712
 31
0.0
  0
LINE
  5
D67
  8
0
 10
83.490026035698321
 20
52.378947209803712
 30
0.0
 11
83.490026035698321
 21
54.685784798352373
 31
0.0
  0
LINE
  5
D68
  8
0
 10
71.94302053319123
 20
52.378947209803712
 30
0.0
 11
71.94302053319123
 21
54.685784798352373
 31
0.0
  0
POLYLINE
  5
D6B
  8
0
 66
     1
 10
0.0
 20
0.0
 30
0.0
 70
     2
  0
VERTEX
  5
D6C
  8
0
 10
49.716523584316967
 20
105.74885859736651
 30
0.0
 42
-0.007899776126522
  0
VERTEX
  5
D79
  8
0
 10
49.724911766717042
 20
105.82716829171829
 30
0.0
 42
-0.0139022222074702
 70
     1
  0
VERTEX
  5
D6D
  8
0
 10
49.731614207269111
 20
105.8714226013676
 30
0.0
 42
-0.0019391095782564
  0
VERTEX
  5
D7A
  8
0
 10
49.749487299480727
 20
105.9685444077772
 30
0.0
 42
-0.0075440805725365
 70
     1
  0
VERTEX
  5
D6E
  8
0
 10
49.754554232221288
 20
105.9934180342418
 30
0.0
 42
-0.0272846350282496
  0
VERTEX
  5
D7B
  8
0
 10
49.769188637418083
 20
106.0461726219081
 30
0.0
 42
-0.0180312222117625
 70
     1
  0
VERTEX
  5
D6F
  8
0
 10
49.798453756294997
 20
106.1236363973938
 30
0.0
 42
-0.0339676944346259
  0
VERTEX
  5
D7C
  8
0
 10
49.834873095871011
 20
106.19619631348451
 30
0.0
 42
-0.0267900864206019
 70
     1
  0
VERTEX
  5
D70
  8
0
 10
49.891833214509226
 20
106.2818855736126
 30
0.0
 42
-0.0223144238952003
  0
VERTEX
  5
D7D
  8
0
 10
49.961056654641283
 20
106.3666442367297
 30
0.0
 42
-0.0293961059897728
 70
     1
  0
VERTEX
  5
D71
  8
0
 10
50.019985395995207
 20
106.4252383698317
 30
0.0
 42
-0.0119066679671601
  0
VERTEX
  5
D7E
  8
0
 10
50.075172174419777
 20
106.4717181086754
 30
0.0
 42
-0.0160622283612801
 70
     1
  0
VERTEX
  5
D72
  8
0
 10
50.117948406064357
 20
106.5038356192147
 30
0.0
 42
-0.0143291115760581
  0
VERTEX
  5
D7F
  8
0
 10
50.169576537942589
 20
106.5379011913631
 30
0.0
 42
-0.0135523115407718
 70
     1
  0
VERTEX
  5
D73
  8
0
 10
50.226085168187304
 20
106.5708204920624
 30
0.0
 42
-0.0227936203219661
  0
VERTEX
  5
D80
  8
0
 10
50.297778715910219
 20
106.6058787391662
 30
0.0
 42
-0.025718907400521
 70
     1
  0
VERTEX
  5
D74
  8
0
 10
50.364037777253152
 20
106.6306528764605
 30
0.0
 42
-0.0175918124630087
  0
VERTEX
  5
D81
  8
0
 10
50.444967541491003
 20
106.653155244345
 30
0.0
 42
-0.0214288771609216
 70
     1
  0
VERTEX
  5
D75
  8
0
 10
50.512653963778739
 20
106.6663950861973
 30
0.0
 42
-0.0030063777652857
  0
VERTEX
  5
D83
  8
0
 10
50.536661847039788
 20
106.669883736643
 30
0.0
 42
-0.0008504532340575
 70
     1
  0
VERTEX
  5
D76
  8
0
 10
50.621622332719816
 20
106.6815611173726
 30
0.0
 42
-0.0075610994502407
  0
VERTEX
  5
D82
  8
0
 10
50.653900946955218
 20
106.6854455954624
 30
0.0
 42
-0.0039069061369777
 70
     1
  0
VERTEX
  5
D77
  8
0
 10
50.716523631828068
 20
106.6915284062311
 30
0.0
  0
SEQEND
  5
D78
  8
0
  0
POLYLINE
  5
D84
  8
0
 66
     1
 10
0.0
 20
0.0
 30
0.0
 70
     2
  0
VERTEX
  5
D85
  8
0
 10
85.716523780853393
 20
105.74885859736639
 30
0.0
 42
0.007899776126522
  0
VERTEX
  5
D86
  8
0
 10
85.708135598453325
 20
105.82716829171819
 30
0.0
 42
0.0139022222074702
 70
     1
  0
VERTEX
  5
D87
  8
0
 10
85.701433157901235
 20
105.8714226013675
 30
0.0
 42
0.0019391095782564
  0
VERTEX
  5
D88
  8
0
 10
85.683560065689633
 20
105.9685444077772
 30
0.0
 42
0.0075440805725365
 70
     1
  0
VERTEX
  5
D89
  8
0
 10
85.678493132949072
 20
105.9934180342418
 30
0.0
 42
0.0272846350282496
  0
VERTEX
  5
D8A
  8
0
 10
85.663858727752284
 20
106.046172621908
 30
0.0
 42
0.0180312222117625
 70
     1
  0
VERTEX
  5
D8B
  8
0
 10
85.634593608875377
 20
106.1236363973937
 30
0.0
 42
0.0339676944346259
  0
VERTEX
  5
D8C
  8
0
 10
85.598174269299349
 20
106.19619631348441
 30
0.0
 42
0.0267900864206019
 70
     1
  0
VERTEX
  5
D8D
  8
0
 10
85.541214150661148
 20
106.2818855736126
 30
0.0
 42
0.0223144238952003
  0
VERTEX
  5
D8E
  8
0
 10
85.471990710529084
 20
106.3666442367297
 30
0.0
 42
0.0293961059897728
 70
     1
  0
VERTEX
  5
D8F
  8
0
 10
85.413061969175146
 20
106.4252383698316
 30
0.0
 42
0.0119066679671601
  0
VERTEX
  5
D90
  8
0
 10
85.35787519075059
 20
106.4717181086753
 30
0.0
 42
0.0160622283612801
 70
     1
  0
VERTEX
  5
D91
  8
0
 10
85.315098959105995
 20
106.5038356192147
 30
0.0
 42
0.0143291115760581
  0
VERTEX
  5
D92
  8
0
 10
85.263470827227763
 20
106.5379011913631
 30
0.0
 42
0.0135523115407718
 70
     1
  0
VERTEX
  5
D93
  8
0
 10
85.206962196983056
 20
106.5708204920623
 30
0.0
 42
0.0227936203219661
  0
VERTEX
  5
D94
  8
0
 10
85.135268649260141
 20
106.6058787391662
 30
0.0
 42
0.025718907400521
 70
     1
  0
VERTEX
  5
D95
  8
0
 10
85.069009587917208
 20
106.6306528764604
 30
0.0
 42
0.0175918124630087
  0
VERTEX
  5
D96
  8
0
 10
84.988079823679371
 20
106.6531552443449
 30
0.0
 42
0.0214288771609216
 70
     1
  0
VERTEX
  5
D97
  8
0
 10
84.920393401391635
 20
106.6663950861973
 30
0.0
 42
0.0030063777652857
  0
VERTEX
  5
D98
  8
0
 10
84.896385518130558
 20
106.6698837366429
 30
0.0
 42
0.0008504532340575
 70
     1
  0
VERTEX
  5
D99
  8
0
 10
84.811425032450558
 20
106.6815611173726
 30
0.0
 42
0.0075610994502407
  0
VERTEX
  5
D9A
  8
0
 10
84.779146418215149
 20
106.6854455954623
 30
0.0
 42
0.0039069061369777
 70
     1
  0
VERTEX
  5
D9B
  8
0
 10
84.716523733342285
 20
106.691528406231
 30
0.0
  0
SEQEND
  5
D9C
  8
0
  0
POLYLINE
  5
D9D
  8
0
 66
     1
 10
0.0
 20
0.0
 30
0.0
 70
     2
  0
VERTEX
  5
D9E
  8
0
 10
50.716523631828061
 20
106.6915284062311
 30
0.0
 42
-0.0003668566807907
  0
VERTEX
  5
DB5
  8
0
 10
50.718269377821123
 20
107.2992313719442
 30
0.0
 42
-0.0005091378847643
 70
     1
  0
VERTEX
  5
D9F
  8
0
 10
50.720294420151532
 20
107.7371057929527
 30
0.0
 42
-0.000001083147421
  0
VERTEX
  5
DB6
  8
0
 10
50.72257609075951
 20
108.1412861584686
 30
0.0
 42
-0.000099085938435
 70
     1
  0
VERTEX
  5
DA0
  8
0
 10
50.722601917744271
 20
108.1457044082097
 30
0.0
 42
-0.0012618885959094
  0
VERTEX
  5
DB7
  8
0
 10
50.728317961970873
 20
108.8128730891676
 30
0.0
 42
-0.0012127260630536
 70
     1
  0
VERTEX
  5
DA1
  8
0
 10
50.737701467279173
 20
109.5070500047967
 30
0.0
 42
-0.0007374700254327
  0
VERTEX
  5
DB8
  8
0
 10
50.745410642401339
 20
109.9496282650198
 30
0.0
 42
-0.0007561109861106
 70
     1
  0
VERTEX
  5
DA2
  8
0
 10
50.754219181521471
 20
110.38127094296399
 30
0.0
 42
-0.0005325209430137
  0
VERTEX
  5
DB9
  8
0
 10
50.76165192385929
 20
110.7046375953032
 30
0.0
 42
-0.000456182348282
 70
     1
  0
VERTEX
  5
DA3
  8
0
 10
50.771074890609512
 20
111.0820992373196
 30
0.0
 42
-0.0012569476385161
  0
VERTEX
  5
DBA
  8
0
 10
50.786892150841247
 20
111.63918746089441
 30
0.0
 42
-0.0011290202200203
 70
     1
  0
VERTEX
  5
DA4
  8
0
 10
50.807461026197757
 20
112.2593071502404
 30
0.0
 42
-0.0009843998770189
  0
VERTEX
  5
DBB
  8
0
 10
50.821614277368951
 20
112.6377230744401
 30
0.0
 42
-0.000943123978343
 70
     1
  0
VERTEX
  5
DA5
  8
0
 10
50.837909487879351
 20
113.03264048721741
 30
0.0
 42
-0.0013299867140541
  0
VERTEX
  5
DBC
  8
0
 10
50.86250981351423
 20
113.5695642126466
 30
0.0
 42
-0.0015630853794424
 70
     1
  0
VERTEX
  5
DA6
  8
0
 10
50.886084630152347
 20
114.0262895123598
 30
0.0
 42
-0.0007555081453468
  0
VERTEX
  5
DBD
  8
0
 10
50.903574223019291
 20
114.3371175549364
 30
0.0
 42
-0.0009805488196998
 70
     1
  0
VERTEX
  5
DA7
  8
0
 10
50.91788133441154
 20
114.57656092652169
 30
0.0
 42
-0.0010024389431873
  0
VERTEX
  5
DBE
  8
0
 10
50.934100622050209
 20
114.83105041370069
 30
0.0
 42
-0.0008499667763869
 70
     1
  0
VERTEX
  5
DA8
  8
0
 10
50.954341250560439
 20
115.1311187470297
 30
0.0
 42
-0.0015009149435377
  0
VERTEX
  5
DBF
  8
0
 10
50.967432004838201
 20
115.3124861860306
 30
0.0
 42
-0.0007344353168048
 70
     1
  0
VERTEX
  5
DA9
  8
0
 10
50.99584141343481
 20
115.6830104052607
 30
0.0
 42
-0.0027818807866033
  0
VERTEX
  5
DC0
  8
0
 10
51.01627996933491
 20
115.9270486444138
 30
0.0
 42
-0.0012866579269459
 70
     1
  0
VERTEX
  5
DAA
  8
0
 10
51.064761724553868
 20
116.4543030324423
 30
0.0
 42
-0.0050780978135309
  0
VERTEX
  5
DC1
  8
0
 10
51.10802181331195
 20
116.8670738187836
 30
0.0
 42
-0.0037888087014339
 70
     1
  0
VERTEX
  5
DAB
  8
0
 10
51.17580326474048
 20
117.4191844107918
 30
0.0
 42
-0.0072784991598436
  0
VERTEX
  5
DC2
  8
0
 10
51.238925497013469
 20
117.85360915839721
 30
0.0
 42
-0.0082372463381018
 70
     1
  0
VERTEX
  5
DAC
  8
0
 10
51.306584615439682
 20
118.2355608719585
 30
0.0
 42
-0.0061310677173885
  0
VERTEX
  5
DC3
  8
0
 10
51.343032974128789
 20
118.41169249232659
 30
0.0
 42
-0.0059293126772982
 70
     1
  0
VERTEX
  5
DAD
  8
0
 10
51.385102994910248
 20
118.59285489733929
 30
0.0
 42
-0.0127015533420416
  0
VERTEX
  5
DC4
  8
0
 10
51.430800031547037
 20
118.76094923444241
 30
0.0
 42
-0.01344786038664
 70
     1
  0
VERTEX
  5
DAE
  8
0
 10
51.482202049295978
 20
118.91724483637709
 30
0.0
 42
-0.0198751998120371
  0
VERTEX
  5
DC5
  8
0
 10
51.5260065671578
 20
119.02553968765579
 30
0.0
 42
-0.0259457058860299
 70
     1
  0
VERTEX
  5
DAF
  8
0
 10
51.567023121268107
 20
119.10510074929731
 30
0.0
 42
-0.0194744106964878
  0
VERTEX
  5
DC6
  8
0
 10
51.595155605450842
 20
119.1492998529815
 30
0.0
 42
-0.0301703150574003
 70
     1
  0
VERTEX
  5
DB0
  8
0
 10
51.616063721665562
 20
119.1759036482063
 30
0.0
 42
-0.0301576095526914
  0
VERTEX
  5
DC7
  8
0
 10
51.638234506458531
 20
119.1980164364002
 30
0.0
 42
-0.0504206474670971
 70
     1
  0
VERTEX
  5
DB1
  8
0
 10
51.653469411665931
 20
119.2089627416039
 30
0.0
 42
-0.0288342363464783
  0
VERTEX
  5
DC9
  8
0
 10
51.666964157513348
 20
119.21572664538139
 30
0.0
 42
-0.014635920289385
 70
     1
  0
VERTEX
  5
DB2
  8
0
 10
51.694589577332309
 20
119.22668713780941
 30
0.0
 42
-0.0237958240713986
  0
VERTEX
  5
DC8
  8
0
 10
51.702203339130847
 20
119.229049463595
 30
0.0
 42
-0.012900227127564
 70
     1
  0
VERTEX
  5
DB3
  8
0
 10
51.716523679325348
 20
119.23236429342479
 30
0.0
  0
SEQEND
  5
DB4
  8
0
  0
POLYLINE
  5
DCA
  8
0
 66
     1
 10
0.0
 20
0.0
 30
0.0
 70
     2
  0
VERTEX
  5
DCB
  8
0
 10
84.716523733342356
 20
106.6915284062311
 30
0.0
 42
0.0003668566807907
  0
VERTEX
  5
DCC
  8
0
 10
84.714777987349294
 20
107.2992313719442
 30
0.0
 42
0.0005091378847643
 70
     1
  0
VERTEX
  5
DCD
  8
0
 10
84.712752945018877
 20
107.7371057929527
 30
0.0
 42
0.000001083147421
  0
VERTEX
  5
DCE
  8
0
 10
84.710471274410907
 20
108.1412861584686
 30
0.0
 42
0.000099085938435
 70
     1
  0
VERTEX
  5
DCF
  8
0
 10
84.710445447426139
 20
108.1457044082097
 30
0.0
 42
0.0012618885959094
  0
VERTEX
  5
DD0
  8
0
 10
84.704729403199536
 20
108.8128730891676
 30
0.0
 42
0.0012127260630536
 70
     1
  0
VERTEX
  5
DD1
  8
0
 10
84.695345897891229
 20
109.5070500047967
 30
0.0
 42
0.0007374700254327
  0
VERTEX
  5
DD2
  8
0
 10
84.687636722769071
 20
109.9496282650198
 30
0.0
 42
0.0007561109861106
 70
     1
  0
VERTEX
  5
DD3
  8
0
 10
84.678828183648932
 20
110.38127094296399
 30
0.0
 42
0.0005325209430137
  0
VERTEX
  5
DD4
  8
0
 10
84.671395441311134
 20
110.7046375953032
 30
0.0
 42
0.000456182348282
 70
     1
  0
VERTEX
  5
DD5
  8
0
 10
84.661972474560898
 20
111.0820992373197
 30
0.0
 42
0.0012569476385161
  0
VERTEX
  5
DD6
  8
0
 10
84.646155214329156
 20
111.63918746089441
 30
0.0
 42
0.0011290202200203
 70
     1
  0
VERTEX
  5
DD7
  8
0
 10
84.625586338972639
 20
112.2593071502404
 30
0.0
 42
0.0009843998770189
  0
VERTEX
  5
DD8
  8
0
 10
84.611433087801458
 20
112.6377230744401
 30
0.0
 42
0.000943123978343
 70
     1
  0
VERTEX
  5
DD9
  8
0
 10
84.595137877291066
 20
113.03264048721741
 30
0.0
 42
0.0013299867140541
  0
VERTEX
  5
DDA
  8
0
 10
84.570537551656173
 20
113.5695642126466
 30
0.0
 42
0.0015630853794424
 70
     1
  0
VERTEX
  5
DDB
  8
0
 10
84.546962735018042
 20
114.0262895123599
 30
0.0
 42
0.0007555081453468
  0
VERTEX
  5
DDC
  8
0
 10
84.529473142151119
 20
114.3371175549364
 30
0.0
 42
0.0009805488196998
 70
     1
  0
VERTEX
  5
DDD
  8
0
 10
84.515166030758849
 20
114.57656092652179
 30
0.0
 42
0.0010024389431873
  0
VERTEX
  5
DDE
  8
0
 10
84.4989467431202
 20
114.83105041370069
 30
0.0
 42
0.0008499667763869
 70
     1
  0
VERTEX
  5
DDF
  8
0
 10
84.478706114609963
 20
115.1311187470298
 30
0.0
 42
0.0015009149435377
  0
VERTEX
  5
DE0
  8
0
 10
84.465615360332194
 20
115.3124861860306
 30
0.0
 42
0.0007344353168048
 70
     1
  0
VERTEX
  5
DE1
  8
0
 10
84.437205951735592
 20
115.6830104052607
 30
0.0
 42
0.0027818807866033
  0
VERTEX
  5
DE2
  8
0
 10
84.416767395835507
 20
115.9270486444138
 30
0.0
 42
0.0012866579269459
 70
     1
  0
VERTEX
  5
DE3
  8
0
 10
84.368285640616534
 20
116.4543030324423
 30
0.0
 42
0.0050780978135309
  0
VERTEX
  5
DE4
  8
0
 10
84.325025551858474
 20
116.8670738187836
 30
0.0
 42
0.0037888087014339
 70
     1
  0
VERTEX
  5
DE5
  8
0
 10
84.257244100429915
 20
117.4191844107919
 30
0.0
 42
0.0072784991598436
  0
VERTEX
  5
DE6
  8
0
 10
84.194121868156941
 20
117.8536091583973
 30
0.0
 42
0.0082372463381018
 70
     1
  0
VERTEX
  5
DE7
  8
0
 10
84.12646274973072
 20
118.2355608719585
 30
0.0
 42
0.0061310677173885
  0
VERTEX
  5
DE8
  8
0
 10
84.09001439104162
 20
118.41169249232669
 30
0.0
 42
0.0059293126772982
 70
     1
  0
VERTEX
  5
DE9
  8
0
 10
84.047944370260154
 20
118.59285489733939
 30
0.0
 42
0.0127015533420416
  0
VERTEX
  5
DEA
  8
0
 10
84.002247333623345
 20
118.76094923444241
 30
0.0
 42
0.01344786038664
 70
     1
  0
VERTEX
  5
DEB
  8
0
 10
83.950845315874403
 20
118.91724483637719
 30
0.0
 42
0.0198751998120371
  0
VERTEX
  5
DEC
  8
0
 10
83.907040798012574
 20
119.02553968765579
 30
0.0
 42
0.0259457058860299
 70
     1
  0
VERTEX
  5
DED
  8
0
 10
83.866024243902274
 20
119.10510074929731
 30
0.0
 42
0.0194744106964878
  0
VERTEX
  5
DEE
  8
0
 10
83.837891759719554
 20
119.1492998529816
 30
0.0
 42
0.0301703150574003
 70
     1
  0
VERTEX
  5
DEF
  8
0
 10
83.816983643504841
 20
119.1759036482063
 30
0.0
 42
0.0301576095526914
  0
VERTEX
  5
DF0
  8
0
 10
83.794812858711865
 20
119.19801643640029
 30
0.0
 42
0.0504206474670971
 70
     1
  0
VERTEX
  5
DF1
  8
0
 10
83.779577953504472
 20
119.2089627416039
 30
0.0
 42
0.0288342363464783
  0
VERTEX
  5
DF2
  8
0
 10
83.766083207657033
 20
119.21572664538139
 30
0.0
 42
0.014635920289385
 70
     1
  0
VERTEX
  5
DF3
  8
0
 10
83.738457787838087
 20
119.22668713780941
 30
0.0
 42
0.0237958240713986
  0
VERTEX
  5
DF4
  8
0
 10
83.730844026039549
 20
119.2290494635951
 30
0.0
 42
0.012900227127564
 70
     1
  0
VERTEX
  5
DF5
  8
0
 10
83.716523685845047
 20
119.23236429342479
 30
0.0
  0
SEQEND
  5
DF6
  8
0
  0
POLYLINE
  5
DF7
  8
0
 66
     1
 10
0.0
 20
0.0
 30
0.0
 70
     2
  0
VERTEX
  5
DF8
  8
0
 10
52.716523610407641
 20
108.8793727720662
 30
0.0
 42
-0.041139479638186
  0
VERTEX
  5
E14
  8
0
 10
52.736985122940787
 20
109.0136252762524
 30
0.0
 42
-0.0589359819113025
 70
     1
  0
VERTEX
  5
DF9
  8
0
 10
52.769656407497358
 20
109.1027921460245
 30
0.0
 42
-0.0071378951082841
  0
VERTEX
  5
E15
  8
0
 10
52.822475902020713
 20
109.203454655624
 30
0.0
 42
-0.0314815966164619
 70
     1
  0
VERTEX
  5
DFA
  8
0
 10
52.836189610703109
 20
109.2253067781045
 30
0.0
 42
-0.0192687660388886
  0
VERTEX
  5
E16
  8
0
 10
52.88087247986126
 20
109.2826524092322
 30
0.0
 42
-0.0198122683390609
 70
     1
  0
VERTEX
  5
DFB
  8
0
 10
52.928552250945039
 20
109.3348629644762
 30
0.0
 42
-0.0192747385780936
  0
VERTEX
  5
E17
  8
0
 10
52.997809354880083
 20
109.39971468144481
 30
0.0
 42
-0.0157584759398591
 70
     1
  0
VERTEX
  5
DFC
  8
0
 10
53.087853930855587
 20
109.4729035623952
 30
0.0
 42
-0.0176720502474179
  0
VERTEX
  5
E18
  8
0
 10
53.174340649013061
 20
109.534080588328
 30
0.0
 42
-0.0121593448533057
 70
     1
  0
VERTEX
  5
DFD
  8
0
 10
53.305094116392489
 20
109.6153276281831
 30
0.0
 42
-0.023378158938976
  0
VERTEX
  5
E19
  8
0
 10
53.512063182313803
 20
109.7243765361364
 30
0.0
 42
-0.01858217108632
 70
     1
  0
VERTEX
  5
DFE
  8
0
 10
53.782977739139668
 20
109.8392418805219
 30
0.0
 42
-0.0130074201822877
  0
VERTEX
  5
E1A
  8
0
 10
54.08043253563369
 20
109.9437410321506
 30
0.0
 42
-0.0137286574212142
 70
     1
  0
VERTEX
  5
DFF
  8
0
 10
54.367154657854059
 20
110.02754855342511
 30
0.0
 42
-0.0076237714459639
  0
VERTEX
  5
E1B
  8
0
 10
54.709164057348971
 20
110.1118497548713
 30
0.0
 42
-0.0097972596517082
 70
     1
  0
VERTEX
  5
E00
  8
0
 10
54.977433585600281
 20
110.1681407470054
 30
0.0
 42
-0.0073686087718144
  0
VERTEX
  5
E1C
  8
0
 10
55.398366681796233
 20
110.2414799488524
 30
0.0
 42
-0.0091533347951732
 70
     1
  0
VERTEX
  5
E01
  8
0
 10
55.739001399260559
 20
110.28929366160931
 30
0.0
 42
-0.0038801784078331
  0
VERTEX
  5
E1D
  8
0
 10
56.083940371964673
 20
110.3285744118691
 30
0.0
 42
-0.0058323996026614
 70
     1
  0
VERTEX
  5
E02
  8
0
 10
56.31389000963604
 20
110.3502452032813
 30
0.0
 42
-0.0038707466662177
  0
VERTEX
  5
E1E
  8
0
 10
56.646896736120652
 20
110.37511956815931
 30
0.0
 42
-0.0049473820314509
 70
     1
  0
VERTEX
  5
E03
  8
0
 10
56.907740638476533
 20
110.3899832993706
 30
0.0
 42
-0.0034525547823137
  0
VERTEX
  5
E1F
  8
0
 10
57.238320561064022
 20
110.4032539221691
 30
0.0
 42
-0.0073946457123185
 70
     1
  0
VERTEX
  5
E04
  8
0
 10
57.392772781964709
 20
110.4061004614742
 30
0.0
 42
-0.0009096987460085
  0
VERTEX
  5
E20
  8
0
 10
57.528533862503537
 20
110.406347465048
 30
0.0
 42
-0.0006569603312077
 70
     1
  0
VERTEX
  5
E05
  8
0
 10
57.716523498648932
 20
110.4061004614742
 30
0.0
 42
-0.0008920138647856
  0
VERTEX
  5
E21
  8
0
 10
58.008255100783572
 20
110.4048133717441
 30
0.0
 42
-0.0016540922543612
 70
     1
  0
VERTEX
  5
E06
  8
0
 10
58.165573967280622
 20
110.4033181561111
 30
0.0
 42
-0.0064749448265911
  0
VERTEX
  5
E22
  8
0
 10
58.311118099817577
 20
110.3995678232443
 30
0.0
 42
-0.0035100182990728
 70
     1
  0
VERTEX
  5
E07
  8
0
 10
58.579404322825539
 20
110.38729008222271
 30
0.0
 42
-0.0030646507188394
  0
VERTEX
  5
E23
  8
0
 10
58.796583446737714
 20
110.37448756523111
 30
0.0
 42
-0.0031308160749411
 70
     1
  0
VERTEX
  5
E08
  8
0
 10
59.009001287249859
 20
110.35932246238779
 30
0.0
 42
-0.0036966104994584
  0
VERTEX
  5
E24
  8
0
 10
59.196378555860072
 20
110.3433707663828
 30
0.0
 42
-0.0030683233471268
 70
     1
  0
VERTEX
  5
E09
  8
0
 10
59.421842619461778
 20
110.3211003607522
 30
0.0
 42
-0.0049925928291074
  0
VERTEX
  5
E25
  8
0
 10
59.665307384445441
 20
110.2930818855837
 30
0.0
 42
-0.0047910421905188
 70
     1
  0
VERTEX
  5
E0A
  8
0
 10
59.918393945949958
 20
110.258926384562
 30
0.0
 42
-0.0044134903211431
  0
VERTEX
  5
E26
  8
0
 10
60.11760999836315
 20
110.22829714832569
 30
0.0
 42
-0.0042764479270879
 70
     1
  0
VERTEX
  5
E0B
  8
0
 10
60.322629442787907
 20
110.1931180862275
 30
0.0
 42
-0.0047973500065068
  0
VERTEX
  5
E27
  8
0
 10
60.479063022735311
 20
110.16334390991889
 30
0.0
 42
-0.0036113095651191
 70
     1
  0
VERTEX
  5
E0C
  8
0
 10
60.686176545665099
 20
110.1203025817904
 30
0.0
 42
-0.0077959858499518
  0
VERTEX
  5
E28
  8
0
 10
60.870136237276711
 20
110.0776731939104
 30
0.0
 42
-0.0055155180065398
 70
     1
  0
VERTEX
  5
E0D
  8
0
 10
61.128452690069011
 20
110.0105198855555
 30
0.0
 42
-0.0104273315466711
  0
VERTEX
  5
E29
  8
0
 10
61.300755257453147
 20
109.9598110343797
 30
0.0
 42
-0.0073690021914249
 70
     1
  0
VERTEX
  5
E0E
  8
0
 10
61.54184706547889
 20
109.8794306350878
 30
0.0
 42
-0.0153107262185183
  0
VERTEX
  5
E2A
  8
0
 10
61.734024800435691
 20
109.8055172302538
 30
0.0
 42
-0.0120506266229944
 70
     1
  0
VERTEX
  5
E0F
  8
0
 10
61.97267025552938
 20
109.6984038608846
 30
0.0
 42
-0.0187325812357228
  0
VERTEX
  5
E2B
  8
0
 10
62.071336381666022
 20
109.6466039154075
 30
0.0
 42
-0.0093160357276665
 70
     1
  0
VERTEX
  5
E10
  8
0
 10
62.263530901673519
 20
109.5315166732104
 30
0.0
 42
-0.0400553182925994
  0
VERTEX
  5
E2D
  8
0
 10
62.358717361981689
 20
109.4609061641607
 30
0.0
 42
-0.0174417385671837
 70
     1
  0
VERTEX
  5
E11
  8
0
 10
62.557015996536968
 20
109.2749874095496
 30
0.0
 42
-0.100202047392375
  0
VERTEX
  5
E2C
  8
0
 10
62.647713524209642
 20
109.1374525767818
 30
0.0
 42
-0.0614223477195934
 70
     1
  0
VERTEX
  5
E12
  8
0
 10
62.716523852551511
 20
108.8793727720662
 30
0.0
  0
SEQEND
  5
E13
  8
0
  0
POLYLINE
  5
E65
  8
0
 66
     1
 10
0.0
 20
0.0
 30
0.0
 70
     2
  0
VERTEX
  5
E66
  8
0
 10
52.716523610407641
 20
108.8793727720662
 30
0.0
 42
0.0522999343305635
  0
VERTEX
  5
E86
  8
0
 10
52.746650348127382
 20
108.6979724313674
 30
0.0
 42
0.0828050677653451
 70
     1
  0
VERTEX
  5
E67
  8
0
 10
52.795722587392639
 20
108.5921798410633
 30
0.0
 42
0.0152322356944108
  0
VERTEX
  5
E87
  8
0
 10
52.903691916067821
 20
108.4441000856321
 30
0.0
 42
0.0360875176040369
 70
     1
  0
VERTEX
  5
E68
  8
0
 10
52.955482477492382
 20
108.3865319164484
 30
0.0
 42
0.0180167440664864
  0
VERTEX
  5
E88
  8
0
 10
53.096206470527711
 20
108.2605936542089
 30
0.0
 42
0.0255757809126455
 70
     1
  0
VERTEX
  5
E69
  8
0
 10
53.202721175517922
 20
108.18081801930749
 30
0.0
 42
0.0132500830410481
  0
VERTEX
  5
E89
  8
0
 10
53.371006573972181
 20
108.07408888664099
 30
0.0
 42
0.0174641707917498
 70
     1
  0
VERTEX
  5
E6A
  8
0
 10
53.503431886192381
 20
108.0010941576455
 30
0.0
 42
0.0081444901730303
  0
VERTEX
  5
E8A
  8
0
 10
53.688019601421729
 20
107.9113442240611
 30
0.0
 42
0.0118201810706334
 70
     1
  0
VERTEX
  5
E6B
  8
0
 10
53.817583202370599
 20
107.85462567587371
 30
0.0
 42
0.0064335401901773
  0
VERTEX
  5
E8B
  8
0
 10
54.003657233511142
 20
107.7811395624915
 30
0.0
 42
0.0086843346107534
 70
     1
  0
VERTEX
  5
E6C
  8
0
 10
54.143092335837771
 20
107.73088986138021
 30
0.0
 42
0.0051755343609858
  0
VERTEX
  5
E8C
  8
0
 10
54.305172420837152
 20
107.677506637777
 30
0.0
 42
0.0059949758698461
 70
     1
  0
VERTEX
  5
E6D
  8
0
 10
54.446093988770713
 20
107.63455715925581
 30
0.0
 42
0.0059152089260537
  0
VERTEX
  5
E8D
  8
0
 10
54.643934067864393
 20
107.5793744480379
 30
0.0
 42
0.006402647398839
 70
     1
  0
VERTEX
  5
E6E
  8
0
 10
54.827913897842322
 20
107.53291039232499
 30
0.0
 42
0.0045996670454005
  0
VERTEX
  5
E8E
  8
0
 10
55.03275917724477
 20
107.48594602853881
 30
0.0
 42
0.0053938133762856
 70
     1
  0
VERTEX
  5
E6F
  8
0
 10
55.208211423066437
 20
107.4493952361321
 30
0.0
 42
0.0032879593362441
  0
VERTEX
  5
E8F
  8
0
 10
55.36070215689324
 20
107.4203808497389
 30
0.0
 42
0.0033943005529511
 70
     1
  0
VERTEX
  5
E70
  8
0
 10
55.508777972081653
 20
107.3942520076202
 30
0.0
 42
0.005150515108093
  0
VERTEX
  5
E90
  8
0
 10
55.719426376338561
 20
107.36078303322461
 30
0.0
 42
0.0045532976148865
 70
     1
  0
VERTEX
  5
E71
  8
0
 10
55.958392188878719
 20
107.3275556099458
 30
0.0
 42
0.0043030601684634
  0
VERTEX
  5
E91
  8
0
 10
56.166941409354877
 20
107.3023140240779
 30
0.0
 42
0.0042395918218545
 70
     1
  0
VERTEX
  5
E72
  8
0
 10
56.379019377426388
 20
107.2803145831449
 30
0.0
 42
0.0044321547441661
  0
VERTEX
  5
E92
  8
0
 10
56.65092080980412
 20
107.25686783754981
 30
0.0
 42
0.0053032201392294
 70
     1
  0
VERTEX
  5
E73
  8
0
 10
56.878502213379889
 20
107.2417000943019
 30
0.0
 42
0.0025189778879586
  0
VERTEX
  5
E93
  8
0
 10
57.095964787444238
 20
107.23062062351811
 30
0.0
 42
0.0039959335106541
 70
     1
  0
VERTEX
  5
E74
  8
0
 10
57.233130690104602
 20
107.2254229687322
 30
0.0
 42
0.0018164548937874
  0
VERTEX
  5
E94
  8
0
 10
57.41425837320822
 20
107.2206672117789
 30
0.0
 42
0.0026593761603206
 70
     1
  0
VERTEX
  5
E75
  8
0
 10
57.538000046010147
 20
107.21852642798081
 30
0.0
 42
0.0014797065056919
  0
VERTEX
  5
E95
  8
0
 10
57.603817856961541
 20
107.2179326989687
 30
0.0
 42
0.0008696270886426
 70
     1
  0
VERTEX
  5
E76
  8
0
 10
57.715812938127698
 20
107.21744866595689
 30
0.0
 42
0.0046767308151784
  0
VERTEX
  5
E96
  8
0
 10
57.90903161986261
 20
107.2187569234551
 30
0.0
 42
0.0032242840510765
 70
     1
  0
VERTEX
  5
E77
  8
0
 10
58.189221543163939
 20
107.2250826409899
 30
0.0
 42
0.0051361299751845
  0
VERTEX
  5
E97
  8
0
 10
58.408557762822049
 20
107.2337055485111
 30
0.0
 42
0.0043425570628084
 70
     1
  0
VERTEX
  5
E78
  8
0
 10
58.66773430234683
 20
107.2488198478609
 30
0.0
 42
0.0043893261016962
  0
VERTEX
  5
E98
  8
0
 10
58.899828539455477
 20
107.2664263574503
 30
0.0
 42
0.004294519179294
 70
     1
  0
VERTEX
  5
E79
  8
0
 10
59.136698061517592
 20
107.28853851679639
 30
0.0
 42
0.0043078867951894
  0
VERTEX
  5
E99
  8
0
 10
59.332709694547702
 20
107.3102440447085
 30
0.0
 42
0.0035629075232859
 70
     1
  0
VERTEX
  5
E7A
  8
0
 10
59.569262148949633
 20
107.3402151453781
 30
0.0
 42
0.0059002843444389
  0
VERTEX
  5
E9A
  8
0
 10
59.78767491586769
 20
107.37209863990211
 30
0.0
 42
0.0049318859323438
 70
     1
  0
VERTEX
  5
E7B
  8
0
 10
60.048083692409641
 20
107.4158935681066
 30
0.0
 42
0.0078726591811792
  0
VERTEX
  5
E9B
  8
0
 10
60.346223288889632
 20
107.4739205740582
 30
0.0
 42
0.0084529111911188
 70
     1
  0
VERTEX
  5
E7C
  8
0
 10
60.621987406738938
 20
107.5370006477975
 30
0.0
 42
0.0040326921742661
  0
VERTEX
  5
E9C
  8
0
 10
60.789409575325408
 20
107.5797234915369
 30
0.0
 42
0.0047908264227836
 70
     1
  0
VERTEX
  5
E7D
  8
0
 10
60.929682084544119
 20
107.6181670460233
 30
0.0
 42
0.006469524902162
  0
VERTEX
  5
E9D
  8
0
 10
61.09793873766148
 20
107.66837985228049
 30
0.0
 42
0.0058526007722352
 70
     1
  0
VERTEX
  5
E7E
  8
0
 10
61.282505746421691
 20
107.72845141914379
 30
0.0
 42
0.008663108884528
  0
VERTEX
  5
E9E
  8
0
 10
61.419169771788802
 20
107.77736273024151
 30
0.0
 42
0.0062135830720505
 70
     1
  0
VERTEX
  5
E7F
  8
0
 10
61.60758981170649
 20
107.8511912994983
 30
0.0
 42
0.0115249236663558
  0
VERTEX
  5
E9F
  8
0
 10
61.716679815442831
 20
107.89846509140941
 30
0.0
 42
0.0066257670664643
 70
     1
  0
VERTEX
  5
E80
  8
0
 10
61.903306176826952
 20
107.9875180202924
 30
0.0
 42
0.0221473758428856
  0
VERTEX
  5
EA0
  8
0
 10
62.062675987511291
 20
108.0751537480626
 30
0.0
 42
0.0154755554472783
 70
     1
  0
VERTEX
  5
E81
  8
0
 10
62.28062638482826
 20
108.2173239885213
 30
0.0
 42
0.0283632596469747
  0
VERTEX
  5
EA1
  8
0
 10
62.397398707292894
 20
108.3090141866403
 30
0.0
 42
0.0259464941289938
 70
     1
  0
VERTEX
  5
E82
  8
0
 10
62.513417645164537
 20
108.42247403135801
 30
0.0
 42
0.0500464308328788
  0
VERTEX
  5
EA3
  8
0
 10
62.581001494626513
 20
108.5123688482815
 30
0.0
 42
0.0275798017019076
 70
     1
  0
VERTEX
  5
E83
  8
0
 10
62.676791324210861
 20
108.692171183833
 30
0.0
 42
0.0563638236104818
  0
VERTEX
  5
EA2
  8
0
 10
62.698638588299843
 20
108.7577132007947
 30
0.0
 42
0.0315984247032779
 70
     1
  0
VERTEX
  5
E84
  8
0
 10
62.716523852551511
 20
108.8793727720662
 30
0.0
  0
SEQEND
  5
E85
  8
0
  0
POLYLINE
  5
EA4
  8
0
 66
     1
 10
0.0
 20
0.0
 30
0.0
 70
     2
  0
VERTEX
  5
EA5
  8
0
 10
72.716523629034214
 20
108.8793727720662
 30
0.0
 42
0.0522999343305635
  0
VERTEX
  5
EA6
  8
0
 10
72.746650366753954
 20
108.6979724313674
 30
0.0
 42
0.0828050677653451
 70
     1
  0
VERTEX
  5
EA7
  8
0
 10
72.795722606019211
 20
108.5921798410633
 30
0.0
 42
0.0152322356944108
  0
VERTEX
  5
EA8
  8
0
 10
72.903691934694393
 20
108.4441000856321
 30
0.0
 42
0.0360875176040369
 70
     1
  0
VERTEX
  5
EA9
  8
0
 10
72.955482496118947
 20
108.3865319164484
 30
0.0
 42
0.0180167440664864
  0
VERTEX
  5
EAA
  8
0
 10
73.096206489154255
 20
108.2605936542089
 30
0.0
 42
0.0255757809126455
 70
     1
  0
VERTEX
  5
EAB
  8
0
 10
73.202721194144488
 20
108.18081801930749
 30
0.0
 42
0.0132500830410481
  0
VERTEX
  5
EAC
  8
0
 10
73.371006592598746
 20
108.07408888664099
 30
0.0
 42
0.0174641707917498
 70
     1
  0
VERTEX
  5
EAD
  8
0
 10
73.503431904818925
 20
108.0010941576454
 30
0.0
 42
0.0081444901730303
  0
VERTEX
  5
EAE
  8
0
 10
73.688019620048294
 20
107.9113442240611
 30
0.0
 42
0.0118201810706334
 70
     1
  0
VERTEX
  5
EAF
  8
0
 10
73.817583220997165
 20
107.85462567587361
 30
0.0
 42
0.0064335401901773
  0
VERTEX
  5
EB0
  8
0
 10
74.003657252137714
 20
107.7811395624914
 30
0.0
 42
0.0086843346107534
 70
     1
  0
VERTEX
  5
EB1
  8
0
 10
74.143092354464329
 20
107.73088986138021
 30
0.0
 42
0.0051755343609858
  0
VERTEX
  5
EB2
  8
0
 10
74.305172439463718
 20
107.677506637777
 30
0.0
 42
0.0059949758698461
 70
     1
  0
VERTEX
  5
EB3
  8
0
 10
74.446094007397278
 20
107.63455715925571
 30
0.0
 42
0.0059152089260537
  0
VERTEX
  5
EB4
  8
0
 10
74.643934086490958
 20
107.5793744480379
 30
0.0
 42
0.006402647398839
 70
     1
  0
VERTEX
  5
EB5
  8
0
 10
74.827913916468873
 20
107.53291039232499
 30
0.0
 42
0.0045996670454005
  0
VERTEX
  5
EB6
  8
0
 10
75.032759195871336
 20
107.48594602853881
 30
0.0
 42
0.0053938133762856
 70
     1
  0
VERTEX
  5
EB7
  8
0
 10
75.20821144169301
 20
107.4493952361321
 30
0.0
 42
0.0032879593362441
  0
VERTEX
  5
EB8
  8
0
 10
75.360702175519805
 20
107.42038084973881
 30
0.0
 42
0.0033943005529511
 70
     1
  0
VERTEX
  5
EB9
  8
0
 10
75.508777990708211
 20
107.3942520076202
 30
0.0
 42
0.005150515108093
  0
VERTEX
  5
EBA
  8
0
 10
75.719426394965126
 20
107.36078303322461
 30
0.0
 42
0.0045532976148865
 70
     1
  0
VERTEX
  5
EBB
  8
0
 10
75.958392207505284
 20
107.3275556099457
 30
0.0
 42
0.0043030601684634
  0
VERTEX
  5
EBC
  8
0
 10
76.166941427981442
 20
107.3023140240778
 30
0.0
 42
0.0042395918218545
 70
     1
  0
VERTEX
  5
EBD
  8
0
 10
76.379019396052954
 20
107.2803145831448
 30
0.0
 42
0.0044321547441661
  0
VERTEX
  5
EBE
  8
0
 10
76.650920828430685
 20
107.25686783754981
 30
0.0
 42
0.0053032201392294
 70
     1
  0
VERTEX
  5
EBF
  8
0
 10
76.878502232006468
 20
107.2417000943019
 30
0.0
 42
0.0025189778879586
  0
VERTEX
  5
EC0
  8
0
 10
77.09596480607081
 20
107.23062062351811
 30
0.0
 42
0.0039959335106541
 70
     1
  0
VERTEX
  5
EC1
  8
0
 10
77.233130708731167
 20
107.2254229687322
 30
0.0
 42
0.0018164548937874
  0
VERTEX
  5
EC2
  8
0
 10
77.414258391834764
 20
107.2206672117789
 30
0.0
 42
0.0026593761603206
 70
     1
  0
VERTEX
  5
EC3
  8
0
 10
77.538000064636719
 20
107.21852642798081
 30
0.0
 42
0.0014797065056919
  0
VERTEX
  5
EC4
  8
0
 10
77.603817875588106
 20
107.2179326989687
 30
0.0
 42
0.0008696270886426
 70
     1
  0
VERTEX
  5
EC5
  8
0
 10
77.715812956754263
 20
107.21744866595689
 30
0.0
 42
0.0046767308151784
  0
VERTEX
  5
EC6
  8
0
 10
77.909031638489182
 20
107.218756923455
 30
0.0
 42
0.0032242840510765
 70
     1
  0
VERTEX
  5
EC7
  8
0
 10
78.189221561790504
 20
107.2250826409899
 30
0.0
 42
0.0051361299751845
  0
VERTEX
  5
EC8
  8
0
 10
78.408557781448621
 20
107.2337055485111
 30
0.0
 42
0.0043425570628084
 70
     1
  0
VERTEX
  5
EC9
  8
0
 10
78.667734320973395
 20
107.2488198478609
 30
0.0
 42
0.0043893261016962
  0
VERTEX
  5
ECA
  8
0
 10
78.899828558082049
 20
107.2664263574503
 30
0.0
 42
0.004294519179294
 70
     1
  0
VERTEX
  5
ECB
  8
0
 10
79.136698080144157
 20
107.28853851679629
 30
0.0
 42
0.0043078867951894
  0
VERTEX
  5
ECC
  8
0
 10
79.332709713174253
 20
107.3102440447085
 30
0.0
 42
0.0035629075232859
 70
     1
  0
VERTEX
  5
ECD
  8
0
 10
79.569262167576198
 20
107.340215145378
 30
0.0
 42
0.0059002843444389
  0
VERTEX
  5
ECE
  8
0
 10
79.787674934494234
 20
107.37209863990211
 30
0.0
 42
0.0049318859323438
 70
     1
  0
VERTEX
  5
ECF
  8
0
 10
80.048083711036213
 20
107.4158935681066
 30
0.0
 42
0.0078726591811792
  0
VERTEX
  5
ED0
  8
0
 10
80.346223307516198
 20
107.4739205740582
 30
0.0
 42
0.0084529111911188
 70
     1
  0
VERTEX
  5
ED1
  8
0
 10
80.621987425365504
 20
107.5370006477975
 30
0.0
 42
0.0040326921742661
  0
VERTEX
  5
ED2
  8
0
 10
80.789409593951973
 20
107.5797234915369
 30
0.0
 42
0.0047908264227836
 70
     1
  0
VERTEX
  5
ED3
  8
0
 10
80.929682103170691
 20
107.6181670460232
 30
0.0
 42
0.006469524902162
  0
VERTEX
  5
ED4
  8
0
 10
81.097938756288045
 20
107.66837985228049
 30
0.0
 42
0.0058526007722352
 70
     1
  0
VERTEX
  5
ED5
  8
0
 10
81.282505765048256
 20
107.72845141914379
 30
0.0
 42
0.008663108884528
  0
VERTEX
  5
ED6
  8
0
 10
81.419169790415367
 20
107.77736273024151
 30
0.0
 42
0.0062135830720505
 70
     1
  0
VERTEX
  5
ED7
  8
0
 10
81.607589830333055
 20
107.8511912994983
 30
0.0
 42
0.0115249236663558
  0
VERTEX
  5
ED8
  8
0
 10
81.716679834069396
 20
107.89846509140941
 30
0.0
 42
0.0066257670664643
 70
     1
  0
VERTEX
  5
ED9
  8
0
 10
81.903306195453524
 20
107.9875180202924
 30
0.0
 42
0.0221473758428856
  0
VERTEX
  5
EDA
  8
0
 10
82.062676006137835
 20
108.0751537480625
 30
0.0
 42
0.0154755554472783
 70
     1
  0
VERTEX
  5
EDB
  8
0
 10
82.280626403454818
 20
108.2173239885213
 30
0.0
 42
0.0283632596469747
  0
VERTEX
  5
EDC
  8
0
 10
82.397398725919444
 20
108.3090141866403
 30
0.0
 42
0.0259464941289938
 70
     1
  0
VERTEX
  5
EDD
  8
0
 10
82.513417663791117
 20
108.42247403135801
 30
0.0
 42
0.0500464308328788
  0
VERTEX
  5
EDE
  8
0
 10
82.581001513253085
 20
108.5123688482815
 30
0.0
 42
0.0275798017019076
 70
     1
  0
VERTEX
  5
EDF
  8
0
 10
82.676791342837419
 20
108.692171183833
 30
0.0
 42
0.0563638236104818
  0
VERTEX
  5
EE0
  8
0
 10
82.698638606926409
 20
108.7577132007947
 30
0.0
 42
0.0315984247032779
 70
     1
  0
VERTEX
  5
EE1
  8
0
 10
82.716523871178083
 20
108.8793727720662
 30
0.0
  0
SEQEND
  5
EE2
  8
0
  0
POLYLINE
  5
EE3
  8
0
 66
     1
 10
0.0
 20
0.0
 30
0.0
 70
     2
  0
VERTEX
  5
EE4
  8
0
 10
72.716523629034214
 20
108.8793727720662
 30
0.0
 42
-0.041139479638186
  0
VERTEX
  5
EE5
  8
0
 10
72.736985141567359
 20
109.0136252762524
 30
0.0
 42
-0.0589359819113025
 70
     1
  0
VERTEX
  5
EE6
  8
0
 10
72.76965642612393
 20
109.1027921460245
 30
0.0
 42
-0.0071378951082841
  0
VERTEX
  5
EE7
  8
0
 10
72.822475920647264
 20
109.203454655624
 30
0.0
 42
-0.0314815966164619
 70
     1
  0
VERTEX
  5
EE8
  8
0
 10
72.836189629329681
 20
109.2253067781045
 30
0.0
 42
-0.0192687660388886
  0
VERTEX
  5
EE9
  8
0
 10
72.880872498487832
 20
109.2826524092322
 30
0.0
 42
-0.0198122683390609
 70
     1
  0
VERTEX
  5
EEA
  8
0
 10
72.928552269571611
 20
109.3348629644762
 30
0.0
 42
-0.0192747385780936
  0
VERTEX
  5
EEB
  8
0
 10
72.997809373506641
 20
109.39971468144471
 30
0.0
 42
-0.0157584759398591
 70
     1
  0
VERTEX
  5
EEC
  8
0
 10
73.087853949482167
 20
109.4729035623952
 30
0.0
 42
-0.0176720502474179
  0
VERTEX
  5
EED
  8
0
 10
73.174340667639626
 20
109.534080588328
 30
0.0
 42
-0.0121593448533057
 70
     1
  0
VERTEX
  5
EEE
  8
0
 10
73.305094135019061
 20
109.615327628183
 30
0.0
 42
-0.023378158938976
  0
VERTEX
  5
EEF
  8
0
 10
73.512063200940361
 20
109.7243765361364
 30
0.0
 42
-0.01858217108632
 70
     1
  0
VERTEX
  5
EF0
  8
0
 10
73.782977757766233
 20
109.8392418805219
 30
0.0
 42
-0.0130074201822877
  0
VERTEX
  5
EF1
  8
0
 10
74.080432554260256
 20
109.9437410321506
 30
0.0
 42
-0.0137286574212142
 70
     1
  0
VERTEX
  5
EF2
  8
0
 10
74.367154676480624
 20
110.02754855342511
 30
0.0
 42
-0.0076237714459639
  0
VERTEX
  5
EF3
  8
0
 10
74.709164075975536
 20
110.1118497548712
 30
0.0
 42
-0.0097972596517082
 70
     1
  0
VERTEX
  5
EF4
  8
0
 10
74.977433604226846
 20
110.1681407470054
 30
0.0
 42
-0.0073686087718144
  0
VERTEX
  5
EF5
  8
0
 10
75.398366700422798
 20
110.2414799488524
 30
0.0
 42
-0.0091533347951732
 70
     1
  0
VERTEX
  5
EF6
  8
0
 10
75.739001417887124
 20
110.28929366160919
 30
0.0
 42
-0.0038801784078331
  0
VERTEX
  5
EF7
  8
0
 10
76.083940390591238
 20
110.3285744118691
 30
0.0
 42
-0.0058323996026614
 70
     1
  0
VERTEX
  5
EF8
  8
0
 10
76.313890028262605
 20
110.3502452032813
 30
0.0
 42
-0.0038707466662177
  0
VERTEX
  5
EF9
  8
0
 10
76.646896754747218
 20
110.37511956815931
 30
0.0
 42
-0.0049473820314509
 70
     1
  0
VERTEX
  5
EFA
  8
0
 10
76.907740657103091
 20
110.3899832993705
 30
0.0
 42
-0.0034525547823137
  0
VERTEX
  5
EFB
  8
0
 10
77.238320579690594
 20
110.4032539221691
 30
0.0
 42
-0.0073946457123185
 70
     1
  0
VERTEX
  5
EFC
  8
0
 10
77.392772800591274
 20
110.4061004614742
 30
0.0
 42
-0.0009096987460085
  0
VERTEX
  5
EFD
  8
0
 10
77.528533881130102
 20
110.406347465048
 30
0.0
 42
-0.0006569603312077
 70
     1
  0
VERTEX
  5
EFE
  8
0
 10
77.716523517275505
 20
110.4061004614742
 30
0.0
 42
-0.0008920138647856
  0
VERTEX
  5
EFF
  8
0
 10
78.008255119410137
 20
110.4048133717441
 30
0.0
 42
-0.0016540922543612
 70
     1
  0
VERTEX
  5
F00
  8
0
 10
78.165573985907187
 20
110.4033181561111
 30
0.0
 42
-0.0064749448265911
  0
VERTEX
  5
F01
  8
0
 10
78.311118118444142
 20
110.3995678232443
 30
0.0
 42
-0.0035100182990728
 70
     1
  0
VERTEX
  5
F02
  8
0
 10
78.579404341452118
 20
110.38729008222271
 30
0.0
 42
-0.0030646507188394
  0
VERTEX
  5
F03
  8
0
 10
78.796583465364279
 20
110.37448756523111
 30
0.0
 42
-0.0031308160749411
 70
     1
  0
VERTEX
  5
F04
  8
0
 10
79.009001305876424
 20
110.35932246238779
 30
0.0
 42
-0.0036966104994584
  0
VERTEX
  5
F05
  8
0
 10
79.196378574486616
 20
110.3433707663828
 30
0.0
 42
-0.0030683233471268
 70
     1
  0
VERTEX
  5
F06
  8
0
 10
79.42184263808835
 20
110.3211003607522
 30
0.0
 42
-0.0049925928291074
  0
VERTEX
  5
F07
  8
0
 10
79.665307403072006
 20
110.2930818855837
 30
0.0
 42
-0.0047910421905188
 70
     1
  0
VERTEX
  5
F08
  8
0
 10
79.918393964576524
 20
110.258926384562
 30
0.0
 42
-0.0044134903211431
  0
VERTEX
  5
F09
  8
0
 10
80.117610016989715
 20
110.22829714832569
 30
0.0
 42
-0.0042764479270879
 70
     1
  0
VERTEX
  5
F0A
  8
0
 10
80.322629461414479
 20
110.1931180862274
 30
0.0
 42
-0.0047973500065068
  0
VERTEX
  5
F0B
  8
0
 10
80.479063041361897
 20
110.16334390991889
 30
0.0
 42
-0.0036113095651191
 70
     1
  0
VERTEX
  5
F0C
  8
0
 10
80.686176564291657
 20
110.1203025817903
 30
0.0
 42
-0.0077959858499518
  0
VERTEX
  5
F0D
  8
0
 10
80.870136255903276
 20
110.0776731939104
 30
0.0
 42
-0.0055155180065398
 70
     1
  0
VERTEX
  5
F0E
  8
0
 10
81.128452708695576
 20
110.0105198855555
 30
0.0
 42
-0.0104273315466711
  0
VERTEX
  5
F0F
  8
0
 10
81.300755276079713
 20
109.9598110343797
 30
0.0
 42
-0.0073690021914249
 70
     1
  0
VERTEX
  5
F10
  8
0
 10
81.541847084105456
 20
109.8794306350878
 30
0.0
 42
-0.0153107262185183
  0
VERTEX
  5
F11
  8
0
 10
81.734024819062256
 20
109.8055172302538
 30
0.0
 42
-0.0120506266229944
 70
     1
  0
VERTEX
  5
F12
  8
0
 10
81.972670274155945
 20
109.6984038608846
 30
0.0
 42
-0.0187325812357228
  0
VERTEX
  5
F13
  8
0
 10
82.07133640029258
 20
109.6466039154074
 30
0.0
 42
-0.0093160357276665
 70
     1
  0
VERTEX
  5
F14
  8
0
 10
82.263530920300084
 20
109.5315166732104
 30
0.0
 42
-0.0400553182925994
  0
VERTEX
  5
F15
  8
0
 10
82.358717380608255
 20
109.4609061641607
 30
0.0
 42
-0.0174417385671837
 70
     1
  0
VERTEX
  5
F16
  8
0
 10
82.557016015163555
 20
109.2749874095496
 30
0.0
 42
-0.100202047392375
  0
VERTEX
  5
F17
  8
0
 10
82.6477135428362
 20
109.1374525767818
 30
0.0
 42
-0.0614223477195934
 70
     1
  0
VERTEX
  5
F18
  8
0
 10
82.716523871178083
 20
108.8793727720662
 30
0.0
  0
SEQEND
  5
F19
  8
0
  0
LINE
  5
F1B
  8
0
 10
171.90641841584801
 20
224.39927815797199
 30
0.0
 11
321.90641841584812
 21
224.39927815797211
 31
0.0
  0
LINE
  5
F1C
  8
0
 10
321.90641841584812
 20
188.39927815797211
 30
0.0
 11
171.90641841584801
 21
188.39927815797211
 31
0.0
  0
LINE
  5
F1D
  8
0
 10
174.9040677380369
 20
189.39927800894671
 30
0.0
 11
170.90642146585441
 21
189.39927800894671
 31
0.0
  0
LINE
  5
F1E
  8
0
 10
174.90406773803139
 20
223.39927811046101
 30
0.0
 11
170.90642146585441
 21
223.39927811046101
 31
0.0
  0
LINE
  5
F1F
  8
0
 10
320.90876690862638
 20
191.39927833677231
 30
0.0
 11
324.90642063138949
 21
191.3992783367724
 31
0.0
  0
LINE
  5
F20
  8
0
 10
320.90876690862638
 20
221.3992781318814
 30
0.0
 11
324.90641841584812
 21
221.39927815797211
 31
0.0
  0
LINE
  5
F22
  8
0
 10
320.90876690863519
 20
221.3992781318814
 30
0.0
 11
174.90406773803139
 21
223.39927811046101
 31
0.0
  0
LINE
  5
F23
  8
0
 10
174.9040677380369
 20
189.39927800894671
 30
0.0
 11
320.90876690863109
 21
191.39927833677231
 31
0.0
  0
POLYLINE
  5
F3C
  8
0
 66
     1
 10
0.0
 20
0.0
 30
0.0
 70
     2
  0
VERTEX
  5
F3D
  8
0
 10
174.9040677380369
 20
223.39927811046101
 30
0.0
 42
-0.0044491516170351
  0
VERTEX
  5
F53
  8
0
 10
174.90733007591601
 20
223.50461556939629
 30
0.0
 42
-0.010342179114522
 70
     1
  0
VERTEX
  5
F3E
  8
0
 10
174.91007346702801
 20
223.54987380397409
 30
0.0
 42
-0.0016479060519459
  0
VERTEX
  5
F54
  8
0
 10
174.9293605693438
 20
223.7775211526332
 30
0.0
 42
-0.0139654627270252
 70
     1
  0
VERTEX
  5
F3F
  8
0
 10
174.93247454130139
 20
223.80430424137691
 30
0.0
 42
-0.0095835401588646
  0
VERTEX
  5
F55
  8
0
 10
174.94592334738391
 20
223.88616086644109
 30
0.0
 42
-0.0119592154948017
 70
     1
  0
VERTEX
  5
F40
  8
0
 10
174.95951651659689
 20
223.9512351084058
 30
0.0
 42
-0.0021140136696043
  0
VERTEX
  5
F56
  8
0
 10
174.97193522328891
 20
224.00331781107531
 30
0.0
 42
-0.0061578921038168
 70
     1
  0
VERTEX
  5
F41
  8
0
 10
174.97649394127521
 20
224.02112550220659
 30
0.0
 42
-0.0024811137279962
  0
VERTEX
  5
F57
  8
0
 10
174.98318722843669
 20
224.04550986854881
 30
0.0
 42
-0.003272382589641
 70
     1
  0
VERTEX
  5
F42
  8
0
 10
174.9884744910392
 20
224.063938510046
 30
0.0
 42
-0.0058987699884066
  0
VERTEX
  5
F58
  8
0
 10
174.99587662586279
 20
224.088060394547
 30
0.0
 42
-0.0046676052115855
 70
     1
  0
VERTEX
  5
F43
  8
0
 10
175.00587315443789
 20
224.11833998769421
 30
0.0
 42
-0.0074552515460383
  0
VERTEX
  5
F59
  8
0
 10
175.01397786666689
 20
224.14102631002149
 30
0.0
 42
-0.0058219326337165
 70
     1
  0
VERTEX
  5
F44
  8
0
 10
175.02512374677161
 20
224.16979076349159
 30
0.0
 42
-0.0094129869891269
  0
VERTEX
  5
F5A
  8
0
 10
175.03762387942959
 20
224.19934457461301
 30
0.0
 42
-0.0095940807262385
 70
     1
  0
VERTEX
  5
F45
  8
0
 10
175.05098120916861
 20
224.22785360585581
 30
0.0
 42
-0.0073500212778324
  0
VERTEX
  5
F5B
  8
0
 10
175.0619999687201
 20
224.2494362006737
 30
0.0
 42
-0.0086063757390136
 70
     1
  0
VERTEX
  5
F46
  8
0
 10
175.0719937277251
 20
224.2675589078784
 30
0.0
 42
-0.0079110777933521
  0
VERTEX
  5
F5C
  8
0
 10
175.07934735074949
 20
224.27991077853309
 30
0.0
 42
-0.0064452662991106
 70
     1
  0
VERTEX
  5
F47
  8
0
 10
175.08880469384209
 20
224.29480608394701
 30
0.0
 42
-0.0154214852473635
  0
VERTEX
  5
F5D
  8
0
 10
175.09886302938969
 20
224.3092147646727
 30
0.0
 42
-0.0143283068022596
 70
     1
  0
VERTEX
  5
F48
  8
0
 10
175.11059133683921
 20
224.3240511358091
 30
0.0
 42
-0.0204369899734232
  0
VERTEX
  5
F5E
  8
0
 10
175.1234114295431
 20
224.33813523908859
 30
0.0
 42
-0.0247818182922166
 70
     1
  0
VERTEX
  5
F49
  8
0
 10
175.1349917481846
 20
224.3487500303977
 30
0.0
 42
-0.0080134566130502
  0
VERTEX
  5
F5F
  8
0
 10
175.14456089900881
 20
224.35643053617579
 30
0.0
 42
-0.0146768961638394
 70
     1
  0
VERTEX
  5
F4A
  8
0
 10
175.14997123883779
 20
224.3603833004924
 30
0.0
 42
-0.0058915688973939
  0
VERTEX
  5
F60
  8
0
 10
175.156573965598
 20
224.36480257528481
 30
0.0
 42
-0.0085964152383286
 70
     1
  0
VERTEX
  5
F4B
  8
0
 10
175.16118518487971
 20
224.3676990745895
 30
0.0
 42
-0.0100229965784054
  0
VERTEX
  5
F61
  8
0
 10
175.16873052563051
 20
224.3720555687492
 30
0.0
 42
-0.0103007610545296
 70
     1
  0
VERTEX
  5
F4C
  8
0
 10
175.17623863367189
 20
224.37599277257971
 30
0.0
 42
-0.0083763314734027
  0
VERTEX
  5
F62
  8
0
 10
175.18471702317581
 20
224.380042581216
 30
0.0
 42
-0.0100393904047459
 70
     1
  0
VERTEX
  5
F4D
  8
0
 10
175.1919107815134
 20
224.38315885324721
 30
0.0
 42
-0.0050579905635552
  0
VERTEX
  5
F63
  8
0
 10
175.201875275764
 20
224.3871225637867
 30
0.0
 42
-0.0076929171641603
 70
     1
  0
VERTEX
  5
F4E
  8
0
 10
175.20849134181719
 20
224.38956083018189
 30
0.0
 42
-0.0014260348153678
  0
VERTEX
  5
F64
  8
0
 10
175.216689825027
 20
224.3924135629168
 30
0.0
 42
-0.003564360913724
 70
     1
  0
VERTEX
  5
F4F
  8
0
 10
175.21998114923611
 20
224.39352210649261
 30
0.0
 42
-0.0005267023734349
  0
VERTEX
  5
F66
  8
0
 10
175.22048923818511
 20
224.39368861859111
 30
0.0
 42
-0.0000299512248828
 70
     1
  0
VERTEX
  5
F50
  8
0
 10
175.2294274053074
 20
224.3966068403922
 30
0.0
 42
-0.0016177358669464
  0
VERTEX
  5
F65
  8
0
 10
175.23212993580449
 20
224.3974793448487
 30
0.0
 42
-0.000773041964741
 70
     1
  0
VERTEX
  5
F51
  8
0
 10
175.23779414413431
 20
224.39927815797199
 30
0.0
  0
SEQEND
  5
F52
  8
0
  0
POLYLINE
  5
F92
  8
0
 66
     1
 10
0.0
 20
0.0
 30
0.0
 70
     2
  0
VERTEX
  5
F93
  8
0
 10
174.90403833730079
 20
189.3992780089722
 30
0.0
 42
0.0044491516170351
  0
VERTEX
  5
F94
  8
0
 10
174.9073004930035
 20
189.29394054439501
 30
0.0
 42
0.010342179114522
 70
     1
  0
VERTEX
  5
F95
  8
0
 10
174.9100438058434
 20
189.24868230507269
 30
0.0
 42
0.0016479060519459
  0
VERTEX
  5
F96
  8
0
 10
174.92933051445331
 20
189.0210349230577
 30
0.0
 42
0.0139654627270252
 70
     1
  0
VERTEX
  5
F97
  8
0
 10
174.93244444009071
 20
188.99425182892861
 30
0.0
 42
0.0095835401588646
  0
VERTEX
  5
F98
  8
0
 10
174.94589310460589
 20
188.91239518060539
 30
0.0
 42
0.0119592154948017
 70
     1
  0
VERTEX
  5
F99
  8
0
 10
174.95948616127581
 20
188.847320915132
 30
0.0
 42
0.0021140136696043
  0
VERTEX
  5
F9A
  8
0
 10
174.97190477789309
 20
188.79523819098509
 30
0.0
 42
0.0061578921038168
 70
     1
  0
VERTEX
  5
F9B
  8
0
 10
174.97646346508179
 20
188.77743049196971
 30
0.0
 42
0.0024811137279962
  0
VERTEX
  5
F9C
  8
0
 10
174.9831567100716
 20
188.7530461140517
 30
0.0
 42
0.003272382589641
 70
     1
  0
VERTEX
  5
F9D
  8
0
 10
174.98844394080271
 20
188.7346174634105
 30
0.0
 42
0.0058987699884066
  0
VERTEX
  5
F9E
  8
0
 10
174.99584603390849
 20
188.7104955661078
 30
0.0
 42
0.0046676052115855
 70
     1
  0
VERTEX
  5
F9F
  8
0
 10
175.00584251011639
 20
188.6802159556722
 30
0.0
 42
0.0074552515460383
  0
VERTEX
  5
FA0
  8
0
 10
175.01394718311039
 20
188.6575296193281
 30
0.0
 42
0.0058219326337165
 70
     1
  0
VERTEX
  5
FA1
  8
0
 10
175.02509301346831
 20
188.62876514658171
 30
0.0
 42
0.0094129869891269
  0
VERTEX
  5
FA2
  8
0
 10
175.03759309501419
 20
188.59921131384209
 30
0.0
 42
0.0095940807262385
 70
     1
  0
VERTEX
  5
FA3
  8
0
 10
175.05095037544811
 20
188.5707022594984
 30
0.0
 42
0.0073500212778324
  0
VERTEX
  5
FA4
  8
0
 10
175.06196909767351
 20
188.5491196456241
 30
0.0
 42
0.0086063757390136
 70
     1
  0
VERTEX
  5
FA5
  8
0
 10
175.0719628253361
 20
188.53099692113571
 30
0.0
 42
0.0079110777933521
  0
VERTEX
  5
FA6
  8
0
 10
175.0793164269985
 20
188.51864503776321
 30
0.0
 42
0.0064452662991106
 70
     1
  0
VERTEX
  5
FA7
  8
0
 10
175.08877374433021
 20
188.50374971599331
 30
0.0
 42
0.0154214852473635
  0
VERTEX
  5
FA8
  8
0
 10
175.09883205495871
 20
188.48934101787219
 30
0.0
 42
0.0143283068022596
 70
     1
  0
VERTEX
  5
FA9
  8
0
 10
175.1105603367493
 20
188.47450462645219
 30
0.0
 42
0.0204369899734232
  0
VERTEX
  5
FAA
  8
0
 10
175.12338040509539
 20
188.4604205010009
 30
0.0
 42
0.0247818182922166
 70
     1
  0
VERTEX
  5
FAB
  8
0
 10
175.13496070537909
 20
188.4498056896642
 30
0.0
 42
0.0080134566130502
  0
VERTEX
  5
FAC
  8
0
 10
175.14452984292021
 20
188.44212516733671
 30
0.0
 42
0.0146768961638394
 70
     1
  0
VERTEX
  5
FAD
  8
0
 10
175.14994017591309
 20
188.43817239366311
 30
0.0
 42
0.0058915688973939
  0
VERTEX
  5
FAE
  8
0
 10
175.1565428950303
 20
188.43375310745171
 30
0.0
 42
0.0085964152383286
 70
     1
  0
VERTEX
  5
FAF
  8
0
 10
175.16115410930269
 20
188.43085660017209
 30
0.0
 42
0.0100229965784054
  0
VERTEX
  5
FB0
  8
0
 10
175.16869944251911
 20
188.4265000929631
 30
0.0
 42
0.0103007610545296
 70
     1
  0
VERTEX
  5
FB1
  8
0
 10
175.17620754375119
 20
188.42256287614759
 30
0.0
 42
0.0083763314734027
  0
VERTEX
  5
FB2
  8
0
 10
175.18468592625121
 20
188.41851305284831
 30
0.0
 42
0.0100393904047459
 70
     1
  0
VERTEX
  5
FB3
  8
0
 10
175.1918796791993
 20
188.41539676837581
 30
0.0
 42
0.0050579905635552
  0
VERTEX
  5
FB4
  8
0
 10
175.20184416659481
 20
188.4114330406031
 30
0.0
 42
0.0076929171641603
 70
     1
  0
VERTEX
  5
FB5
  8
0
 10
175.20846022843111
 20
188.4089947627659
 30
0.0
 42
0.0014260348153678
  0
VERTEX
  5
FB6
  8
0
 10
175.21665870670731
 20
188.406142015852
 30
0.0
 42
0.003564360913724
 70
     1
  0
VERTEX
  5
FB7
  8
0
 10
175.21995002899919
 20
188.405033466584
 30
0.0
 42
0.0005267023734349
  0
VERTEX
  5
FB8
  8
0
 10
175.2204581176602
 20
188.40486695360681
 30
0.0
 42
0.0000299512248828
 70
     1
  0
VERTEX
  5
FB9
  8
0
 10
175.2293962797356
 20
188.4019487163475
 30
0.0
 42
0.0016177358669464
  0
VERTEX
  5
FBA
  8
0
 10
175.23209880872369
 20
188.40107620721699
 30
0.0
 42
0.000773041964741
 70
     1
  0
VERTEX
  5
FBB
  8
0
 10
175.2377630139425
 20
188.39927738429779
 30
0.0
  0
SEQEND
  5
FBC
  8
0
  0
POLYLINE
  5
FBD
  8
0
 66
     1
 10
0.0
 20
0.0
 30
0.0
 70
     2
  0
VERTEX
  5
FBE
  8
0
 10
320.90876690863519
 20
221.3992781318814
 30
0.0
 42
0.0021875886219309
  0
VERTEX
  5
FCD
  8
0
 10
320.900822991138
 20
221.63521463902001
 30
0.0
 42
0.0046225249269328
 70
     1
  0
VERTEX
  5
FBF
  8
0
 10
320.8955431068477
 20
221.74681079560551
 30
0.0
 42
0.0002821183917938
  0
VERTEX
  5
FCE
  8
0
 10
320.87333152962668
 20
222.13547515728709
 30
0.0
 42
0.0025748743925905
 70
     1
  0
VERTEX
  5
FC0
  8
0
 10
320.87065459612381
 20
222.17804519012051
 30
0.0
 42
0.0097159251458699
  0
VERTEX
  5
FCF
  8
0
 10
320.8552468777587
 20
222.35392351574779
 30
0.0
 42
0.0067708915705452
 70
     1
  0
VERTEX
  5
FC1
  8
0
 10
320.82483090002859
 20
222.6054227416177
 30
0.0
 42
0.011839201053911
  0
VERTEX
  5
FD0
  8
0
 10
320.79442105492649
 20
222.7968117378787
 30
0.0
 42
0.0087060265831156
 70
     1
  0
VERTEX
  5
FC2
  8
0
 10
320.74241430813328
 20
223.05514388645241
 30
0.0
 42
0.0115061995589287
  0
VERTEX
  5
FD1
  8
0
 10
320.68660357895391
 20
223.28411375220361
 30
0.0
 42
0.0128125379712761
 70
     1
  0
VERTEX
  5
FC3
  8
0
 10
320.62654392505289
 20
223.4870650082803
 30
0.0
 42
0.0123496104304495
  0
VERTEX
  5
FD2
  8
0
 10
320.56873980140472
 20
223.65149850003951
 30
0.0
 42
0.0134566562475674
 70
     1
  0
VERTEX
  5
FC4
  8
0
 10
320.50797523066478
 20
223.79947114231879
 30
0.0
 42
0.0126364601591546
  0
VERTEX
  5
FD3
  8
0
 10
320.45737057803859
 20
223.90645238326491
 30
0.0
 42
0.0130792868091338
 70
     1
  0
VERTEX
  5
FC5
  8
0
 10
320.40322999746439
 20
224.0071627323189
 30
0.0
 42
0.0209151608547892
  0
VERTEX
  5
FD4
  8
0
 10
320.3408251176416
 20
224.10642535595159
 30
0.0
 42
0.0274322762798876
 70
     1
  0
VERTEX
  5
FC6
  8
0
 10
320.28614574147429
 20
224.17718237932399
 30
0.0
 42
0.0197473379991725
  0
VERTEX
  5
FD5
  8
0
 10
320.2442984181676
 20
224.22189934624609
 30
0.0
 42
0.024478438645011
 70
     1
  0
VERTEX
  5
FC7
  8
0
 10
320.20747729086349
 20
224.25485783779351
 30
0.0
 42
0.0213846449280438
  0
VERTEX
  5
FD6
  8
0
 10
320.15681608699612
 20
224.2924506915802
 30
0.0
 42
0.0279266695327548
 70
     1
  0
VERTEX
  5
FC8
  8
0
 10
320.11536390926318
 20
224.3172864301082
 30
0.0
 42
0.0129796226890841
  0
VERTEX
  5
FD7
  8
0
 10
320.05943122620829
 20
224.34485844677079
 30
0.0
 42
0.0205039462046808
 70
     1
  0
VERTEX
  5
FC9
  8
0
 10
320.02292644631592
 20
224.359907964201
 30
0.0
 42
0.0027426619429312
  0
VERTEX
  5
FD9
  8
0
 10
320.00297852096259
 20
224.36706643904469
 30
0.0
 42
0.0010157197722641
 70
     1
  0
VERTEX
  5
FCA
  8
0
 10
319.94897140939401
 20
224.3859903165168
 30
0.0
 42
0.0060634735688195
  0
VERTEX
  5
FD8
  8
0
 10
319.93685740889492
 20
224.39004338128231
 30
0.0
 42
0.0025241348689023
 70
     1
  0
VERTEX
  5
FCB
  8
0
 10
319.90759514091479
 20
224.39927815797199
 30
0.0
  0
SEQEND
  5
FCC
  8
0
  0
POLYLINE
  5
FDA
  8
0
 66
     1
 10
0.0
 20
0.0
 30
0.0
 70
     2
  0
VERTEX
  5
FDB
  8
0
 10
176.40641771076179
 20
54.68578479835238
 30
0.0
 42
-0.0081735387080122
  0
VERTEX
  5
FE2
  8
0
 10
176.82083685823099
 20
54.815236488232983
 30
0.0
 42
-0.0141203089495592
 70
     1
  0
VERTEX
  5
FDC
  8
0
 10
177.06385695958591
 20
54.879411716063217
 30
0.0
 42
-0.0010812908274196
  0
VERTEX
  5
FE3
  8
0
 10
177.59310404212769
 20
55.00209200015324
 30
0.0
 42
-0.0127660177220496
 70
     1
  0
VERTEX
  5
FDD
  8
0
 10
177.6382094835063
 20
55.011239340931191
 30
0.0
 42
-0.0095431681066722
  0
VERTEX
  5
FE4
  8
0
 10
177.90296629909651
 20
55.052735715185072
 30
0.0
 42
-0.011341196207966
 70
     1
  0
VERTEX
  5
FDE
  8
0
 10
178.12702079203569
 20
55.078321495070192
 30
0.0
 42
-0.0022322089476188
  0
VERTEX
  5
FE6
  8
0
 10
178.1655506870402
 20
55.081664845692551
 30
0.0
 42
-0.0002673289696422
 70
     1
  0
VERTEX
  5
FDF
  8
0
 10
178.48741100548281
 20
55.107973170681213
 30
0.0
 42
-0.0057185237359445
  0
VERTEX
  5
FE5
  8
0
 10
178.63811470668631
 20
55.118476913060981
 30
0.0
 42
-0.0032154939780927
 70
     1
  0
VERTEX
  5
FE0
  8
0
 10
178.906415326576
 20
55.132365148751397
 30
0.0
  0
SEQEND
  5
FE1
  8
0
  0
POLYLINE
  5
FE7
  8
0
 66
     1
 10
0.0
 20
0.0
 30
0.0
 70
     2
  0
VERTEX
  5
FF6
  8
0
 10
181.4064203929708
 20
54.685784798352387
 30
0.0
 42
0.0027473572437193
  0
VERTEX
  5
FFE
  8
0
 10
181.1692996512802
 20
54.759301701630193
 30
0.0
 42
0.0062387912623966
 70
     1
  0
VERTEX
  5
FF7
  8
0
 10
181.0643112863367
 20
54.78979529152415
 30
0.0
 42
0.0006432837120747
  0
VERTEX
  5
FFF
  8
0
 10
180.60759714992309
 20
54.915656896093417
 30
0.0
 42
0.0047337897974768
 70
     1
  0
VERTEX
  5
FF8
  8
0
 10
180.54535168618969
 20
54.932092416283332
 30
0.0
 42
0.0124111826436509
  0
VERTEX
  5
1000
  8
0
 10
180.29999190965461
 20
54.987955800453051
 30
0.0
 42
0.0125149293682025
 70
     1
  0
VERTEX
  5
FF9
  8
0
 10
180.054207217445
 20
55.031162697357757
 30
0.0
 42
0.006873828410218
  0
VERTEX
  5
1001
  8
0
 10
179.8083651508737
 20
55.064613994485683
 30
0.0
 42
0.0090755262159261
 70
     1
  0
VERTEX
  5
FFA
  8
0
 10
179.62144381948889
 20
55.083999445000899
 30
0.0
 42
0.0017448861043496
  0
VERTEX
  5
1003
  8
0
 10
179.5915581921617
 20
55.086446529263867
 30
0.0
 42
0.0001748808715688
 70
     1
  0
VERTEX
  5
FFB
  8
0
 10
179.29328161061699
 20
55.109717342076102
 30
0.0
 42
0.004758820076472
  0
VERTEX
  5
1002
  8
0
 10
179.1543925567284
 20
55.119175338116577
 30
0.0
 42
0.0026677180465218
 70
     1
  0
VERTEX
  5
FFC
  8
0
 10
178.906415326576
 20
55.132365148751397
 30
0.0
  0
SEQEND
  5
FFD
  8
0
  0
POLYLINE
  5
FE9
  8
0
 66
     1
 10
0.0
 20
0.0
 30
0.0
 70
     2
  0
VERTEX
  5
FEA
  8
0
 10
176.40641814044389
 20
52.378945347158663
 30
0.0
 42
0.0081735387080122
  0
VERTEX
  5
FEB
  8
0
 10
176.82083733613749
 20
52.249493811661161
 30
0.0
 42
0.0141203089495592
 70
     1
  0
VERTEX
  5
FEC
  8
0
 10
177.06385746139961
 20
52.185318674362918
 30
0.0
 42
0.0010812908274196
  0
VERTEX
  5
FED
  8
0
 10
177.5931045896433
 20
52.062638587432701
 30
0.0
 42
0.0127660177220496
 70
     1
  0
VERTEX
  5
FEE
  8
0
 10
177.63821003442951
 20
52.053491263457808
 30
0.0
 42
0.0095431681066722
  0
VERTEX
  5
FEF
  8
0
 10
177.90296686547831
 20
52.011994987833482
 30
0.0
 42
0.011341196207966
 70
     1
  0
VERTEX
  5
FF0
  8
0
 10
178.127021367949
 20
51.986409291415143
 30
0.0
 42
0.0022322089476188
  0
VERTEX
  5
FF1
  8
0
 10
178.16555126419891
 20
51.983065955146259
 30
0.0
 42
0.0002673289696422
 70
     1
  0
VERTEX
  5
FF2
  8
0
 10
178.4874115924421
 20
51.956757750059857
 30
0.0
 42
0.0057185237359445
  0
VERTEX
  5
FF3
  8
0
 10
178.63811529755861
 20
51.94625406382157
 30
0.0
 42
0.0032154939780927
 70
     1
  0
VERTEX
  5
FF4
  8
0
 10
178.90641592262199
 20
51.932365928080849
 30
0.0
  0
SEQEND
  5
FF5
  8
0
  0
POLYLINE
  5
1018
  8
0
 66
     1
 10
0.0
 20
0.0
 30
0.0
 70
     2
  0
VERTEX
  5
1019
  8
0
 10
181.4064203929708
 20
52.378947209803719
 30
0.0
 42
-0.0027473572437193
  0
VERTEX
  5
101A
  8
0
 10
181.1692996512802
 20
52.305430306525913
 30
0.0
 42
-0.0062387912623966
 70
     1
  0
VERTEX
  5
101B
  8
0
 10
181.0643112863367
 20
52.274936716631949
 30
0.0
 42
-0.0006432837120747
  0
VERTEX
  5
101C
  8
0
 10
180.60759714992309
 20
52.149075112062661
 30
0.0
 42
-0.0047337897974768
 70
     1
  0
VERTEX
  5
101D
  8
0
 10
180.5453516861898
 20
52.13263959187276
 30
0.0
 42
-0.0124111826436509
  0
VERTEX
  5
101E
  8
0
 10
180.29999190965461
 20
52.076776207703041
 30
0.0
 42
-0.0125149293682025
 70
     1
  0
VERTEX
  5
101F
  8
0
 10
180.05420721744511
 20
52.033569310798327
 30
0.0
 42
-0.006873828410218
  0
VERTEX
  5
1020
  8
0
 10
179.8083651508737
 20
52.000118013670402
 30
0.0
 42
-0.0090755262159261
 70
     1
  0
VERTEX
  5
1021
  8
0
 10
179.62144381948889
 20
51.980732563155179
 30
0.0
 42
-0.0017448861043496
  0
VERTEX
  5
1022
  8
0
 10
179.59155819216181
 20
51.978285478892211
 30
0.0
 42
-0.0001748808715688
 70
     1
  0
VERTEX
  5
1023
  8
0
 10
179.29328161061699
 20
51.955014666079961
 30
0.0
 42
-0.004758820076472
  0
VERTEX
  5
1024
  8
0
 10
179.15439255672851
 20
51.945556670039501
 30
0.0
 42
-0.0026677180465218
 70
     1
  0
VERTEX
  5
1025
  8
0
 10
178.906415326576
 20
51.932366859404652
 30
0.0
  0
SEQEND
  5
1026
  8
0
  0
POLYLINE
  5
1028
  8
0
 66
     1
 10
0.0
 20
0.0
 30
0.0
 70
     2
  0
VERTEX
  5
1029
  8
0
 10
186.40642307517979
 20
54.68578479835238
 30
0.0
 42
0.0081735387080122
  0
VERTEX
  5
102A
  8
0
 10
185.9920039277107
 20
54.815236488232983
 30
0.0
 42
0.0141203089495592
 70
     1
  0
VERTEX
  5
102B
  8
0
 10
185.74898382635581
 20
54.879411716063217
 30
0.0
 42
0.0010812908274196
  0
VERTEX
  5
102C
  8
0
 10
185.21973674381391
 20
55.00209200015324
 30
0.0
 42
0.0127660177220496
 70
     1
  0
VERTEX
  5
102D
  8
0
 10
185.17463130243539
 20
55.011239340931191
 30
0.0
 42
0.0095431681066722
  0
VERTEX
  5
102E
  8
0
 10
184.90987448684521
 20
55.052735715185072
 30
0.0
 42
0.011341196207966
 70
     1
  0
VERTEX
  5
102F
  8
0
 10
184.68581999390591
 20
55.078321495070192
 30
0.0
 42
0.0022322089476188
  0
VERTEX
  5
1030
  8
0
 10
184.64729009890149
 20
55.081664845692551
 30
0.0
 42
0.0002673289696422
 70
     1
  0
VERTEX
  5
1031
  8
0
 10
184.32542978045879
 20
55.107973170681213
 30
0.0
 42
0.0057185237359445
  0
VERTEX
  5
1032
  8
0
 10
184.17472607925529
 20
55.118476913060981
 30
0.0
 42
0.0032154939780927
 70
     1
  0
VERTEX
  5
1033
  8
0
 10
183.90642545936569
 20
55.132365148751397
 30
0.0
  0
SEQEND
  5
1034
  8
0
  0
POLYLINE
  5
1035
  8
0
 66
     1
 10
0.0
 20
0.0
 30
0.0
 70
     2
  0
VERTEX
  5
1036
  8
0
 10
181.4064203929708
 20
54.685784798352387
 30
0.0
 42
-0.0027473572437193
  0
VERTEX
  5
1037
  8
0
 10
181.64354113466149
 20
54.759301701630193
 30
0.0
 42
-0.0062387912623966
 70
     1
  0
VERTEX
  5
1038
  8
0
 10
181.74852949960501
 20
54.78979529152415
 30
0.0
 42
-0.0006432837120747
  0
VERTEX
  5
1039
  8
0
 10
182.20524363601859
 20
54.915656896093417
 30
0.0
 42
-0.0047337897974768
 70
     1
  0
VERTEX
  5
103A
  8
0
 10
182.26748909975191
 20
54.932092416283332
 30
0.0
 42
-0.0124111826436509
  0
VERTEX
  5
103B
  8
0
 10
182.51284887628711
 20
54.987955800453051
 30
0.0
 42
-0.0125149293682025
 70
     1
  0
VERTEX
  5
103C
  8
0
 10
182.75863356849661
 20
55.031162697357757
 30
0.0
 42
-0.006873828410218
  0
VERTEX
  5
103D
  8
0
 10
183.00447563506799
 20
55.064613994485683
 30
0.0
 42
-0.0090755262159261
 70
     1
  0
VERTEX
  5
103E
  8
0
 10
183.1913969664528
 20
55.083999445000899
 30
0.0
 42
-0.0017448861043496
  0
VERTEX
  5
103F
  8
0
 10
183.2212825937799
 20
55.086446529263867
 30
0.0
 42
-0.0001748808715688
 70
     1
  0
VERTEX
  5
1040
  8
0
 10
183.5195591753247
 20
55.109717342076102
 30
0.0
 42
-0.004758820076472
  0
VERTEX
  5
1041
  8
0
 10
183.65844822921321
 20
55.119175338116577
 30
0.0
 42
-0.0026677180465218
 70
     1
  0
VERTEX
  5
1042
  8
0
 10
183.90642545936569
 20
55.132365148751397
 30
0.0
  0
SEQEND
  5
1043
  8
0
  0
POLYLINE
  5
1044
  8
0
 66
     1
 10
0.0
 20
0.0
 30
0.0
 70
     2
  0
VERTEX
  5
1045
  8
0
 10
181.4064203929708
 20
52.378947209803719
 30
0.0
 42
0.0027473572437193
  0
VERTEX
  5
1046
  8
0
 10
181.64354113466149
 20
52.305430306525913
 30
0.0
 42
0.0062387912623966
 70
     1
  0
VERTEX
  5
1047
  8
0
 10
181.74852949960501
 20
52.274936716631949
 30
0.0
 42
0.0006432837120747
  0
VERTEX
  5
1048
  8
0
 10
182.20524363601859
 20
52.149075112062661
 30
0.0
 42
0.0047337897974768
 70
     1
  0
VERTEX
  5
1049
  8
0
 10
182.26748909975191
 20
52.13263959187276
 30
0.0
 42
0.0124111826436509
  0
VERTEX
  5
104A
  8
0
 10
182.51284887628699
 20
52.076776207703041
 30
0.0
 42
0.0125149293682025
 70
     1
  0
VERTEX
  5
104B
  8
0
 10
182.75863356849661
 20
52.033569310798327
 30
0.0
 42
0.006873828410218
  0
VERTEX
  5
104C
  8
0
 10
183.00447563506799
 20
52.000118013670402
 30
0.0
 42
0.0090755262159261
 70
     1
  0
VERTEX
  5
104D
  8
0
 10
183.19139696645269
 20
51.980732563155179
 30
0.0
 42
0.0017448861043496
  0
VERTEX
  5
104E
  8
0
 10
183.2212825937799
 20
51.978285478892211
 30
0.0
 42
0.0001748808715688
 70
     1
  0
VERTEX
  5
104F
  8
0
 10
183.5195591753247
 20
51.955014666079961
 30
0.0
 42
0.004758820076472
  0
VERTEX
  5
1050
  8
0
 10
183.65844822921321
 20
51.945556670039501
 30
0.0
 42
0.0026677180465218
 70
     1
  0
VERTEX
  5
1051
  8
0
 10
183.90642545936561
 20
51.932366859404652
 30
0.0
  0
SEQEND
  5
1052
  8
0
  0
POLYLINE
  5
1053
  8
0
 66
     1
 10
0.0
 20
0.0
 30
0.0
 70
     2
  0
VERTEX
  5
1054
  8
0
 10
186.4064226454978
 20
52.378945347158663
 30
0.0
 42
-0.0081735387080122
  0
VERTEX
  5
1055
  8
0
 10
185.9920034498042
 20
52.249493811661161
 30
0.0
 42
-0.0141203089495592
 70
     1
  0
VERTEX
  5
1056
  8
0
 10
185.74898332454211
 20
52.185318674362918
 30
0.0
 42
-0.0010812908274196
  0
VERTEX
  5
1057
  8
0
 10
185.21973619629841
 20
52.062638587432701
 30
0.0
 42
-0.0127660177220496
 70
     1
  0
VERTEX
  5
1058
  8
0
 10
185.17463075151221
 20
52.053491263457808
 30
0.0
 42
-0.0095431681066722
  0
VERTEX
  5
1059
  8
0
 10
184.90987392046341
 20
52.011994987833482
 30
0.0
 42
-0.011341196207966
 70
     1
  0
VERTEX
  5
105A
  8
0
 10
184.68581941799269
 20
51.986409291415143
 30
0.0
 42
-0.0022322089476188
  0
VERTEX
  5
105B
  8
0
 10
184.64728952174281
 20
51.983065955146259
 30
0.0
 42
-0.0002673289696422
 70
     1
  0
VERTEX
  5
105C
  8
0
 10
184.3254291934995
 20
51.956757750059857
 30
0.0
 42
-0.0057185237359445
  0
VERTEX
  5
105D
  8
0
 10
184.1747254883831
 20
51.94625406382157
 30
0.0
 42
-0.0032154939780927
 70
     1
  0
VERTEX
  5
105E
  8
0
 10
183.9064248633197
 20
51.932365928080849
 30
0.0
  0
SEQEND
  5
105F
  8
0
  0
POLYLINE
  5
1060
  8
0
 66
     1
 10
0.0
 20
0.0
 30
0.0
 70
     2
  0
VERTEX
  5
1061
  8
0
 10
174.9040677380369
 20
106.6915284062311
 30
0.0
 42
0.0225583213762612
  0
VERTEX
  5
106D
  8
0
 10
174.30431036938259
 20
106.4501356298544
 30
0.0
 42
0.0349217853749234
 70
     1
  0
VERTEX
  5
1062
  8
0
 10
173.9370627838145
 20
106.2506644993552
 30
0.0
 42
0.002747939670832
  0
VERTEX
  5
106E
  8
0
 10
173.42616931858981
 20
105.92111725257119
 30
0.0
 42
0.016038020108665
 70
     1
  0
VERTEX
  5
1063
  8
0
 10
173.34079457729271
 20
105.8613899837658
 30
0.0
 42
0.0134994791320269
  0
VERTEX
  5
106F
  8
0
 10
173.03738234808759
 20
105.62124685122291
 30
0.0
 42
0.0159957587134696
 70
     1
  0
VERTEX
  5
1064
  8
0
 10
172.79369526644061
 20
105.40382129881129
 30
0.0
 42
0.0156235784126416
  0
VERTEX
  5
1070
  8
0
 10
172.4796659332716
 20
105.0857831276995
 30
0.0
 42
0.0188534102370979
 70
     1
  0
VERTEX
  5
1065
  8
0
 10
172.23818213691621
 20
104.80489589979599
 30
0.0
 42
0.0063209424113978
  0
VERTEX
  5
1071
  8
0
 10
172.11231229372311
 20
104.64263563855
 30
0.0
 42
0.0072679377178632
 70
     1
  0
VERTEX
  5
1066
  8
0
 10
172.00671680588229
 20
104.4985930513903
 30
0.0
 42
0.0152792742098813
  0
VERTEX
  5
1072
  8
0
 10
171.83659824292849
 20
104.2431347135948
 30
0.0
 42
0.011890663848053
 70
     1
  0
VERTEX
  5
1067
  8
0
 10
171.6361678673691
 20
103.9035193546582
 30
0.0
 42
0.0170938625662478
  0
VERTEX
  5
1073
  8
0
 10
171.51279183482669
 20
103.663729962529
 30
0.0
 42
0.0112591563512445
 70
     1
  0
VERTEX
  5
1068
  8
0
 10
171.34643994515679
 20
103.2897089281802
 30
0.0
 42
0.0222594548375391
  0
VERTEX
  5
1074
  8
0
 10
171.16901250583169
 20
102.80584467177231
 30
0.0
 42
0.0254553737243525
 70
     1
  0
VERTEX
  5
1069
  8
0
 10
171.0548580746383
 20
102.3698067223261
 30
0.0
 42
0.0148930244009121
  0
VERTEX
  5
1076
  8
0
 10
171.02011209353839
 20
102.1737114315665
 30
0.0
 42
0.0046959137129523
 70
     1
  0
VERTEX
  5
106A
  8
0
 10
170.93437498274579
 20
101.5480842039389
 30
0.0
 42
0.0180820670690279
  0
VERTEX
  5
1075
  8
0
 10
170.9192749657781
 20
101.38195019471461
 30
0.0
 42
0.008698695803208
 70
     1
  0
VERTEX
  5
106B
  8
0
 10
170.90642146585441
 20
101.0355076903983
 30
0.0
  0
SEQEND
  5
106C
  8
0
  0
POLYLINE
  5
1077
  8
0
 66
     1
 10
0.0
 20
0.0
 30
0.0
 70
     2
  0
VERTEX
  5
1078
  8
0
 10
320.90876690862638
 20
106.6915284062311
 30
0.0
 42
0.0035289183315942
  0
VERTEX
  5
1093
  8
0
 10
316.9017300395081
 20
108.07900381887021
 30
0.0
 42
0.0078759565077211
 70
     1
  0
VERTEX
  5
1079
  8
0
 10
315.0925268472198
 20
108.6595976876559
 30
0.0
 42
0.000406391101809
  0
VERTEX
  5
1094
  8
0
 10
307.8754577511354
 20
110.8444649108514
 30
0.0
 42
0.0041988254285533
 70
     1
  0
VERTEX
  5
107A
  8
0
 10
307.17501007687378
 20
111.0494924237485
 30
0.0
 42
0.0053825827966272
  0
VERTEX
  5
1095
  8
0
 10
303.5077669820439
 20
112.0470495783174
 30
0.0
 42
0.0042709290168698
 70
     1
  0
VERTEX
  5
107B
  8
0
 10
298.86263982275648
 20
113.21478159086109
 30
0.0
 42
0.0059521453271961
  0
VERTEX
  5
1096
  8
0
 10
294.79262372919129
 20
114.1499031866099
 30
0.0
 42
0.0048942829586382
 70
     1
  0
VERTEX
  5
107C
  8
0
 10
289.81945812381252
 20
115.1795008381182
 30
0.0
 42
0.0075015915920031
  0
VERTEX
  5
1097
  8
0
 10
283.32093383407391
 20
116.3577055450648
 30
0.0
 42
0.008485244369372
 70
     1
  0
VERTEX
  5
107D
  8
0
 10
277.5452990401306
 20
117.2151485553706
 30
0.0
 42
0.0031693324444815
  0
VERTEX
  5
1098
  8
0
 10
272.59452515636258
 20
117.83257975387539
 30
0.0
 42
0.0053377989971328
 70
     1
  0
VERTEX
  5
107E
  8
0
 10
269.64912392783708
 20
118.1491227073101
 30
0.0
 42
0.0019064129229359
  0
VERTEX
  5
1099
  8
0
 10
266.95080146510918
 20
118.39962508408981
 30
0.0
 42
0.0025630412705943
 70
     1
  0
VERTEX
  5
107F
  8
0
 10
264.94217395122922
 20
118.56800359027891
 30
0.0
 42
0.0044395457771229
  0
VERTEX
  5
109A
  8
0
 10
261.3417131196411
 20
118.8190987922092
 30
0.0
 42
0.0040880194647556
 70
     1
  0
VERTEX
  5
1080
  8
0
 10
257.42758077956938
 20
119.0250622597122
 30
0.0
 42
0.0037881005067774
  0
VERTEX
  5
109B
  8
0
 10
254.33591367884949
 20
119.1389483591398
 30
0.0
 42
0.0037081237311718
 70
     1
  0
VERTEX
  5
1081
  8
0
 10
251.17617818998329
 20
119.2079282602993
 30
0.0
 42
0.0041032638817909
  0
VERTEX
  5
109C
  8
0
 10
247.30376053047709
 20
119.23195594327861
 30
0.0
 42
0.0044851392376325
 70
     1
  0
VERTEX
  5
1082
  8
0
 10
243.76118309309169
 20
119.1930853927541
 30
0.0
 42
0.0028655101692006
  0
VERTEX
  5
109D
  8
0
 10
240.86809111498039
 20
119.1187942124734
 30
0.0
 42
0.0032464811792108
 70
     1
  0
VERTEX
  5
1083
  8
0
 10
238.3154866932168
 20
119.0220115204128
 30
0.0
 42
0.0035454935062938
  0
VERTEX
  5
109E
  8
0
 10
234.95238028406581
 20
118.848722268134
 30
0.0
 42
0.0038896376378266
 70
     1
  0
VERTEX
  5
1084
  8
0
 10
231.889511867295
 20
118.64519848587609
 30
0.0
 42
0.0029049092804306
  0
VERTEX
  5
109F
  8
0
 10
229.06974232395899
 20
118.4193040156989
 30
0.0
 42
0.0031313879535769
 70
     1
  0
VERTEX
  5
1085
  8
0
 10
226.4566304207078
 20
118.178183402721
 30
0.0
 42
0.0028564694707998
  0
VERTEX
  5
10A0
  8
0
 10
223.98852781445839
 20
117.9206000148816
 30
0.0
 42
0.0027860383054107
 70
     1
  0
VERTEX
  5
1086
  8
0
 10
221.46117385003279
 20
117.62796583198769
 30
0.0
 42
0.0039389181670944
  0
VERTEX
  5
10A1
  8
0
 10
218.08855569142
 20
117.19141737313009
 30
0.0
 42
0.0040080629055362
 70
     1
  0
VERTEX
  5
1087
  8
0
 10
214.78135522877699
 20
116.709776892383
 30
0.0
 42
0.0023018108660589
  0
VERTEX
  5
10A2
  8
0
 10
212.5724061545879
 20
116.3595576042153
 30
0.0
 42
0.0024961470064166
 70
     1
  0
VERTEX
  5
1088
  8
0
 10
210.53862444929089
 20
116.0170727144517
 30
0.0
 42
0.0035614391530442
  0
VERTEX
  5
10A3
  8
0
 10
207.47032182597101
 20
115.4620694479727
 30
0.0
 42
0.0034874813755401
 70
     1
  0
VERTEX
  5
1089
  8
0
 10
204.34525377691261
 20
114.8511809439309
 30
0.0
 42
0.0026534458528468
  0
VERTEX
  5
10A4
  8
0
 10
202.25317456203811
 20
114.4154792377385
 30
0.0
 42
0.0024579483078168
 70
     1
  0
VERTEX
  5
108A
  8
0
 10
199.99962640710501
 20
113.9220607700303
 30
0.0
 42
0.004078506435379
  0
VERTEX
  5
10A5
  8
0
 10
196.43458906509289
 20
113.0925069019012
 30
0.0
 42
0.0045347451154853
 70
     1
  0
VERTEX
  5
108B
  8
0
 10
193.2415435743614
 20
112.2912903241608
 30
0.0
 42
0.0019785418687484
  0
VERTEX
  5
10A6
  8
0
 10
190.6643278939209
 20
111.6087961580554
 30
0.0
 42
0.0028033548800544
 70
     1
  0
VERTEX
  5
108C
  8
0
 10
188.85007246450351
 20
111.1097322580187
 30
0.0
 42
0.001556322927692
  0
VERTEX
  5
10A7
  8
0
 10
186.99235779987521
 20
110.5812475666096
 30
0.0
 42
0.0020588815209792
 70
     1
  0
VERTEX
  5
108D
  8
0
 10
185.59102087812931
 20
110.1716187235285
 30
0.0
 42
0.002789711513169
  0
VERTEX
  5
10A8
  8
0
 10
183.22542230580481
 20
109.4551524881678
 30
0.0
 42
0.0036136491076388
 70
     1
  0
VERTEX
  5
108E
  8
0
 10
181.4064203929708
 20
108.8787007098755
 30
0.0
 42
0.0009604392160908
  0
VERTEX
  5
10A9
  8
0
 10
179.80612759575521
 20
108.35540180607811
 30
0.0
 42
0.0018587472734901
 70
     1
  0
VERTEX
  5
108F
  8
0
 10
178.98077084886671
 20
108.0803476675443
 30
0.0
 42
0.0003514158921352
  0
VERTEX
  5
10AB
  8
0
 10
178.913408897446
 20
108.0575676497792
 30
0.0
 42
0.0000104548928492
 70
     1
  0
VERTEX
  5
1090
  8
0
 10
176.64975514851031
 20
107.2902341395971
 30
0.0
 42
0.0008867374297941
  0
VERTEX
  5
10AA
  8
0
 10
176.12147377257131
 20
107.1100997713929
 30
0.0
 42
0.0003844559199972
 70
     1
  0
VERTEX
  5
1091
  8
0
 10
174.9040677380369
 20
106.6915284062311
 30
0.0
  0
SEQEND
  5
1092
  8
0
  0
POLYLINE
  5
10AC
  8
0
 66
     1
 10
0.0
 20
0.0
 30
0.0
 70
     2
  0
VERTEX
  5
10AD
  8
0
 10
320.90876690862638
 20
106.6915284062311
 30
0.0
 42
-0.0167501476266859
  0
VERTEX
  5
10B7
  8
0
 10
321.40565110040188
 20
106.4949403189306
 30
0.0
 42
-0.0314557604011281
 70
     1
  0
VERTEX
  5
10AE
  8
0
 10
321.65911802476961
 20
106.3651876340606
 30
0.0
 42
-0.0074518024573326
  0
VERTEX
  5
10B8
  8
0
 10
322.35624086424741
 20
105.9368896647829
 30
0.0
 42
-0.0231369339981289
 70
     1
  0
VERTEX
  5
10AF
  8
0
 10
322.57201688614532
 20
105.7854060173843
 30
0.0
 42
-0.0220524124569519
  0
VERTEX
  5
10B9
  8
0
 10
322.99504146450232
 20
105.4273162760696
 30
0.0
 42
-0.0235215421049293
 70
     1
  0
VERTEX
  5
10B0
  8
0
 10
323.35947012974748
 20
105.0568675297334
 30
0.0
 42
-0.0138509951991082
  0
VERTEX
  5
10BA
  8
0
 10
323.57979397620147
 20
104.79659821505081
 30
0.0
 42
-0.0126215555868088
 70
     1
  0
VERTEX
  5
10B1
  8
0
 10
323.80611866907623
 20
104.49859187947921
 30
0.0
 42
-0.0273027651290904
  0
VERTEX
  5
10BB
  8
0
 10
324.10783899217921
 20
104.02755115965461
 30
0.0
 42
-0.0238812212215792
 70
     1
  0
VERTEX
  5
10B2
  8
0
 10
324.39591268149121
 20
103.4566984091994
 30
0.0
 42
-0.0244348780074524
  0
VERTEX
  5
10BC
  8
0
 10
324.6312492849674
 20
102.85127117567301
 30
0.0
 42
-0.0321389757584061
 70
     1
  0
VERTEX
  5
10B3
  8
0
 10
324.75712806519323
 20
102.3735097953023
 30
0.0
 42
-0.0107213456879793
  0
VERTEX
  5
10BE
  8
0
 10
324.79658363260842
 20
102.1462807818297
 30
0.0
 42
-0.0044793616516867
 70
     1
  0
VERTEX
  5
10B4
  8
0
 10
324.87443799238218
 20
101.59984112434771
 30
0.0
 42
-0.0189902301296261
  0
VERTEX
  5
10BD
  8
0
 10
324.892670117188
 20
101.4076645764307
 30
0.0
 42
-0.0098410062006601
 70
     1
  0
VERTEX
  5
10B5
  8
0
 10
324.90642063138949
 20
101.0355076903983
 30
0.0
  0
SEQEND
  5
10B6
  8
0
  0
POLYLINE
  5
10C1
  8
0
 66
     1
 10
0.0
 20
0.0
 30
0.0
 70
     2
  0
VERTEX
  5
10C2
  8
0
 10
320.40017537591922
 20
94.695853363959472
 30
0.0
 42
0.0058131648825969
  0
VERTEX
  5
10CF
  8
0
 10
320.6894260430654
 20
94.78389183656023
 30
0.0
 42
0.0105120550593077
 70
     1
  0
VERTEX
  5
10C3
  8
0
 10
320.84771924344852
 20
94.837776832435665
 30
0.0
 42
0.0008943191005354
  0
VERTEX
  5
10D0
  8
0
 10
321.22282073394513
 20
94.975090881238771
 30
0.0
 42
0.0068326087254882
 70
     1
  0
VERTEX
  5
10C4
  8
0
 10
321.27163634995401
 20
94.993821306122783
 30
0.0
 42
0.0153110862841768
  0
VERTEX
  5
10D1
  8
0
 10
321.46942597626878
 20
95.079941785538765
 30
0.0
 42
0.0114834789295505
 70
     1
  0
VERTEX
  5
10C5
  8
0
 10
321.7265867334043
 20
95.208714064430879
 30
0.0
 42
0.0114761311388519
  0
VERTEX
  5
10D2
  8
0
 10
321.91143807314421
 20
95.312151498128515
 30
0.0
 42
0.0089520602423317
 70
     1
  0
VERTEX
  5
10C6
  8
0
 10
322.14278341947841
 20
95.45431430160167
 30
0.0
 42
0.0140905968797261
  0
VERTEX
  5
10D3
  8
0
 10
322.37780407945138
 20
95.614101827382683
 30
0.0
 42
0.0108141282649327
 70
     1
  0
VERTEX
  5
10C7
  8
0
 10
322.67326205052109
 20
95.837271319544215
 30
0.0
 42
0.0158831419745852
  0
VERTEX
  5
10D4
  8
0
 10
322.86338889524518
 20
95.997509586627515
 30
0.0
 42
0.0098674846100261
 70
     1
  0
VERTEX
  5
10C8
  8
0
 10
323.15569770050371
 20
96.270805245814373
 30
0.0
 42
0.0243188874830763
  0
VERTEX
  5
10D5
  8
0
 10
323.4299268402446
 20
96.564793318516195
 30
0.0
 42
0.0168847784192365
 70
     1
  0
VERTEX
  5
10C9
  8
0
 10
323.7885965285688
 20
97.019150616613757
 30
0.0
 42
0.0267374463347888
  0
VERTEX
  5
10D6
  8
0
 10
324.06873613954338
 20
97.445788884794638
 30
0.0
 42
0.0228088565605653
 70
     1
  0
VERTEX
  5
10CA
  8
0
 10
324.34599557986928
 20
97.975836779973591
 30
0.0
 42
0.0251961002858931
  0
VERTEX
  5
10D7
  8
0
 10
324.60885546674552
 20
98.622747382098623
 30
0.0
 42
0.0335187870009741
 70
     1
  0
VERTEX
  5
10CB
  8
0
 10
324.74819978464723
 20
99.129073673249124
 30
0.0
 42
0.0101562060147925
  0
VERTEX
  5
10D9
  8
0
 10
324.78455529839181
 20
99.327472370765463
 30
0.0
 42
0.0039046683136593
 70
     1
  0
VERTEX
  5
10CC
  8
0
 10
324.86456334685369
 20
99.845924936710375
 30
0.0
 42
0.0205191301255426
  0
VERTEX
  5
10D8
  8
0
 10
324.88954350633128
 20
100.0846251159246
 30
0.0
 42
0.011648625100064
 70
     1
  0
VERTEX
  5
10CD
  8
0
 10
324.90642063138949
 20
100.5069355631753
 30
0.0
  0
SEQEND
  5
10CE
  8
0
  0
POLYLINE
  5
10E1
  8
0
 66
     1
 10
0.0
 20
0.0
 30
0.0
 70
     2
  0
VERTEX
  5
10E2
  8
0
 10
320.40017537591922
 20
94.695853363959472
 30
0.0
 42
-0.0002799861787882
  0
VERTEX
  5
1100
  8
0
 10
319.86349062177851
 20
94.563201169406057
 30
0.0
 42
-0.0007154999938603
 70
     1
  0
VERTEX
  5
10E3
  8
0
 10
319.65337457930889
 20
94.511710530856476
 30
0.0
 42
-0.0000098287803135
  0
VERTEX
  5
1101
  8
0
 10
318.49781519965109
 20
94.230307701917809
 30
0.0
 42
-0.0003428101187939
 70
     1
  0
VERTEX
  5
10E4
  8
0
 10
318.46467823014899
 20
94.222262910640723
 30
0.0
 42
-0.0018163212900623
  0
VERTEX
  5
1102
  8
0
 10
317.86872173708798
 20
94.080302566276146
 30
0.0
 42
-0.0013680670624433
 70
     1
  0
VERTEX
  5
10E5
  8
0
 10
317.07631386145232
 20
93.896871362174423
 30
0.0
 42
-0.0019291366887448
  0
VERTEX
  5
1103
  8
0
 10
316.65524056102907
 20
93.802319957036616
 30
0.0
 42
-0.0011256710885237
 70
     1
  0
VERTEX
  5
10E6
  8
0
 10
315.93264476423548
 20
93.644693192992307
 30
0.0
 42
-0.0025815531877333
  0
VERTEX
  5
1104
  8
0
 10
315.39214376358001
 20
93.530980021060145
 30
0.0
 42
-0.0013195805090023
 70
     1
  0
VERTEX
  5
10E7
  8
0
 10
314.33303967634407
 20
93.316775849748439
 30
0.0
 42
-0.0041040357694944
  0
VERTEX
  5
1105
  8
0
 10
312.91465822160723
 20
93.045888064517499
 30
0.0
 42
-0.0036178264549304
 70
     1
  0
VERTEX
  5
10E8
  8
0
 10
311.30110910751279
 20
92.763480518172969
 30
0.0
 42
-0.0024909084167127
  0
VERTEX
  5
1106
  8
0
 10
309.90013451382993
 20
92.535882176495207
 30
0.0
 42
-0.0034453609492881
 70
     1
  0
VERTEX
  5
10E9
  8
0
 10
308.88537756917941
 20
92.383370097963478
 30
0.0
 42
-0.0012608621786442
  0
VERTEX
  5
1107
  8
0
 10
307.72600629264798
 20
92.220266871533227
 30
0.0
 42
-0.0029559505003386
 70
     1
  0
VERTEX
  5
10EA
  8
0
 10
307.2309032031385
 20
92.154867740163894
 30
0.0
 42
-0.0003171755382577
  0
VERTEX
  5
1108
  8
0
 10
306.77404399404622
 20
92.097560622289166
 30
0.0
 42
-0.0004407026093611
 70
     1
  0
VERTEX
  5
10EB
  8
0
 10
306.44517831323611
 20
92.056814875690606
 30
0.0
 42
-0.0006244151592275
  0
VERTEX
  5
1109
  8
0
 10
306.1635469925568
 20
92.022530354829996
 30
0.0
 42
-0.0002863341532106
 70
     1
  0
VERTEX
  5
10EC
  8
0
 10
305.54925242697641
 20
91.948884186113318
 30
0.0
 42
-0.003782998300732
  0
VERTEX
  5
110A
  8
0
 10
304.70180274176352
 20
91.854275204456656
 30
0.0
 42
-0.0021830930375161
 70
     1
  0
VERTEX
  5
10ED
  8
0
 10
303.23145205835482
 20
91.707866079947465
 30
0.0
 42
-0.0032665203255652
  0
VERTEX
  5
110B
  8
0
 10
302.0980934184791
 20
91.607474843347745
 30
0.0
 42
-0.0028031033215234
 70
     1
  0
VERTEX
  5
10EE
  8
0
 10
300.7760456282283
 20
91.506527754450516
 30
0.0
 42
-0.0029563336467387
  0
VERTEX
  5
110C
  8
0
 10
299.34584753925083
 20
91.413879121533
 30
0.0
 42
-0.0036160757978127
 70
     1
  0
VERTEX
  5
10EF
  8
0
 10
298.17568510518799
 20
91.353509482411596
 30
0.0
 42
-0.0018198468128998
  0
VERTEX
  5
110D
  8
0
 10
296.84815249721578
 20
91.299484540546644
 30
0.0
 42
-0.0028448539924527
 70
     1
  0
VERTEX
  5
10F0
  8
0
 10
295.99864330076798
 20
91.272848861274184
 30
0.0
 42
-0.0006207972600559
  0
VERTEX
  5
110E
  8
0
 10
295.48972475883062
 20
91.260422346307109
 30
0.0
 42
-0.0008728336837812
 70
     1
  0
VERTEX
  5
10F1
  8
0
 10
295.1277348444508
 20
91.252665387562914
 30
0.0
 42
-0.0020935252121993
  0
VERTEX
  5
110F
  8
0
 10
294.27035627782612
 20
91.239381241860684
 30
0.0
 42
-0.0020356915791991
 70
     1
  0
VERTEX
  5
10F2
  8
0
 10
293.38853719653611
 20
91.233001832863224
 30
0.0
 42
-0.0021276789834554
  0
VERTEX
  5
1110
  8
0
 10
292.35201345154752
 20
91.234134216147424
 30
0.0
 42
-0.0024835373486153
 70
     1
  0
VERTEX
  5
10F3
  8
0
 10
291.46405523279651
 20
91.243293738880524
 30
0.0
 42
-0.0003184951880183
  0
VERTEX
  5
1111
  8
0
 10
291.11495637815818
 20
91.248851496335973
 30
0.0
 42
-0.0005794767134617
 70
     1
  0
VERTEX
  5
10F4
  8
0
 10
290.92308849035783
 20
91.252250771576044
 30
0.0
 42
-0.0013196711602842
  0
VERTEX
  5
1112
  8
0
 10
290.45643574897258
 20
91.262291509690556
 30
0.0
 42
-0.0009284632183517
 70
     1
  0
VERTEX
  5
10F5
  8
0
 10
289.79323034827303
 20
91.279545012585515
 30
0.0
 42
-0.0021263311424492
  0
VERTEX
  5
1113
  8
0
 10
289.13294568252968
 20
91.300760016985976
 30
0.0
 42
-0.0015649220913495
 70
     1
  0
VERTEX
  5
10F6
  8
0
 10
288.23602585177781
 20
91.336208167228463
 30
0.0
 42
-0.001589685584861
  0
VERTEX
  5
1114
  8
0
 10
287.82170490608399
 20
91.355201807542826
 30
0.0
 42
-0.0008211594114198
 70
     1
  0
VERTEX
  5
10F7
  8
0
 10
287.01980753463903
 20
91.395838554427726
 30
0.0
 42
-0.003149920098416
  0
VERTEX
  5
1115
  8
0
 10
286.24265498317442
 20
91.441412064094152
 30
0.0
 42
-0.0016365782264606
 70
     1
  0
VERTEX
  5
10F8
  8
0
 10
284.74778947279719
 20
91.543441470177896
 30
0.0
 42
-0.004835611020503
  0
VERTEX
  5
1116
  8
0
 10
283.41134866114231
 20
91.652054099046836
 30
0.0
 42
-0.0031202561135099
 70
     1
  0
VERTEX
  5
10F9
  8
0
 10
281.34317061151683
 20
91.853306207655237
 30
0.0
 42
-0.0046945193489941
  0
VERTEX
  5
1117
  8
0
 10
279.8523951516882
 20
92.021930305869887
 30
0.0
 42
-0.0035994700767389
 70
     1
  0
VERTEX
  5
10FA
  8
0
 10
277.91202133951458
 20
92.274071993980698
 30
0.0
 42
-0.006031617052542
  0
VERTEX
  5
1118
  8
0
 10
275.3343646126259
 20
92.6596475206386
 30
0.0
 42
-0.0065358606595687
 70
     1
  0
VERTEX
  5
10FB
  8
0
 10
272.96525388879633
 20
93.075149709829134
 30
0.0
 42
-0.0024974173223765
  0
VERTEX
  5
1119
  8
0
 10
270.95613998461698
 20
93.465051384836897
 30
0.0
 42
-0.0053910958879821
 70
     1
  0
VERTEX
  5
10FC
  8
0
 10
270.02836507566337
 20
93.660338010657654
 30
0.0
 42
-0.0007670222385967
  0
VERTEX
  5
111B
  8
0
 10
269.69065077714907
 20
93.735778359634423
 30
0.0
 42
-0.0001509264573044
 70
     1
  0
VERTEX
  5
10FD
  8
0
 10
267.9750631603913
 20
94.122323277415987
 30
0.0
 42
-0.0016775277195358
  0
VERTEX
  5
111A
  8
0
 10
267.86847523460892
 20
94.146748877023128
 30
0.0
 42
-0.0003929681820997
 70
     1
  0
VERTEX
  5
10FE
  8
0
 10
267.41390276519519
 20
94.252901446311142
 30
0.0
  0
SEQEND
  5
10FF
  8
0
  0
POLYLINE
  5
111D
  8
0
 66
     1
 10
0.0
 20
0.0
 30
0.0
 70
     2
  0
VERTEX
  5
111E
  8
0
 10
267.41390276519519
 20
94.252901446311157
 30
0.0
 42
0.0000847026884184
  0
VERTEX
  5
1134
  8
0
 10
267.00898327323381
 20
94.347378627637227
 30
0.0
 42
0.0002030088794135
 70
     1
  0
VERTEX
  5
111F
  8
0
 10
266.8400134726665
 20
94.386700722775856
 30
0.0
 42
0.0000007005957418
  0
VERTEX
  5
1135
  8
0
 10
266.04120567184867
 20
94.572253599355463
 30
0.0
 42
0.0000730993353022
 70
     1
  0
VERTEX
  5
1120
  8
0
 10
266.03354950754198
 20
94.574030837838123
 30
0.0
 42
0.0005409660301555
  0
VERTEX
  5
1136
  8
0
 10
265.64452025978238
 20
94.663833480193716
 30
0.0
 42
0.0003188695695825
 70
     1
  0
VERTEX
  5
1121
  8
0
 10
264.98426660628968
 20
94.815049510587016
 30
0.0
 42
0.0008404740797187
  0
VERTEX
  5
1137
  8
0
 10
264.54778816667391
 20
94.913950356180067
 30
0.0
 42
0.0005911242739907
 70
     1
  0
VERTEX
  5
1122
  8
0
 10
263.9267932335643
 20
95.052792342703611
 30
0.0
 42
0.0010165868787143
  0
VERTEX
  5
1138
  8
0
 10
263.4781567302125
 20
95.151584865365294
 30
0.0
 42
0.0007604397363532
 70
     1
  0
VERTEX
  5
1123
  8
0
 10
262.87793581911768
 20
95.281522290651196
 30
0.0
 42
0.0012525969891169
  0
VERTEX
  5
1139
  8
0
 10
262.11347310332712
 20
95.443795987431244
 30
0.0
 42
0.0012598192805496
 70
     1
  0
VERTEX
  5
1124
  8
0
 10
261.352591761025
 20
95.601318109961113
 30
0.0
 42
0.0005642894827826
  0
VERTEX
  5
113A
  8
0
 10
260.87559482479992
 20
95.698255405830423
 30
0.0
 42
0.0004916368140634
 70
     1
  0
VERTEX
  5
1125
  8
0
 10
260.32787495201882
 20
95.808361349685285
 30
0.0
 42
0.0008525530473806
  0
VERTEX
  5
113B
  8
0
 10
260.10866133813403
 20
95.851816173841144
 30
0.0
 42
0.0002265743321629
 70
     1
  0
VERTEX
  5
1126
  8
0
 10
259.28345475301512
 20
96.013547085109437
 30
0.0
 42
0.0028803398185644
  0
VERTEX
  5
113C
  8
0
 10
257.64404558594651
 20
96.324286704218594
 30
0.0
 42
0.0021454047968073
 70
     1
  0
VERTEX
  5
1127
  8
0
 10
255.43896253168481
 20
96.719328502970342
 30
0.0
 42
0.0025079742990029
  0
VERTEX
  5
113D
  8
0
 10
253.9464561057066
 20
96.972399090177532
 30
0.0
 42
0.0021957195580642
 70
     1
  0
VERTEX
  5
1128
  8
0
 10
252.23905803460971
 20
97.245408781290664
 30
0.0
 42
0.0021821205000377
  0
VERTEX
  5
113E
  8
0
 10
250.4082733452415
 20
97.521730743328575
 30
0.0
 42
0.0024684475460005
 70
     1
  0
VERTEX
  5
1129
  8
0
 10
248.78764602989429
 20
97.750937607616422
 30
0.0
 42
0.0018307646201459
  0
VERTEX
  5
113F
  8
0
 10
247.0897759992331
 20
97.976195700956396
 30
0.0
 42
0.0021948448258221
 70
     1
  0
VERTEX
  5
112A
  8
0
 10
245.67207922258021
 20
98.15267999631233
 30
0.0
 42
0.0014105508334825
  0
VERTEX
  5
1140
  8
0
 10
244.41846736932351
 20
98.299566379153021
 30
0.0
 42
0.0015545218439081
 70
     1
  0
VERTEX
  5
112B
  8
0
 10
243.28018708234299
 20
98.426101135757577
 30
0.0
 42
0.0020506681103713
  0
VERTEX
  5
1141
  8
0
 10
241.82126875664471
 20
98.577638019569335
 30
0.0
 42
0.0017923075212866
 70
     1
  0
VERTEX
  5
112C
  8
0
 10
240.1507661736054
 20
98.738184210366583
 30
0.0
 42
0.0018484958053951
  0
VERTEX
  5
1142
  8
0
 10
239.26370776215839
 20
98.816921888030265
 30
0.0
 42
0.0010478187096896
 70
     1
  0
VERTEX
  5
112D
  8
0
 10
237.69804042558189
 20
98.946758526897725
 30
0.0
 42
0.0037027461628224
  0
VERTEX
  5
1143
  8
0
 10
235.61073304119779
 20
99.099900424116299
 30
0.0
 42
0.0028065284570298
 70
     1
  0
VERTEX
  5
112E
  8
0
 10
232.85449830383081
 20
99.266077485930424
 30
0.0
 42
0.0037182004884306
  0
VERTEX
  5
1144
  8
0
 10
230.21375659520351
 20
99.39073116592192
 30
0.0
 42
0.003855390555606
 70
     1
  0
VERTEX
  5
112F
  8
0
 10
227.66545155695741
 20
99.472360683532912
 30
0.0
 42
0.0020274785353487
  0
VERTEX
  5
1145
  8
0
 10
225.63191354482481
 20
99.513558118691151
 30
0.0
 42
0.0022510291671068
 70
     1
  0
VERTEX
  5
1130
  8
0
 10
223.80007481933899
 20
99.534990182977126
 30
0.0
 42
0.0023581167933177
  0
VERTEX
  5
1147
  8
0
 10
223.72741038152529
 20
99.535170459866507
 30
0.0
 42
0.0000541034606884
 70
     1
  0
VERTEX
  5
1131
  8
0
 10
220.56032396209861
 20
99.527748423164994
 30
0.0
 42
0.0073001307690459
  0
VERTEX
  5
1146
  8
0
 10
217.19160352798011
 20
99.470300460987374
 30
0.0
 42
0.0052452925389707
 70
     1
  0
VERTEX
  5
1132
  8
0
 10
212.50679244958269
 20
99.272755321537787
 30
0.0
  0
SEQEND
  5
1133
  8
0
  0
POLYLINE
  5
1149
  8
0
 66
     1
 10
0.0
 20
0.0
 30
0.0
 70
     2
  0
VERTEX
  5
114A
  8
0
 10
212.50679244958269
 20
99.272755321537787
 30
0.0
 42
0.0000901491899534
  0
VERTEX
  5
1158
  8
0
 10
212.39585221681051
 20
99.266935058001764
 30
0.0
 42
0.0002759519651218
 70
     1
  0
VERTEX
  5
114B
  8
0
 10
212.3596111777922
 20
99.265007132541314
 30
0.0
 42
0.0000009099820014
  0
VERTEX
  5
1159
  8
0
 10
212.05656393087699
 20
99.248717552585731
 30
0.0
 42
0.0001558266935064
 70
     1
  0
VERTEX
  5
114C
  8
0
 10
212.05479425398889
 20
99.24862187148203
 30
0.0
 42
0.0002422132233275
  0
VERTEX
  5
115A
  8
0
 10
211.9084138653416
 20
99.240590648207217
 30
0.0
 42
0.0001759555446957
 70
     1
  0
VERTEX
  5
114D
  8
0
 10
211.70692191734301
 20
99.229366675067894
 30
0.0
 42
0.0002010972671725
  0
VERTEX
  5
115B
  8
0
 10
211.63107168444549
 20
99.225084109979434
 30
0.0
 42
0.0000780753615486
 70
     1
  0
VERTEX
  5
114E
  8
0
 10
211.4357118361047
 20
99.213944506564985
 30
0.0
 42
0.0005053788908828
  0
VERTEX
  5
115C
  8
0
 10
211.1936082043467
 20
99.199856078074404
 30
0.0
 42
0.0002898305481205
 70
     1
  0
VERTEX
  5
114F
  8
0
 10
210.7714906387354
 20
99.174618647880138
 30
0.0
 42
0.0007065844853606
  0
VERTEX
  5
115D
  8
0
 10
210.38764307408559
 20
99.150901522576078
 30
0.0
 42
0.0005556756727474
 70
     1
  0
VERTEX
  5
1150
  8
0
 10
209.89962906691861
 20
99.119511274019771
 30
0.0
 42
0.0005277183425853
  0
VERTEX
  5
115E
  8
0
 10
209.6217443427085
 20
99.101032358662451
 30
0.0
 42
0.0003304280827229
 70
     1
  0
VERTEX
  5
1151
  8
0
 10
209.17799305082019
 20
99.070758503483631
 30
0.0
 42
0.0008125233610564
  0
VERTEX
  5
115F
  8
0
 10
208.9119395681482
 20
99.051996550859258
 30
0.0
 42
0.0003527659180732
 70
     1
  0
VERTEX
  5
1152
  8
0
 10
208.29924308168
 20
99.00735423800451
 30
0.0
 42
0.0018343074295287
  0
VERTEX
  5
1160
  8
0
 10
207.33634634585539
 20
98.932960037622593
 30
0.0
 42
0.0017280440554227
 70
     1
  0
VERTEX
  5
1153
  8
0
 10
206.31482673036481
 20
98.846710968212662
 30
0.0
 42
0.0009019665200961
  0
VERTEX
  5
1161
  8
0
 10
205.44673289218551
 20
98.768815137209913
 30
0.0
 42
0.0011803820311263
 70
     1
  0
VERTEX
  5
1154
  8
0
 10
204.78364872720681
 20
98.706530406434524
 30
0.0
 42
0.0002977444477518
  0
VERTEX
  5
1163
  8
0
 10
204.76826985810479
 20
98.705039962793322
 30
0.0
 42
0.000003586883055
 70
     1
  0
VERTEX
  5
1155
  8
0
 10
203.4917564811077
 20
98.580550045942644
 30
0.0
 42
0.0007822444507342
  0
VERTEX
  5
1162
  8
0
 10
202.88992555406369
 20
98.520902433185256
 30
0.0
 42
0.0004425861499453
 70
     1
  0
VERTEX
  5
1156
  8
0
 10
201.82648740528089
 20
98.412873517958786
 30
0.0
  0
SEQEND
  5
1157
  8
0
  0
POLYLINE
  5
1164
  8
0
 66
     1
 10
0.0
 20
0.0
 30
0.0
 70
     2
  0
VERTEX
  5
1165
  8
0
 10
201.82648740528089
 20
98.412873517958786
 30
0.0
 42
0.0190648618636292
  0
VERTEX
  5
1173
  8
0
 10
200.84136557759609
 20
98.26127020748504
 30
0.0
 42
0.031152791025163
 70
     1
  0
VERTEX
  5
1166
  8
0
 10
200.2504699832123
 20
98.108433506887792
 30
0.0
 42
0.0036222670761417
  0
VERTEX
  5
1174
  8
0
 10
199.2126767735742
 20
97.761481664761121
 30
0.0
 42
0.0173485369175614
 70
     1
  0
VERTEX
  5
1167
  8
0
 10
198.9991582238533
 20
97.679995831528885
 30
0.0
 42
0.0181537163228418
  0
VERTEX
  5
1175
  8
0
 10
198.40937196342949
 20
97.405520673398556
 30
0.0
 42
0.0169522436143831
 70
     1
  0
VERTEX
  5
1168
  8
0
 10
197.79998491664841
 20
97.068026713687388
 30
0.0
 42
0.0187939000401097
  0
VERTEX
  5
1176
  8
0
 10
197.0649590773601
 20
96.589334317558212
 30
0.0
 42
0.0230528578521264
 70
     1
  0
VERTEX
  5
1169
  8
0
 10
196.50034249792401
 20
96.150280761120484
 30
0.0
 42
0.0102332371516448
  0
VERTEX
  5
1177
  8
0
 10
196.03173909620349
 20
95.733020868404424
 30
0.0
 42
0.0151607614290282
 70
     1
  0
VERTEX
  5
116A
  8
0
 10
195.73010749031241
 20
95.435647658938024
 30
0.0
 42
0.0088516838480842
  0
VERTEX
  5
1178
  8
0
 10
195.4159796638375
 20
95.094703853194005
 30
0.0
 42
0.0100300222488102
 70
     1
  0
VERTEX
  5
116B
  8
0
 10
195.15030722272689
 20
94.783555986208768
 30
0.0
 42
0.013344917253563
  0
VERTEX
  5
1179
  8
0
 10
194.87337922612431
 20
94.426719950422694
 30
0.0
 42
0.0110143379845199
 70
     1
  0
VERTEX
  5
116C
  8
0
 10
194.5593241284877
 20
93.978578580580063
 30
0.0
 42
0.0169107063887209
  0
VERTEX
  5
117A
  8
0
 10
194.27007312648621
 20
93.512479250990964
 30
0.0
 42
0.013952271810808
 70
     1
  0
VERTEX
  5
116D
  8
0
 10
193.95503168543871
 20
92.927052924241764
 30
0.0
 42
0.0156104098813812
  0
VERTEX
  5
117B
  8
0
 10
193.71994532043371
 20
92.420581782726003
 30
0.0
 42
0.0135250097433408
 70
     1
  0
VERTEX
  5
116E
  8
0
 10
193.48312747041231
 20
91.82124629284931
 30
0.0
 42
0.0180056181300716
  0
VERTEX
  5
117C
  8
0
 10
193.25389888468791
 20
91.113561613647562
 30
0.0
 42
0.0234604760634639
 70
     1
  0
VERTEX
  5
116F
  8
0
 10
193.12352917814971
 20
90.557591703507725
 30
0.0
 42
0.0125826902291871
  0
VERTEX
  5
117E
  8
0
 10
193.08523914245211
 20
90.317659966504834
 30
0.0
 42
0.0030704106332489
 70
     1
  0
VERTEX
  5
1170
  8
0
 10
192.9591959125346
 20
89.330125595612529
 30
0.0
 42
0.0148587192990768
  0
VERTEX
  5
117D
  8
0
 10
192.933287701924
 20
89.046494134469867
 30
0.0
 42
0.0073489114040871
 70
     1
  0
VERTEX
  5
1171
  8
0
 10
192.90642134664509
 20
88.471357073871758
 30
0.0
  0
SEQEND
  5
1172
  8
0
  0
POLYLINE
  5
1180
  8
0
 66
     1
 10
0.0
 20
0.0
 30
0.0
 70
     2
  0
VERTEX
  5
1181
  8
0
 10
171.90641604183179
 20
101.0355076903983
 30
0.0
 42
-0.0035633601201367
  0
VERTEX
  5
118E
  8
0
 10
171.93041159308129
 20
101.3070976395438
 30
0.0
 42
-0.0070693485914877
 70
     1
  0
VERTEX
  5
1182
  8
0
 10
171.94541547850511
 20
101.44371162002049
 30
0.0
 42
-0.0005723851364496
  0
VERTEX
  5
118F
  8
0
 10
171.99565590950209
 20
101.844603465739
 30
0.0
 42
-0.0035421529842484
 70
     1
  0
VERTEX
  5
1183
  8
0
 10
172.00430729465691
 20
101.9093163472655
 30
0.0
 42
-0.0141624681368826
  0
VERTEX
  5
1190
  8
0
 10
172.03626641643689
 20
102.09740464028521
 30
0.0
 42
-0.008807478195294
 70
     1
  0
VERTEX
  5
1184
  8
0
 10
172.1014833872581
 20
102.3971356887571
 30
0.0
 42
-0.020066618259652
  0
VERTEX
  5
1191
  8
0
 10
172.15704646639671
 20
102.59635824630681
 30
0.0
 42
-0.0128332926474712
 70
     1
  0
VERTEX
  5
1185
  8
0
 10
172.26419404182951
 20
102.9014115443056
 30
0.0
 42
-0.0251131306795851
  0
VERTEX
  5
1192
  8
0
 10
172.40886444798261
 20
103.2309630671636
 30
0.0
 42
-0.0209377592702174
 70
     1
  0
VERTEX
  5
1186
  8
0
 10
172.6179564813703
 20
103.60852985219429
 30
0.0
 42
-0.016936809258619
  0
VERTEX
  5
1193
  8
0
 10
172.8383150521876
 20
103.94378026162531
 30
0.0
 42
-0.0195088013422543
 70
     1
  0
VERTEX
  5
1187
  8
0
 10
173.05032804487581
 20
104.2201546045593
 30
0.0
 42
-0.0128725013485073
  0
VERTEX
  5
1194
  8
0
 10
173.26299521314169
 20
104.46305766635361
 30
0.0
 42
-0.0156637070133607
 70
     1
  0
VERTEX
  5
1188
  8
0
 10
173.44888203106879
 20
104.6523980640553
 30
0.0
 42
-0.0161570187443261
  0
VERTEX
  5
1195
  8
0
 10
173.67192829614859
 20
104.8523943515266
 30
0.0
 42
-0.0190450408979473
 70
     1
  0
VERTEX
  5
1189
  8
0
 10
173.87263741523051
 20
105.00834878767741
 30
0.0
 42
-0.0164587643870698
  0
VERTEX
  5
1196
  8
0
 10
174.17429019086481
 20
105.210133888058
 30
0.0
 42
-0.0196133686479484
 70
     1
  0
VERTEX
  5
118A
  8
0
 10
174.43900132065929
 20
105.3607963496115
 30
0.0
 42
-0.0031776132827676
  0
VERTEX
  5
1198
  8
0
 10
174.52952942481579
 20
105.4069930992633
 30
0.0
 42
-0.0008067833454288
 70
     1
  0
VERTEX
  5
118B
  8
0
 10
174.8875204676097
 20
105.58609580563019
 30
0.0
 42
-0.0068212549718828
  0
VERTEX
  5
1197
  8
0
 10
175.0013966316863
 20
105.6409121506111
 30
0.0
 42
-0.0033171755792609
 70
     1
  0
VERTEX
  5
118C
  8
0
 10
175.23779414413431
 20
105.74885859736651
 30
0.0
  0
SEQEND
  5
118D
  8
0
  0
POLYLINE
  5
1199
  8
0
 66
     1
 10
0.0
 20
0.0
 30
0.0
 70
     2
  0
VERTEX
  5
119A
  8
0
 10
319.90759514091479
 20
103.86351897963731
 30
0.0
 42
-0.0197164856639757
  0
VERTEX
  5
11A3
  8
0
 10
320.24812866522763
 20
103.7117434352141
 30
0.0
 42
-0.0312138542567353
 70
     1
  0
VERTEX
  5
119B
  8
0
 10
320.45248850098352
 20
103.5944342143287
 30
0.0
 42
-0.004368599656168
  0
VERTEX
  5
11A4
  8
0
 10
320.79097551182122
 20
103.36669285619929
 30
0.0
 42
-0.0219694649108061
 70
     1
  0
VERTEX
  5
119C
  8
0
 10
320.85583586375577
 20
103.31790358219691
 30
0.0
 42
-0.0218666162744942
  0
VERTEX
  5
11A5
  8
0
 10
320.97987119628988
 20
103.2063248402751
 30
0.0
 42
-0.0148653780220141
 70
     1
  0
VERTEX
  5
119D
  8
0
 10
321.1497432541791
 20
103.0292932755669
 30
0.0
 42
-0.0272342803943921
  0
VERTEX
  5
11A6
  8
0
 10
321.32021876844652
 20
102.8187307998078
 30
0.0
 42
-0.0224963343514682
 70
     1
  0
VERTEX
  5
119E
  8
0
 10
321.5002297105811
 20
102.5446570565603
 30
0.0
 42
-0.0329053250273174
  0
VERTEX
  5
11A7
  8
0
 10
321.68095751859261
 20
102.1891928588481
 30
0.0
 42
-0.0425036076457535
 70
     1
  0
VERTEX
  5
119F
  8
0
 10
321.77802995352329
 20
101.8958979403707
 30
0.0
 42
-0.0097421594168731
  0
VERTEX
  5
11A9
  8
0
 10
321.8001490567849
 20
101.7946979156204
 30
0.0
 42
-0.0033638370980885
 70
     1
  0
VERTEX
  5
11A0
  8
0
 10
321.85650106472758
 20
101.50005438298869
 30
0.0
 42
-0.018800803689234
  0
VERTEX
  5
11A8
  8
0
 10
321.8826107704059
 20
101.32080989495709
 30
0.0
 42
-0.0118926064139771
 70
     1
  0
VERTEX
  5
11A1
  8
0
 10
321.90642200229632
 20
101.0355076903983
 30
0.0
  0
SEQEND
  5
11A2
  8
0
  0
POLYLINE
  5
11AB
  8
0
 66
     1
 10
0.0
 20
0.0
 30
0.0
 70
     2
  0
VERTEX
  5
11AD
  8
0
 10
321.90642200229632
 20
100.5069355631753
 30
0.0
 42
-0.0230552325586598
  0
VERTEX
  5
11B6
  8
0
 10
321.87411138362671
 20
100.1004901197884
 30
0.0
 42
-0.0382973853154013
 70
     1
  0
VERTEX
  5
11AE
  8
0
 10
321.82482288392708
 20
99.85980128000385
 30
0.0
 42
-0.0102129966495137
  0
VERTEX
  5
11B7
  8
0
 10
321.66124449254647
 20
99.329063099758983
 30
0.0
 42
-0.0344616138199897
 70
     1
  0
VERTEX
  5
11AF
  8
0
 10
321.59886182127502
 20
99.176560628929224
 30
0.0
 42
-0.0268448635037283
  0
VERTEX
  5
11B8
  8
0
 10
321.45369525791818
 20
98.917563574801989
 30
0.0
 42
-0.0261094341718788
 70
     1
  0
VERTEX
  5
11B0
  8
0
 10
321.27713913860617
 20
98.668546583903918
 30
0.0
 42
-0.0191314521266389
  0
VERTEX
  5
11B9
  8
0
 10
321.07326656683921
 20
98.430014397351684
 30
0.0
 42
-0.025649008058351
 70
     1
  0
VERTEX
  5
11B1
  8
0
 10
320.90584902632628
 20
98.266358355404478
 30
0.0
 42
-0.0235648908451956
  0
VERTEX
  5
11BA
  8
0
 10
320.66251159416629
 20
98.071333636812312
 30
0.0
 42
-0.0325324244942875
 70
     1
  0
VERTEX
  5
11B2
  8
0
 10
320.47144981589832
 20
97.950622926320321
 30
0.0
 42
-0.0098216791006661
  0
VERTEX
  5
11BC
  8
0
 10
320.4142584863435
 20
97.920937005149653
 30
0.0
 42
-0.0022303173021752
 70
     1
  0
VERTEX
  5
11B3
  8
0
 10
320.1593500315492
 20
97.796328021864142
 30
0.0
 42
-0.0206357805018291
  0
VERTEX
  5
11BB
  8
0
 10
319.95871327364029
 20
97.709374897710006
 30
0.0
 42
-0.0139264958646791
 70
     1
  0
VERTEX
  5
11B4
  8
0
 10
319.65329937456107
 20
97.601395394889977
 30
0.0
  0
SEQEND
  5
11B5
  8
0
  0
POLYLINE
  5
11BE
  8
0
 66
     1
 10
0.0
 20
0.0
 30
0.0
 70
     2
  0
VERTEX
  5
11BF
  8
0
 10
319.65329937456107
 20
97.601395394889977
 30
0.0
 42
-0.0005473909937565
  0
VERTEX
  5
11D4
  8
0
 10
318.97008719232957
 20
97.441809335347671
 30
0.0
 42
-0.0012017137202775
 70
     1
  0
VERTEX
  5
11C0
  8
0
 10
318.65862538751918
 20
97.370205539580752
 30
0.0
 42
-0.0000141751228795
  0
VERTEX
  5
11D5
  8
0
 10
317.47574946122398
 20
97.101294031688667
 30
0.0
 42
-0.0005048423848757
 70
     1
  0
VERTEX
  5
11C1
  8
0
 10
317.44252847147487
 20
97.093777928562133
 30
0.0
 42
-0.0019099121208046
  0
VERTEX
  5
11D6
  8
0
 10
317.21966695123592
 20
97.04448666548501
 30
0.0
 42
-0.00055892868071
 70
     1
  0
VERTEX
  5
11C2
  8
0
 10
316.45730823840819
 20
96.879816581592749
 30
0.0
 42
-0.0051316071247638
  0
VERTEX
  5
11D7
  8
0
 10
315.59452949563729
 20
96.703708330528116
 30
0.0
 42
-0.0034935683967442
 70
     1
  0
VERTEX
  5
11C3
  8
0
 10
314.32296182209609
 20
96.46692991085915
 30
0.0
 42
-0.0067902452873261
  0
VERTEX
  5
11D8
  8
0
 10
313.30507444082991
 20
96.298970847454143
 30
0.0
 42
-0.0045990937381976
 70
     1
  0
VERTEX
  5
11C4
  8
0
 10
311.7970131929282
 20
96.08528986766369
 30
0.0
 42
-0.0048134516690712
  0
VERTEX
  5
11D9
  8
0
 10
310.76541255543231
 20
95.958879135010591
 30
0.0
 42
-0.0033948835016576
 70
     1
  0
VERTEX
  5
11C5
  8
0
 10
309.30002461162582
 20
95.803683815995001
 30
0.0
 42
-0.0075476532242054
  0
VERTEX
  5
11DA
  8
0
 10
307.05058979952258
 20
95.615125494915333
 30
0.0
 42
-0.007755199768945
 70
     1
  0
VERTEX
  5
11C6
  8
0
 10
304.85675763025603
 20
95.498690298274965
 30
0.0
 42
-0.0040516760190192
  0
VERTEX
  5
11DB
  8
0
 10
302.95623364132729
 20
95.442778360407459
 30
0.0
 42
-0.0058547432046462
 70
     1
  0
VERTEX
  5
11C7
  8
0
 10
301.64047622789849
 20
95.430149228844499
 30
0.0
 42
-0.0020596696079509
  0
VERTEX
  5
11DC
  8
0
 10
300.2560899692744
 20
95.438774907032425
 30
0.0
 42
-0.0032789260661469
 70
     1
  0
VERTEX
  5
11C8
  8
0
 10
299.38658434892841
 20
95.453477708203323
 30
0.0
 42
-0.0026480632286766
  0
VERTEX
  5
11DD
  8
0
 10
298.38703418242773
 20
95.482234411812826
 30
0.0
 42
-0.0023594582259974
 70
     1
  0
VERTEX
  5
11C9
  8
0
 10
297.26560180410081
 20
95.525741704722805
 30
0.0
 42
-0.004428931162203
  0
VERTEX
  5
11DE
  8
0
 10
295.83349707553128
 20
95.600785896572347
 30
0.0
 42
-0.0037047663798717
 70
     1
  0
VERTEX
  5
11CA
  8
0
 10
294.12315703357518
 20
95.718335274636516
 30
0.0
 42
-0.0037947783361313
  0
VERTEX
  5
11DF
  8
0
 10
292.6996286034464
 20
95.837648611424257
 30
0.0
 42
-0.0033840649041219
 70
     1
  0
VERTEX
  5
11CB
  8
0
 10
291.10542108273489
 20
95.994346639130285
 30
0.0
 42
-0.0038401366236213
  0
VERTEX
  5
11E0
  8
0
 10
289.39425422165192
 20
96.187540472727733
 30
0.0
 42
-0.0035559165120634
 70
     1
  0
VERTEX
  5
11CC
  8
0
 10
287.5496079357917
 20
96.423486513979086
 30
0.0
 42
-0.0036442846482894
  0
VERTEX
  5
11E1
  8
0
 10
285.66001959751702
 20
96.692889879507007
 30
0.0
 42
-0.0035842116997679
 70
     1
  0
VERTEX
  5
11CD
  8
0
 10
283.74292242446222
 20
96.994554341300784
 30
0.0
 42
-0.0033045836515638
  0
VERTEX
  5
11E2
  8
0
 10
281.50940573387737
 20
97.377613750558794
 30
0.0
 42
-0.0038665720822894
 70
     1
  0
VERTEX
  5
11CE
  8
0
 10
279.60540430664378
 20
97.732341768921586
 30
0.0
 42
-0.0022133151321935
  0
VERTEX
  5
11E3
  8
0
 10
277.2133203691883
 20
98.208169312757505
 30
0.0
 42
-0.0030055834777715
 70
     1
  0
VERTEX
  5
11CF
  8
0
 10
275.45553302102252
 20
98.576937850660613
 30
0.0
 42
-0.0009075497123934
  0
VERTEX
  5
11E4
  8
0
 10
273.53984757177381
 20
98.994510593477571
 30
0.0
 42
-0.0020591380220776
 70
     1
  0
VERTEX
  5
11D0
  8
0
 10
272.69662747451071
 20
99.183559726053005
 30
0.0
 42
-0.0006930076001086
  0
VERTEX
  5
11E6
  8
0
 10
272.5389342566487
 20
99.219827147084288
 30
0.0
 42
-0.0000396463159633
 70
     1
  0
VERTEX
  5
11D1
  8
0
 10
269.7834297975167
 20
99.857810558167543
 30
0.0
 42
-0.0012044480420897
  0
VERTEX
  5
11E5
  8
0
 10
269.5832079891843
 20
99.904693218995817
 30
0.0
 42
-0.0003117899346197
 70
     1
  0
VERTEX
  5
11D2
  8
0
 10
268.81030268786412
 20
100.0881458784028
 30
0.0
  0
SEQEND
  5
11D3
  8
0
  0
POLYLINE
  5
11E7
  8
0
 66
     1
 10
0.0
 20
0.0
 30
0.0
 70
     2
  0
VERTEX
  5
11E8
  8
0
 10
201.50250635860431
 20
101.39532789239129
 30
0.0
 42
0.0032888940876613
  0
VERTEX
  5
11F9
  8
0
 10
200.9947873606115
 20
101.3141396419676
 30
0.0
 42
0.0076921198450382
 70
     1
  0
VERTEX
  5
11E9
  8
0
 10
200.7785078343102
 20
101.2746655699073
 30
0.0
 42
0.0008366142665969
  0
VERTEX
  5
11FA
  8
0
 10
199.7454555415402
 20
101.0678523577611
 30
0.0
 42
0.007614351856186
 70
     1
  0
VERTEX
  5
11EA
  8
0
 10
199.63234441161211
 20
101.0432126063574
 30
0.0
 42
0.0094702786441945
  0
VERTEX
  5
11FB
  8
0
 10
199.30761575003319
 20
100.9607610821699
 30
0.0
 42
0.0079930954431665
 70
     1
  0
VERTEX
  5
11EB
  8
0
 10
198.9265304737944
 20
100.8496996773472
 30
0.0
 42
0.0089628382715653
  0
VERTEX
  5
11FC
  8
0
 10
198.63614910889211
 20
100.7542782133545
 30
0.0
 42
0.006457244770121
 70
     1
  0
VERTEX
  5
11EC
  8
0
 10
198.23738260009191
 20
100.60947097194099
 30
0.0
 42
0.0127570712777824
  0
VERTEX
  5
11FD
  8
0
 10
197.82126609283171
 20
100.4399992469543
 30
0.0
 42
0.0091087232913946
 70
     1
  0
VERTEX
  5
11ED
  8
0
 10
197.2494597438764
 20
100.1774193894607
 30
0.0
 42
0.0135705480497652
  0
VERTEX
  5
11FE
  8
0
 10
196.68105290784681
 20
99.88449683765846
 30
0.0
 42
0.012830124239139
 70
     1
  0
VERTEX
  5
11EE
  8
0
 10
196.0970433670432
 20
99.543380123774568
 30
0.0
 42
0.0106413807373154
  0
VERTEX
  5
11FF
  8
0
 10
195.54707827874159
 20
99.186522337118049
 30
0.0
 42
0.0127780445813552
 70
     1
  0
VERTEX
  5
11EF
  8
0
 10
195.1034690681046
 20
98.868202526908789
 30
0.0
 42
0.0078162168703148
  0
VERTEX
  5
1200
  8
0
 10
194.7168729019084
 20
98.565923057620239
 30
0.0
 42
0.0086138568529658
 70
     1
  0
VERTEX
  5
11F0
  8
0
 10
194.37527162497841
 20
98.280253957299877
 30
0.0
 42
0.0098088608749247
  0
VERTEX
  5
1201
  8
0
 10
194.0619743492577
 20
97.998005546596474
 30
0.0
 42
0.0075628117890884
 70
     1
  0
VERTEX
  5
11F1
  8
0
 10
193.66860841168619
 20
97.61805457358615
 30
0.0
 42
0.0151053447618629
  0
VERTEX
  5
1202
  8
0
 10
193.26883523592571
 20
97.195253030208278
 30
0.0
 42
0.0109588673275373
 70
     1
  0
VERTEX
  5
11F2
  8
0
 10
192.74896913003121
 20
96.584624918072947
 30
0.0
 42
0.0148104579760009
  0
VERTEX
  5
1203
  8
0
 10
192.42859664995461
 20
96.166458954496207
 30
0.0
 42
0.0102319789306634
 70
     1
  0
VERTEX
  5
11F3
  8
0
 10
191.9957999684099
 20
95.538793401536282
 30
0.0
 42
0.0226934756922777
  0
VERTEX
  5
1204
  8
0
 10
191.50238874311739
 20
94.711583720818453
 30
0.0
 42
0.0187596571931759
 70
     1
  0
VERTEX
  5
11F4
  8
0
 10
190.99049911323209
 20
93.665097455042613
 30
0.0
 42
0.0158904025073691
  0
VERTEX
  5
1205
  8
0
 10
190.6827796934891
 20
92.907101646314914
 30
0.0
 42
0.0170708579348153
 70
     1
  0
VERTEX
  5
11F5
  8
0
 10
190.44342764974559
 20
92.184158194275
 30
0.0
 42
0.0205363065800507
  0
VERTEX
  5
1207
  8
0
 10
190.34995894218341
 20
91.809546607989887
 30
0.0
 42
0.0048301277459011
 70
     1
  0
VERTEX
  5
11F6
  8
0
 10
190.03395443027321
 20
90.199346397294534
 30
0.0
 42
0.0276206200008633
  0
VERTEX
  5
1206
  8
0
 10
189.95563465256129
 20
89.595121084593757
 30
0.0
 42
0.0149528858986918
 70
     1
  0
VERTEX
  5
11F7
  8
0
 10
189.90641526697141
 20
88.471357073871758
 30
0.0
  0
SEQEND
  5
11F8
  8
0
  0
POLYLINE
  5
1208
  8
0
 66
     1
 10
0.0
 20
0.0
 30
0.0
 70
     2
  0
VERTEX
  5
1209
  8
0
 10
201.50250635860431
 20
101.39532789239129
 30
0.0
 42
-0.0000118359570996
  0
VERTEX
  5
121C
  8
0
 10
201.79380778875199
 20
101.4266015254543
 30
0.0
 42
-0.0000230565848158
 70
     1
  0
VERTEX
  5
120A
  8
0
 10
201.94334671898241
 20
101.44264521848309
 30
0.0
  0
VERTEX
  5
120B
  8
0
 10
202.36145346935501
 20
101.4874834342002
 30
0.0
 42
-0.0000481475708929
  0
VERTEX
  5
121D
  8
0
 10
202.4936342607252
 20
101.5016418524901
 30
0.0
 42
-0.0000146329017768
 70
     1
  0
VERTEX
  5
120C
  8
0
 10
202.92856300283611
 20
101.54817359039529
 30
0.0
 42
-0.0000971438573802
  0
VERTEX
  5
121E
  8
0
 10
203.0569594461121
 20
101.56188131423551
 30
0.0
 42
-0.0000230919095797
 70
     1
  0
VERTEX
  5
120D
  8
0
 10
203.59711596619999
 20
101.6194175579121
 30
0.0
 42
-0.0002893045528207
  0
VERTEX
  5
121F
  8
0
 10
204.0746653451352
 20
101.66998329661141
 30
0.0
 42
-0.0001396033525256
 70
     1
  0
VERTEX
  5
120E
  8
0
 10
205.0643958651882
 20
101.77392334119
 30
0.0
 42
-0.0004985537809675
  0
VERTEX
  5
1220
  8
0
 10
205.4562149035628
 20
101.8145660686468
 30
0.0
 42
-0.0001670433224412
 70
     1
  0
VERTEX
  5
120F
  8
0
 10
206.6257894631938
 20
101.9343105971257
 30
0.0
 42
-0.0008816272878224
  0
VERTEX
  5
1221
  8
0
 10
207.46634310035009
 20
102.0185879560931
 30
0.0
 42
-0.0003630975164276
 70
     1
  0
VERTEX
  5
1210
  8
0
 10
209.5077704968181
 20
102.2181380005395
 30
0.0
 42
-0.0014624397874944
  0
VERTEX
  5
1222
  8
0
 10
210.87433056492591
 20
102.34668428336271
 30
0.0
 42
-0.0007626077019622
 70
     1
  0
VERTEX
  5
1211
  8
0
 10
213.4960264698102
 20
102.5815304886775
 30
0.0
 42
-0.0022916800572401
  0
VERTEX
  5
1223
  8
0
 10
215.73344077411639
 20
102.7681838247899
 30
0.0
 42
-0.0016568299906613
 70
     1
  0
VERTEX
  5
1212
  8
0
 10
218.83010303728949
 20
103.00190992847649
 30
0.0
 42
-0.0024492564238387
  0
VERTEX
  5
1224
  8
0
 10
220.62954555373841
 20
103.1228734394183
 30
0.0
 42
-0.0014409861198907
 70
     1
  0
VERTEX
  5
1213
  8
0
 10
223.6895684714174
 20
103.3046726626238
 30
0.0
 42
-0.0035209881554118
  0
VERTEX
  5
1225
  8
0
 10
225.6023081939984
 20
103.3992722971629
 30
0.0
 42
-0.0018035382576076
 70
     1
  0
VERTEX
  5
1214
  8
0
 10
229.3382075331827
 20
103.5441796515876
 30
0.0
 42
-0.006837920214528
  0
VERTEX
  5
1226
  8
0
 10
233.83022142100711
 20
103.6407084598777
 30
0.0
 42
-0.0061407916920391
 70
     1
  0
VERTEX
  5
1215
  8
0
 10
238.83324711703909
 20
103.61833787935269
 30
0.0
 42
-0.0050623672434992
  0
VERTEX
  5
1227
  8
0
 10
242.4816468680074
 20
103.5202545506169
 30
0.0
 42
-0.0055045308346659
 70
     1
  0
VERTEX
  5
1216
  8
0
 10
245.8343410469798
 20
103.3591643694698
 30
0.0
 42
-0.0041514953544868
  0
VERTEX
  5
1228
  8
0
 10
248.4046119872819
 20
103.18586424908391
 30
0.0
 42
-0.0037767550510444
 70
     1
  0
VERTEX
  5
1217
  8
0
 10
251.22652846777299
 20
102.9505961815986
 30
0.0
 42
-0.0071701487451757
  0
VERTEX
  5
1229
  8
0
 10
254.86206593075889
 20
102.5671877215359
 30
0.0
 42
-0.0074317740051371
 70
     1
  0
VERTEX
  5
1218
  8
0
 10
258.35733603586141
 20
102.09501487655589
 30
0.0
 42
-0.0063733770018258
  0
VERTEX
  5
122B
  8
0
 10
259.13937539193472
 20
101.96729592642529
 30
0.0
 42
-0.0008579832737599
 70
     1
  0
VERTEX
  5
1219
  8
0
 10
264.93405709935411
 20
100.93468520267859
 30
0.0
 42
-0.0092380166276892
  0
VERTEX
  5
122A
  8
0
 10
266.06034071199969
 20
100.7104303438477
 30
0.0
 42
-0.0037624213231763
 70
     1
  0
VERTEX
  5
121A
  8
0
 10
268.81030268786412
 20
100.0881458784028
 30
0.0
  0
SEQEND
  5
121B
  8
0
  0
POLYLINE
  5
122C
  8
0
 66
     1
 10
0.0
 20
0.0
 30
0.0
 70
     2
  0
VERTEX
  5
122D
  8
0
 10
175.23779414413431
 20
105.74885859736651
 30
0.0
 42
-0.0003690902458982
  0
VERTEX
  5
1257
  8
0
 10
176.46278659380911
 20
106.1659968166759
 30
0.0
 42
-0.0007283736406907
 70
     1
  0
VERTEX
  5
122E
  8
0
 10
177.08399219880451
 20
106.3760111980317
 30
0.0
 42
-0.0000039841008108
  0
VERTEX
  5
1258
  8
0
 10
178.88701852733351
 20
106.9826288747081
 30
0.0
 42
-0.0004534632606493
 70
     1
  0
VERTEX
  5
122F
  8
0
 10
178.90286468049939
 20
106.9879440867351
 30
0.0
 42
-0.0009359302960023
  0
VERTEX
  5
1259
  8
0
 10
179.69676493571751
 20
107.25178687903001
 30
0.0
 42
-0.0008141075027887
 70
     1
  0
VERTEX
  5
1230
  8
0
 10
180.61052004758429
 20
107.55191459368091
 30
0.0
 42
-0.0007988866315061
  0
VERTEX
  5
125A
  8
0
 10
181.08182149448839
 20
107.7050333925126
 30
0.0
 42
-0.0005470029196453
 70
     1
  0
VERTEX
  5
1231
  8
0
 10
181.77074689186739
 20
107.92680657712719
 30
0.0
 42
-0.0014639598037431
  0
VERTEX
  5
125B
  8
0
 10
182.32241441859151
 20
108.1019493038457
 30
0.0
 42
-0.0007533594183301
 70
     1
  0
VERTEX
  5
1232
  8
0
 10
183.3959350972037
 20
108.4375361448157
 30
0.0
 42
-0.0023364450943951
  0
VERTEX
  5
125C
  8
0
 10
184.12817830206129
 20
108.66148064573071
 30
0.0
 42
-0.0011892198391425
 70
     1
  0
VERTEX
  5
1233
  8
0
 10
185.56986803894631
 20
109.0913047329732
 30
0.0
 42
-0.0034911565758728
  0
VERTEX
  5
125D
  8
0
 10
187.39032949150081
 20
109.6155510385088
 30
0.0
 42
-0.0028138413248932
 70
     1
  0
VERTEX
  5
1234
  8
0
 10
189.6570038191656
 20
110.23745260287831
 30
0.0
 42
-0.0020371462597353
  0
VERTEX
  5
125E
  8
0
 10
191.30049191844321
 20
110.6712718088572
 30
0.0
 42
-0.001977213895338
 70
     1
  0
VERTEX
  5
1235
  8
0
 10
192.99733020680139
 20
111.1046313199065
 30
0.0
 42
-0.0021905947298857
  0
VERTEX
  5
125F
  8
0
 10
194.48534041732719
 20
111.4714730165683
 30
0.0
 42
-0.0016476213283949
 70
     1
  0
VERTEX
  5
1236
  8
0
 10
196.4674058023858
 20
111.9440052331025
 30
0.0
 42
-0.0035476376610628
  0
VERTEX
  5
1260
  8
0
 10
198.65888322798489
 20
112.44245600078099
 30
0.0
 42
-0.0030569426467966
 70
     1
  0
VERTEX
  5
1237
  8
0
 10
201.20954332448181
 20
112.9872718819372
 30
0.0
 42
-0.0035417356772133
  0
VERTEX
  5
1261
  8
0
 10
204.2572793285517
 20
113.59632097459399
 30
0.0
 42
-0.0042291113162288
 70
     1
  0
VERTEX
  5
1238
  8
0
 10
206.81728592951319
 20
114.0666531936314
 30
0.0
 42
-0.0008886694459462
  0
VERTEX
  5
1262
  8
0
 10
208.59086508569641
 20
114.37376889114741
 30
0.0
 42
-0.001958174184128
 70
     1
  0
VERTEX
  5
1239
  8
0
 10
209.39654356462179
 20
114.5085611938667
 30
0.0
 42
-0.0010676229734755
  0
VERTEX
  5
1263
  8
0
 10
210.6673827512532
 20
114.71327824938091
 30
0.0
 42
-0.0012880887509547
 70
     1
  0
VERTEX
  5
123A
  8
0
 10
211.7214968286215
 20
114.8779920480215
 30
0.0
 42
-0.0018134640595347
  0
VERTEX
  5
1264
  8
0
 10
212.9659637848381
 20
115.0645495324147
 30
0.0
 42
-0.0015202537035038
 70
     1
  0
VERTEX
  5
123B
  8
0
 10
214.4518995857558
 20
115.2771854495074
 30
0.0
 42
-0.0021139985720472
  0
VERTEX
  5
1265
  8
0
 10
216.00773068627859
 20
115.48829498052081
 30
0.0
 42
-0.0019711000676883
 70
     1
  0
VERTEX
  5
123C
  8
0
 10
217.6781477675095
 20
115.7010687861947
 30
0.0
 42
-0.0016863181194531
  0
VERTEX
  5
1266
  8
0
 10
218.8667992012488
 20
115.8436486284065
 30
0.0
 42
-0.0012479154976034
 70
     1
  0
VERTEX
  5
123D
  8
0
 10
220.47413426065509
 20
116.0268882768265
 30
0.0
 42
-0.0023462433190359
  0
VERTEX
  5
1267
  8
0
 10
221.46688525704849
 20
116.1328408719144
 30
0.0
 42
-0.0010823877076225
 70
     1
  0
VERTEX
  5
123E
  8
0
 10
223.6203420531811
 20
116.3477469392095
 30
0.0
 42
-0.0050385451675007
  0
VERTEX
  5
1268
  8
0
 10
226.9480738344555
 20
116.63874586619529
 30
0.0
 42
-0.0045250305522412
 70
     1
  0
VERTEX
  5
123F
  8
0
 10
230.6589482284889
 20
116.89183938162439
 30
0.0
 42
-0.0029703490005929
  0
VERTEX
  5
1269
  8
0
 10
233.7589826342255
 20
117.0566280547163
 30
0.0
 42
-0.003771814977218
 70
     1
  0
VERTEX
  5
1240
  8
0
 10
236.2018375712619
 20
117.15347146454
 30
0.0
 42
-0.0013398815207578
  0
VERTEX
  5
126A
  8
0
 10
238.03025062239979
 20
117.2072412635745
 30
0.0
 42
-0.0018872842305667
 70
     1
  0
VERTEX
  5
1241
  8
0
 10
239.3285580632205
 20
117.2370362961821
 30
0.0
 42
-0.0028361795109076
  0
VERTEX
  5
126B
  8
0
 10
241.9038663053943
 20
117.2718004321648
 30
0.0
 42
-0.0030604695462667
 70
     1
  0
VERTEX
  5
1242
  8
0
 10
244.29065723985229
 20
117.2758697613526
 30
0.0
 42
-0.0017814472524894
  0
VERTEX
  5
126C
  8
0
 10
246.1875339094895
 20
117.26073449843381
 30
0.0
 42
-0.0022430919041159
 70
     1
  0
VERTEX
  5
1243
  8
0
 10
247.69387679135559
 20
117.2365888544756
 30
0.0
 42
-0.0017656295209951
  0
VERTEX
  5
126D
  8
0
 10
249.71430788856921
 20
117.1879974686471
 30
0.0
 42
-0.0022866790246244
 70
     1
  0
VERTEX
  5
1244
  8
0
 10
251.27400551190729
 20
117.1378359388319
 30
0.0
 42
-0.0013350421706465
  0
VERTEX
  5
126E
  8
0
 10
252.81929705846409
 20
117.07693012378429
 30
0.0
 42
-0.00171390968737
 70
     1
  0
VERTEX
  5
1245
  8
0
 10
254.02268460795659
 20
117.0221486523445
 30
0.0
 42
-0.0013329150023967
  0
VERTEX
  5
126F
  8
0
 10
255.3703019212553
 20
116.9525701464508
 30
0.0
 42
-0.0014527937608346
 70
     1
  0
VERTEX
  5
1246
  8
0
 10
256.60634477972638
 20
116.88184539218609
 30
0.0
 42
-0.001541949229073
  0
VERTEX
  5
1270
  8
0
 10
257.90851250166088
 20
116.7995094393475
 30
0.0
 42
-0.001473619731717
 70
     1
  0
VERTEX
  5
1247
  8
0
 10
259.27051508982271
 20
116.7051396260689
 30
0.0
 42
-0.0016601962115604
  0
VERTEX
  5
1271
  8
0
 10
260.5886136051231
 20
116.60550709267589
 30
0.0
 42
-0.0014361498775526
 70
     1
  0
VERTEX
  5
1248
  8
0
 10
262.11159835444289
 20
116.4808977844575
 30
0.0
 42
-0.0017247931241711
  0
VERTEX
  5
1272
  8
0
 10
263.26103437381238
 20
116.3795327875746
 30
0.0
 42
-0.0012554100918139
 70
     1
  0
VERTEX
  5
1249
  8
0
 10
264.8393706444017
 20
116.2308587048401
 30
0.0
 42
-0.002660419896825
  0
VERTEX
  5
1273
  8
0
 10
266.54876357864299
 20
116.0563231212416
 30
0.0
 42
-0.0018302611211909
 70
     1
  0
VERTEX
  5
124A
  8
0
 10
269.03110461862479
 20
115.7803180940883
 30
0.0
 42
-0.0025220695371635
  0
VERTEX
  5
1274
  8
0
 10
270.17061391319288
 20
115.64356739381439
 30
0.0
 42
-0.0012007496794445
 70
     1
  0
VERTEX
  5
124B
  8
0
 10
272.56183667142091
 20
115.3385234951291
 30
0.0
 42
-0.005192851894979
  0
VERTEX
  5
1275
  8
0
 10
275.9719899952961
 20
114.8591060345381
 30
0.0
 42
-0.0039496047036084
 70
     1
  0
VERTEX
  5
124C
  8
0
 10
280.44325822491328
 20
114.1469152022279
 30
0.0
 42
-0.0044533037410645
  0
VERTEX
  5
1276
  8
0
 10
284.1502669443762
 20
113.49239985633611
 30
0.0
 42
-0.0045772309690883
 70
     1
  0
VERTEX
  5
124D
  8
0
 10
287.74482476852631
 20
112.7905725631994
 30
0.0
 42
-0.0031606066274942
  0
VERTEX
  5
1277
  8
0
 10
291.6233584116635
 20
111.9707951929208
 30
0.0
 42
-0.0043247596038745
 70
     1
  0
VERTEX
  5
124E
  8
0
 10
294.44859394573979
 20
111.329317027073
 30
0.0
 42
-0.0019552287488057
  0
VERTEX
  5
1278
  8
0
 10
297.2442662138746
 20
110.6575201197647
 30
0.0
 42
-0.0029137524061595
 70
     1
  0
VERTEX
  5
124F
  8
0
 10
299.11578910449703
 20
110.1884723008376
 30
0.0
 42
-0.0020816880850558
  0
VERTEX
  5
1279
  8
0
 10
301.86622765455098
 20
109.46986790600199
 30
0.0
 42
-0.0028021694319953
 70
     1
  0
VERTEX
  5
1250
  8
0
 10
303.9041810690307
 20
108.91609379357681
 30
0.0
 42
-0.0015484909360277
  0
VERTEX
  5
127A
  8
0
 10
305.75701020119959
 20
108.39526968776219
 30
0.0
 42
-0.0019897583676354
 70
     1
  0
VERTEX
  5
1251
  8
0
 10
307.19603652511307
 20
107.9797542001496
 30
0.0
 42
-0.0020065076561751
  0
VERTEX
  5
127B
  8
0
 10
308.97894964018269
 20
107.44946809874359
 30
0.0
 42
-0.0023649413901613
 70
     1
  0
VERTEX
  5
1252
  8
0
 10
310.48765306261151
 20
106.9863442244026
 30
0.0
 42
-0.0020021501913026
  0
VERTEX
  5
127C
  8
0
 10
312.42045724963458
 20
106.3745126315707
 30
0.0
 42
-0.0024673976001954
 70
     1
  0
VERTEX
  5
1253
  8
0
 10
313.98431856206588
 20
105.8640460208273
 30
0.0
 42
-0.0007001196220175
  0
VERTEX
  5
127E
  8
0
 10
314.07270489892107
 20
105.83457458117481
 30
0.0
 42
-0.0000198143730738
 70
     1
  0
VERTEX
  5
1254
  8
0
 10
317.19423715848302
 20
104.7887377020746
 30
0.0
 42
-0.0013243973706487
  0
VERTEX
  5
127D
  8
0
 10
318.05675039084599
 20
104.4971802052569
 30
0.0
 42
-0.0006163678949003
 70
     1
  0
VERTEX
  5
1255
  8
0
 10
319.90759514091479
 20
103.86351897963731
 30
0.0
  0
SEQEND
  5
1256
  8
0
  0
TEXT
  5
1309
  8
0
 62
     3
 10
0.0
 20
0.0
 30
0.0
 40
10.0
  1
TAFL-154
  7
STANDARD1
  0
ENDSEC
  0
EOF
