  0
SECTION
  2
HEADER
  9
$ACADVER
  1
AC1009
  9
$INSBASE
 10
0.0
 20
0.0
 30
0.0
  9
$EXTMIN
 10
0.0
 20
-2.960436562073669
 30
0.0
  9
$EXTMAX
 10
1098.978959910278
 20
718.98168226225266
 30
0.0
  9
$LIMMIN
 10
0.0
 20
0.0
  9
$LIMMAX
 10
1125.0
 20
810.0
  9
$ORTHOMODE
 70
     1
  9
$REGENMODE
 70
     1
  9
$FILLMODE
 70
     1
  9
$QTEXTMODE
 70
     0
  9
$MIRRTEXT
 70
     0
  9
$DRAGMODE
 70
     2
  9
$LTSCALE
 40
30.0
  9
$OSMODE
 70
    55
  9
$ATTMODE
 70
     1
  9
$TEXTSIZE
 40
0.2
  9
$TRACEWID
 40
0.05
  9
$TEXTSTYLE
  7
K50
  9
$CLAYER
  8
0
  9
$CELTYPE
  6
BYLAYER
  9
$CECOLOR
 62
   256
  9
$DIMSCALE
 40
3.0
  9
$DIMASZ
 40
3.0
  9
$DIMEXO
 40
2.0
  9
$DIMDLI
 40
0.3799999999999999
  9
$DIMRND
 40
0.0
  9
$DIMDLE
 40
0.0
  9
$DIMEXE
 40
2.0
  9
$DIMTP
 40
0.0
  9
$DIMTM
 40
0.0
  9
$DIMTXT
 40
3.2000000000000002
  9
$DIMCEN
 40
0.09
  9
$DIMTSZ
 40
0.0
  9
$DIMTOL
 70
     0
  9
$DIMLIM
 70
     0
  9
$DIMTIH
 70
     0
  9
$DIMTOH
 70
     0
  9
$DIMSE1
 70
     0
  9
$DIMSE2
 70
     0
  9
$DIMTAD
 70
     1
  9
$DIMZIN
 70
     0
  9
$DIMBLK
  1

  9
$DIMASO
 70
     1
  9
$DIMSHO
 70
     0
  9
$DIMPOST
  1

  9
$DIMAPOST
  1

  9
$DIMALT
 70
     0
  9
$DIMALTD
 70
     2
  9
$DIMALTF
 40
25.399999999999999
  9
$DIMLFAC
 40
1.0
  9
$DIMTOFL
 70
     0
  9
$DIMTVP
 40
1.6000000000000001
  9
$DIMTIX
 70
     1
  9
$DIMSOXD
 70
     0
  9
$DIMSAH
 70
     0
  9
$DIMBLK1
  1

  9
$DIMBLK2
  1

  9
$DIMSTYLE
  2
STANDARD
  9
$DIMCLRD
 70
     0
  9
$DIMCLRE
 70
     0
  9
$DIMCLRT
 70
     0
  9
$DIMTFAC
 40
1.0
  9
$DIMGAP
 40
0.09
  9
$LUNITS
 70
     2
  9
$LUPREC
 70
     4
  9
$SKETCHINC
 40
0.1
  9
$FILLETRAD
 40
5.0
  9
$AUNITS
 70
     0
  9
$AUPREC
 70
     0
  9
$MENU
  1
E:\r13\win\SUPPORT\ACAD
  9
$ELEVATION
 40
0.0
  9
$PELEVATION
 40
0.0
  9
$THICKNESS
 40
0.0
  9
$LIMCHECK
 70
     0
  9
$BLIPMODE
 70
     0
  9
$CHAMFERA
 40
0.0
  9
$CHAMFERB
 40
0.0
  9
$SKPOLY
 70
     0
  9
$TDCREATE
 40
2449840.5978819439
  9
$TDUPDATE
 40
2456598.5679221069
  9
$TDINDWG
 40
0.0006282523
  9
$TDUSRTIMER
 40
0.0006282523
  9
$USRTIMER
 70
     1
  9
$ANGBASE
 50
0.0
  9
$ANGDIR
 70
     0
  9
$PDMODE
 70
     0
  9
$PDSIZE
 40
0.0
  9
$PLINEWID
 40
0.0
  9
$COORDS
 70
     1
  9
$SPLFRAME
 70
     0
  9
$SPLINETYPE
 70
     6
  9
$SPLINESEGS
 70
     8
  9
$ATTDIA
 70
     0
  9
$ATTREQ
 70
     1
  9
$HANDLING
 70
     1
  9
$HANDSEED
  5
63E
  9
$SURFTAB1
 70
     6
  9
$SURFTAB2
 70
     6
  9
$SURFTYPE
 70
     6
  9
$SURFU
 70
     6
  9
$SURFV
 70
     6
  9
$UCSNAME
  2

  9
$UCSORG
 10
0.0
 20
0.0
 30
0.0
  9
$UCSXDIR
 10
1.0
 20
0.0
 30
0.0
  9
$UCSYDIR
 10
0.0
 20
1.0
 30
0.0
  9
$PUCSNAME
  2

  9
$PUCSORG
 10
0.0
 20
0.0
 30
0.0
  9
$PUCSXDIR
 10
1.0
 20
0.0
 30
0.0
  9
$PUCSYDIR
 10
0.0
 20
1.0
 30
0.0
  9
$USERI1
 70
     0
  9
$USERI2
 70
     1
  9
$USERI3
 70
     1
  9
$USERI4
 70
     0
  9
$USERI5
 70
     0
  9
$USERR1
 40
0.0
  9
$USERR2
 40
0.0
  9
$USERR3
 40
0.0
  9
$USERR4
 40
0.0
  9
$USERR5
 40
0.0
  9
$WORLDVIEW
 70
     1
  9
$SHADEDGE
 70
     3
  9
$SHADEDIF
 70
    70
  9
$TILEMODE
 70
     1
  9
$MAXACTVP
 70
    16
  9
$PLIMCHECK
 70
     0
  9
$PEXTMIN
 10
1.0000000000000000E+020
 20
1.0000000000000000E+020
 30
1.0000000000000000E+020
  9
$PEXTMAX
 10
-1.0000000000000000E+020
 20
-1.0000000000000000E+020
 30
-1.0000000000000000E+020
  9
$PLIMMIN
 10
0.0
 20
0.0
  9
$PLIMMAX
 10
12.0
 20
9.0
  9
$UNITMODE
 70
     0
  9
$VISRETAIN
 70
     0
  9
$PLINEGEN
 70
     0
  9
$PSLTSCALE
 70
     0
  0
ENDSEC
  0
SECTION
  2
TABLES
  0
TABLE
  2
VPORT
 70
     1
  0
VPORT
  2
*ACTIVE
 70
     0
 10
0.0
 20
0.0
 11
1.0
 21
1.0
 12
562.48283517195694
 22
592.73813582168805
 13
0.0
 23
0.0
 14
30.0
 24
30.0
 15
30.0
 25
30.0
 16
0.0
 26
0.0
 36
1.0
 17
0.0
 27
0.0
 37
0.0
 40
1201.9485303289921
 41
1.7807262569832401
 42
50.0
 43
0.0
 44
0.0
 50
0.0
 51
0.0
 71
     0
 72
   500
 73
     1
 74
     0
 75
     0
 76
     0
 77
     0
 78
     0
  0
ENDTAB
  0
TABLE
  2
LTYPE
 70
     4
  0
LTYPE
  2
CONTINUOUS
 70
     0
  3
Solid Line
 72
    65
 73
     0
 40
0.0
  0
LTYPE
  2
CENTER
 70
     0
  3
____ _ ____ _ ____ _ ____ _ ____ _ ____ _ ____
 72
    65
 73
     4
 40
2.0
 49
1.25
 49
-0.25
 49
0.25
 49
-0.25
  0
LTYPE
  2
HIDDEN
 70
     0
  3
_ _ _ _ _ _ _ _ _ _ _ _ _ _ _ _ _ _ _ _ _ _ _
 72
    65
 73
     2
 40
0.375
 49
0.25
 49
-0.125
  0
LTYPE
  2
PHANTOM2
 70
     0
  3
___ _ _ ___ _ _ ___ _ _ ___ _ _
 72
    65
 73
     6
 40
1.25
 49
0.625
 49
-0.125
 49
0.125
 49
-0.125
 49
0.125
 49
-0.125
  0
ENDTAB
  0
TABLE
  2
LAYER
 70
     4
  0
LAYER
  2
0
 70
     0
 62
     7
  6
CONTINUOUS
  0
LAYER
  2
1
 70
     0
 62
     1
  6
CENTER
  0
LAYER
  2
4
 70
     0
 62
     4
  6
CONTINUOUS
  0
LAYER
  2
2
 70
     0
 62
     2
  6
HIDDEN
  0
ENDTAB
  0
TABLE
  2
STYLE
 70
     4
  0
STYLE
  2
STANDARD
 70
     0
 40
0.0
 41
1.0
 50
0.0
 71
     0
 42
0.2
  3
romans.shx
  4

  0
STYLE
  2
K90
 70
     0
 40
0.0
 41
1.0
 50
0.0
 71
     0
 42
0.2
  3
romans.shx
  4

  0
STYLE
  2
K50
 70
     0
 40
0.0
 41
1.0
 50
0.0
 71
     0
 42
0.2
  3
romans.shx
  4

  0
STYLE
  2
STANDARD1
 70
     0
 40
0.0
 41
1.0
 50
0.0
 71
     0
 42
3.0
  3
txt
  4

  0
ENDTAB
  0
TABLE
  2
VIEW
 70
     1
  0
VIEW
  2
ALL
 70
     0
 40
810.0
 10
662.97478991596643
 20
405.0
 41
0.0
 11
0.0
 21
0.0
 31
1.0
 12
0.0
 22
0.0
 32
0.0
 42
0.0
 43
0.0
 44
0.0
 50
0.0
 71
     0
  0
ENDTAB
  0
TABLE
  2
UCS
 70
     0
  0
ENDTAB
  0
TABLE
  2
APPID
 70
     3
  0
APPID
  2
ACAD
 70
     0
  0
APPID
  2
ACAD_MLEADERVER
 70
     0
  0
APPID
  2
ACAD_NAV_VCDISPLAY
 70
     0
  0
ENDTAB
  0
TABLE
  2
DIMSTYLE
 70
     1
  0
DIMSTYLE
  2
STANDARD
 70
     0
  3

  4

  5

  6

  7

 40
1.0
 41
0.18
 42
0.0625
 43
0.38
 44
0.18
 45
0.0
 46
0.0
 47
0.0
 48
0.0
140
0.18
141
0.09
142
0.0
143
25.399999999999999
144
1.0
145
0.0
146
1.0
147
0.09
 71
     0
 72
     0
 73
     1
 74
     1
 75
     0
 76
     0
 77
     0
 78
     0
170
     0
171
     2
172
     0
173
     0
174
     0
175
     0
176
     0
177
     0
178
     0
  0
ENDTAB
  0
ENDSEC
  0
SECTION
  2
BLOCKS
  0
BLOCK
  8
0
  2
$MODEL_SPACE
 70
     0
 10
0.0
 20
0.0
 30
0.0
  3
$MODEL_SPACE
  1

  0
ENDBLK
  5
4A3
  8
0
  0
BLOCK
 67
     1
  8
0
  2
$PAPER_SPACE
 70
     0
 10
0.0
 20
0.0
 30
0.0
  3
$PAPER_SPACE
  1

  0
ENDBLK
  5
4A1
 67
     1
  8
0
  0
ENDSEC
  0
SECTION
  2
ENTITIES
  0
TEXT
  5
40
  8
4
 10
368.40000000000009
 20
292.37416566746572
 30
0.0
 40
3.2000000000000002
  1
  
 50
90.0
  0
POLYLINE
  5
41
  8
2
 66
     1
 10
0.0
 20
0.0
 30
0.0
  0
VERTEX
  5
42
  8
2
 10
633.40172477902718
 20
485.85382586872709
 30
0.0
 42
-0.0077893988732914
  0
VERTEX
  5
43
  8
2
 10
633.64305692163032
 20
486.2872820690306
 30
0.0
 42
-0.0755524339494504
  0
VERTEX
  5
44
  8
2
 10
636.63097980874909
 20
490.0246660942214
 30
0.0
 42
-0.0858577042405944
  0
VERTEX
  5
45
  8
2
 10
640.1720301241927
 20
492.31573660413233
 30
0.0
 42
-0.1060481969950755
 70
     2
 50
23.08849274301442
  0
VERTEX
  5
46
  8
2
 10
644.15833592202625
 20
493.08926137807401
 30
0.0
 42
-0.1266598135587198
  0
VERTEX
  5
47
  8
2
 10
647.44908440395045
 20
492.17277484622508
 30
0.0
 42
-0.1266598135587178
  0
SEQEND
  5
48
  8
2
  0
POLYLINE
  5
49
  8
2
 66
     1
 10
0.0
 20
0.0
 30
0.0
  0
VERTEX
  5
4A
  8
2
 10
647.44908440395045
 20
492.17277484622508
 30
0.0
 42
-0.1266598135587178
  0
VERTEX
  5
4B
  8
2
 10
649.88815926371979
 20
489.78114632933818
 30
0.0
 42
-0.1060481969950741
  0
VERTEX
  5
4C
  8
2
 10
651.21142005794661
 20
485.9421418541902
 30
0.0
 42
-0.0858577042406053
 70
     2
 50
276.9115072569856
  0
VERTEX
  5
4D
  8
2
 10
650.97579309594448
 20
481.29559945446789
 30
0.0
 42
-0.0914021004951984
  0
VERTEX
  5
4E
  8
2
 10
649.25511188627024
 20
477.27365793259253
 30
0.0
 42
-0.0077893988732914
  0
VERTEX
  5
4F
  8
2
 10
649.00039387668096
 20
476.8479300661968
 30
0.0
 42
-0.0858577042405974
  0
SEQEND
  5
50
  8
2
  0
POLYLINE
  5
51
  8
2
 66
     1
 10
0.0
 20
0.0
 30
0.0
  0
VERTEX
  5
52
  8
2
 10
673.05495416159658
 20
372.65618252557113
 30
0.0
 42
-0.0077893988732914
  0
VERTEX
  5
53
  8
2
 10
673.47052000511235
 20
372.38520187988252
 30
0.0
 42
-0.0755524339494504
  0
VERTEX
  5
54
  8
2
 10
676.99037298623341
 20
369.14385069211932
 30
0.0
 42
-0.0858577042405944
  0
VERTEX
  5
55
  8
2
 10
679.02885138017496
 20
365.45160919740113
 30
0.0
 42
-0.1060481969950755
 70
     2
 50
289.0884927430144
  0
VERTEX
  5
56
  8
2
 10
679.52242125092209
 20
361.42105547955612
 30
0.0
 42
-0.1266598135587198
  0
VERTEX
  5
57
  8
2
 10
678.37861622412424
 20
358.20225396423717
 30
0.0
 42
-0.1266598135587178
  0
SEQEND
  5
58
  8
2
  0
POLYLINE
  5
59
  8
2
 66
     1
 10
0.0
 20
0.0
 30
0.0
  0
VERTEX
  5
5A
  8
2
 10
678.37861622412424
 20
358.20225396423717
 30
0.0
 42
-0.1266598135587178
  0
VERTEX
  5
5B
  8
2
 10
675.82267233268635
 20
355.93595214008258
 30
0.0
 42
-0.1060481969950741
  0
VERTEX
  5
5C
  8
2
 10
671.90071347264302
 20
354.88371015751801
 30
0.0
 42
-0.0858577042406053
 70
     2
 50
182.91150725698549
  0
VERTEX
  5
5D
  8
2
 10
667.28192632266018
 20
355.44288955699039
 30
0.0
 42
-0.0914021004951984
  0
VERTEX
  5
5E
  8
2
 10
663.38981070181489
 20
357.43993573189022
 30
0.0
 42
-0.0077893988732914
  0
VERTEX
  5
5F
  8
2
 10
662.98288811725274
 20
357.72373053594453
 30
0.0
 42
-0.0858577042405974
  0
SEQEND
  5
60
  8
2
  0
POLYLINE
  5
61
  8
2
 66
     1
 10
0.0
 20
0.0
 30
0.0
  0
VERTEX
  5
62
  8
2
 10
658.74007754651768
 20
353.09351529167481
 30
0.0
 42
-0.0077893988732914
  0
VERTEX
  5
63
  8
2
 10
659.05825806576081
 20
352.71287551733542
 30
0.0
 42
-0.0755524339494504
  0
VERTEX
  5
64
  8
2
 10
661.47663083952602
 20
348.58405054426743
 30
0.0
 42
-0.0858577042405944
  0
VERTEX
  5
65
  8
2
 10
662.34653048252153
 20
344.45714903962698
 30
0.0
 42
-0.1060481969950755
 70
     2
 50
272.0884927430144
  0
VERTEX
  5
66
  8
2
 10
661.64011383585409
 20
340.45840548557732
 30
0.0
 42
-0.1266598135587198
  0
VERTEX
  5
67
  8
2
 10
659.60520116263513
 20
337.71466651353211
 30
0.0
 42
-0.1266598135587178
  0
SEQEND
  5
68
  8
2
  0
POLYLINE
  5
69
  8
2
 66
     1
 10
0.0
 20
0.0
 30
0.0
  0
VERTEX
  5
6A
  8
2
 10
659.60520116263513
 20
337.71466651353211
 30
0.0
 42
-0.1266598135587178
  0
VERTEX
  5
6B
  8
2
 10
656.49833733553385
 20
336.29467697336071
 30
0.0
 42
-0.1060481969950741
  0
VERTEX
  5
6C
  8
2
 10
652.44010364275994
 20
336.4350827587736
 30
0.0
 42
-0.0858577042406053
 70
     2
 50
165.91150725698549
  0
VERTEX
  5
6D
  8
2
 10
648.18662375871997
 20
338.32023135071751
 30
0.0
 42
-0.0914021004951984
  0
VERTEX
  5
6E
  8
2
 10
645.04845487431294
 20
341.3679605846965
 30
0.0
 42
-0.0077893988732914
  0
VERTEX
  5
6F
  8
2
 10
644.74228644204027
 20
341.75832755526977
 30
0.0
 42
-0.0858577042405974
  0
SEQEND
  5
70
  8
2
  0
POLYLINE
  5
71
  8
2
 66
     1
 10
0.0
 20
0.0
 30
0.0
  0
VERTEX
  5
72
  8
2
 10
694.44908440395045
 20
410.76638689048758
 30
0.0
 42
-0.1266598135587178
  0
VERTEX
  5
73
  8
2
 10
693.59741078179593
 20
407.4582718417517
 30
0.0
 42
-0.1060481969950741
  0
VERTEX
  5
74
  8
2
 10
690.93436577818898
 20
404.39279214054551
 30
0.0
 42
-0.0858577042406053
 70
     2
 50
216.9115072569856
  0
VERTEX
  5
75
  8
2
 10
686.79252853926687
 20
402.27357987559458
 30
0.0
 42
-0.0914021004951984
  0
VERTEX
  5
76
  8
2
 10
682.44908440395022
 20
401.75276275404951
 30
0.0
 42
-0.0077893988732914
  0
VERTEX
  5
77
  8
2
 10
681.95303425175803
 20
401.76049108795729
 30
0.0
 42
-0.0858577042405974
  0
SEQEND
  5
78
  8
2
  0
POLYLINE
  5
79
  8
2
 66
     1
 10
0.0
 20
0.0
 30
0.0
  0
VERTEX
  5
7A
  8
2
 10
681.95303425175803
 20
419.77228269301793
 30
0.0
 42
-0.0077893988732914
  0
VERTEX
  5
7B
  8
2
 10
682.44908440395022
 20
419.78001102692559
 30
0.0
 42
-0.0755524339494504
  0
VERTEX
  5
7C
  8
2
 10
687.17971535702304
 20
419.06108591472719
 30
0.0
 42
-0.0858577042405944
  0
VERTEX
  5
7D
  8
2
 10
690.93436577818898
 20
417.13998164042971
 30
0.0
 42
-0.1060481969950755
 70
     2
 50
323.08849274301451
  0
VERTEX
  5
7E
  8
2
 10
693.59741078179593
 20
414.07450193922341
 30
0.0
 42
-0.1266598135587198
  0
VERTEX
  5
7F
  8
2
 10
694.44908440395045
 20
410.76638689048758
 30
0.0
 42
-0.1266598135587178
  0
SEQEND
  5
80
  8
2
  0
POLYLINE
  5
81
  8
2
 66
     1
 10
0.0
 20
0.0
 30
0.0
  0
VERTEX
  5
82
  8
2
 10
681.02476838152268
 20
395.54931911951491
 30
0.0
 42
-0.0077893988732914
  0
VERTEX
  5
83
  8
2
 10
681.50140304741944
 20
395.41167873336212
 30
0.0
 42
-0.0755524339494504
  0
VERTEX
  5
84
  8
2
 10
685.81513456592745
 20
393.34106459322152
 30
0.0
 42
-0.0858577042405944
  0
VERTEX
  5
85
  8
2
 10
688.84404808904071
 20
390.40614989473562
 30
0.0
 42
-0.1060481969950755
 70
     2
 50
306.08849274301451
  0
VERTEX
  5
86
  8
2
 10
690.49447116529893
 20
386.6960180697061
 30
0.0
 42
-0.1266598135587198
  0
VERTEX
  5
87
  8
2
 10
690.34173146447586
 20
383.28344664655032
 30
0.0
 42
-0.1266598135587178
  0
SEQEND
  5
88
  8
2
  0
POLYLINE
  5
89
  8
2
 66
     1
 10
0.0
 20
0.0
 30
0.0
  0
VERTEX
  5
8A
  8
2
 10
690.34173146447586
 20
383.28344664655032
 30
0.0
 42
-0.1266598135587178
  0
VERTEX
  5
8B
  8
2
 10
688.56007269286329
 20
380.3688857609481
 30
0.0
 42
-0.1060481969950741
  0
VERTEX
  5
8C
  8
2
 10
685.11713056453584
 20
378.21595195083432
 30
0.0
 42
-0.0858577042406053
 70
     2
 50
199.91150725698549
  0
VERTEX
  5
8D
  8
2
 10
680.53667421195667
 20
377.4002951971944
 30
0.0
 42
-0.0914021004951984
  0
VERTEX
  5
8E
  8
2
 10
676.23074573841882
 20
378.17213547308432
 30
0.0
 42
-0.0077893988732914
  0
VERTEX
  5
8F
  8
2
 10
675.75863016484038
 20
378.3245571441804
 30
0.0
 42
-0.0858577042405974
  0
SEQEND
  5
90
  8
2
  0
POLYLINE
  5
91
  8
2
 66
     1
 10
0.0
 20
0.0
 30
0.0
  0
VERTEX
  5
92
  8
2
 10
553.44908440395
 20
492.17277484622508
 30
0.0
 42
0.1266598135587178
 50
300.0
  0
VERTEX
  5
93
  8
2
 10
551.01000954418055
 20
489.78114632933818
 30
0.0
 42
0.1060481969950741
 50
300.0
  0
VERTEX
  5
94
  8
2
 10
549.68674874995384
 20
485.9421418541902
 30
0.0
 42
0.0858577042406053
 70
     2
 50
263.08849274301451
  0
VERTEX
  5
95
  8
2
 10
549.92237571195585
 20
481.29559945446789
 30
0.0
 42
0.0914021004951984
 50
263.08849274301451
  0
VERTEX
  5
96
  8
2
 10
551.6430569216302
 20
477.27365793259253
 30
0.0
 42
0.0077893988732914
 50
300.0
  0
VERTEX
  5
97
  8
2
 10
551.89777493121937
 20
476.8479300661968
 30
0.0
 42
0.0858577042405974
 50
300.0
  0
SEQEND
  5
98
  8
2
  0
POLYLINE
  5
99
  8
2
 66
     1
 10
0.0
 20
0.0
 30
0.0
  0
VERTEX
  5
9A
  8
2
 10
567.49644402887316
 20
485.85382586872709
 30
0.0
 42
0.0077893988732914
 50
83.08849274301447
  0
VERTEX
  5
9B
  8
2
 10
567.25511188627013
 20
486.2872820690306
 30
0.0
 42
0.0755524339494504
 50
300.0
  0
VERTEX
  5
9C
  8
2
 10
564.26718899915124
 20
490.0246660942214
 30
0.0
 42
0.0858577042405944
 50
300.0
  0
VERTEX
  5
9D
  8
2
 10
560.72613868370775
 20
492.31573660413233
 30
0.0
 42
0.1060481969950755
 70
     2
 50
156.91150725698549
  0
VERTEX
  5
9E
  8
2
 10
556.73983288587408
 20
493.08926137807401
 30
0.0
 42
0.1266598135587198
 50
156.91150725698549
  0
VERTEX
  5
9F
  8
2
 10
553.44908440395
 20
492.17277484622508
 30
0.0
 42
0.1266598135587178
 50
300.0
  0
SEQEND
  5
A0
  8
2
  0
POLYLINE
  5
A1
  8
2
 66
     1
 10
0.0
 20
0.0
 30
0.0
  0
VERTEX
  5
A2
  8
2
 10
541.29296764526532
 20
337.71466651353211
 30
0.0
 42
0.1266598135587178
 50
51.000000000000007
  0
VERTEX
  5
A3
  8
2
 10
544.3998314723666
 20
336.29467697336071
 30
0.0
 42
0.1060481969950741
 50
51.000000000000007
  0
VERTEX
  5
A4
  8
2
 10
548.45806516514051
 20
336.4350827587736
 30
0.0
 42
0.0858577042406053
 70
     2
 50
14.0884927430145
  0
VERTEX
  5
A5
  8
2
 10
552.71154504918036
 20
338.32023135071751
 30
0.0
 42
0.0914021004951984
 50
14.0884927430145
  0
VERTEX
  5
A6
  8
2
 10
555.84971393358751
 20
341.3679605846965
 30
0.0
 42
0.0077893988732914
 50
51.000000000000007
  0
VERTEX
  5
A7
  8
2
 10
556.15588236586007
 20
341.75832755526977
 30
0.0
 42
0.0858577042405974
 50
51.000000000000007
  0
SEQEND
  5
A8
  8
2
  0
POLYLINE
  5
A9
  8
2
 66
     1
 10
0.0
 20
0.0
 30
0.0
  0
VERTEX
  5
AA
  8
2
 10
542.15809126138265
 20
353.09351529167481
 30
0.0
 42
0.0077893988732914
 50
194.08849274301451
  0
VERTEX
  5
AB
  8
2
 10
541.83991074213964
 20
352.71287551733542
 30
0.0
 42
0.0755524339494504
 50
51.000000000000007
  0
VERTEX
  5
AC
  8
2
 10
539.42153796837431
 20
348.58405054426743
 30
0.0
 42
0.0858577042405944
 50
51.000000000000007
  0
VERTEX
  5
AD
  8
2
 10
538.55163832537892
 20
344.45714903962698
 30
0.0
 42
0.1060481969950755
 70
     2
 50
267.91150725698549
  0
VERTEX
  5
AE
  8
2
 10
539.25805497204635
 20
340.45840548557732
 30
0.0
 42
0.1266598135587198
 50
267.91150725698549
  0
VERTEX
  5
AF
  8
2
 10
541.29296764526532
 20
337.71466651353211
 30
0.0
 42
0.1266598135587178
 50
51.000000000000007
  0
SEQEND
  5
B0
  8
2
  0
POLYLINE
  5
B1
  8
2
 66
     1
 10
0.0
 20
0.0
 30
0.0
  0
VERTEX
  5
B2
  8
2
 10
522.51955258377609
 20
358.20225396423717
 30
0.0
 42
0.1266598135587178
 50
34.0
  0
VERTEX
  5
B3
  8
2
 10
525.07549647521409
 20
355.93595214008258
 30
0.0
 42
0.1060481969950741
 50
34.0
  0
VERTEX
  5
B4
  8
2
 10
528.99745533525743
 20
354.88371015751801
 30
0.0
 42
0.0858577042406053
 70
     2
 50
357.08849274301451
  0
VERTEX
  5
B5
  8
2
 10
533.61624248524015
 20
355.44288955699039
 30
0.0
 42
0.0914021004951984
 50
357.08849274301451
  0
VERTEX
  5
B6
  8
2
 10
537.50835810608555
 20
357.43993573189022
 30
0.0
 42
0.0077893988732914
 50
34.0
  0
VERTEX
  5
B7
  8
2
 10
537.91528069064771
 20
357.72373053594453
 30
0.0
 42
0.0858577042405974
 50
34.0
  0
SEQEND
  5
B8
  8
2
  0
POLYLINE
  5
B9
  8
2
 66
     1
 10
0.0
 20
0.0
 30
0.0
  0
VERTEX
  5
BA
  8
2
 10
527.84321464630375
 20
372.65618252557113
 30
0.0
 42
0.0077893988732914
 50
177.0884927430144
  0
VERTEX
  5
BB
  8
2
 10
527.42764880278787
 20
372.38520187988252
 30
0.0
 42
0.0755524339494504
 50
34.0
  0
VERTEX
  5
BC
  8
2
 10
523.90779582166704
 20
369.14385069211932
 30
0.0
 42
0.0858577042405944
 50
34.0
  0
VERTEX
  5
BD
  8
2
 10
521.86931742772526
 20
365.45160919740113
 30
0.0
 42
0.1060481969950755
 70
     2
 50
250.91150725698549
  0
VERTEX
  5
BE
  8
2
 10
521.37574755697835
 20
361.42105547955612
 30
0.0
 42
0.1266598135587198
 50
250.91150725698549
  0
VERTEX
  5
BF
  8
2
 10
522.51955258377609
 20
358.20225396423717
 30
0.0
 42
0.1266598135587178
 50
34.0
  0
SEQEND
  5
C0
  8
2
  0
POLYLINE
  5
C1
  8
2
 66
     1
 10
0.0
 20
0.0
 30
0.0
  0
VERTEX
  5
C2
  8
2
 10
510.55643734342459
 20
383.28344664655032
 30
0.0
 42
0.1266598135587178
 50
17.0
  0
VERTEX
  5
C3
  8
2
 10
512.33809611503705
 20
380.3688857609481
 30
0.0
 42
0.1060481969950741
 50
17.0
  0
VERTEX
  5
C4
  8
2
 10
515.78103824336461
 20
378.21595195083432
 30
0.0
 42
0.0858577042406053
 70
     2
 50
340.08849274301451
  0
VERTEX
  5
C5
  8
2
 10
520.36149459594355
 20
377.4002951971944
 30
0.0
 42
0.0914021004951984
 50
340.08849274301451
  0
VERTEX
  5
C6
  8
2
 10
524.66742306948163
 20
378.17213547308432
 30
0.0
 42
0.0077893988732914
 50
17.0
  0
VERTEX
  5
C7
  8
2
 10
525.13953864305995
 20
378.3245571441804
 30
0.0
 42
0.0858577042405974
 50
17.0
  0
SEQEND
  5
C8
  8
2
  0
POLYLINE
  5
C9
  8
2
 66
     1
 10
0.0
 20
0.0
 30
0.0
  0
VERTEX
  5
CA
  8
2
 10
519.87340042637766
 20
395.54931911951491
 30
0.0
 42
0.0077893988732914
 50
160.08849274301451
  0
VERTEX
  5
CB
  8
2
 10
519.39676576048078
 20
395.41167873336212
 30
0.0
 42
0.0755524339494504
 50
17.0
  0
VERTEX
  5
CC
  8
2
 10
515.08303424197288
 20
393.34106459322152
 30
0.0
 42
0.0858577042405944
 50
17.0
  0
VERTEX
  5
CD
  8
2
 10
512.05412071885974
 20
390.40614989473562
 30
0.0
 42
0.1060481969950755
 70
     2
 50
233.91150725698549
  0
VERTEX
  5
CE
  8
2
 10
510.40369764260151
 20
386.6960180697061
 30
0.0
 42
0.1266598135587198
 50
233.91150725698549
  0
VERTEX
  5
CF
  8
2
 10
510.55643734342459
 20
383.28344664655032
 30
0.0
 42
0.1266598135587178
 50
17.0
  0
SEQEND
  5
D0
  8
2
  0
POLYLINE
  5
D1
  8
2
 66
     1
 10
0.0
 20
0.0
 30
0.0
  0
VERTEX
  5
D2
  8
2
 10
518.94513455614231
 20
419.77228269301793
 30
0.0
 42
0.0077893988732914
 50
143.0884927430144
  0
VERTEX
  5
D3
  8
2
 10
518.44908440395022
 20
419.78001102692559
 30
0.0
 42
0.0755524339494504
  0
VERTEX
  5
D4
  8
2
 10
513.7184534508774
 20
419.06108591472719
 30
0.0
 42
0.0858577042405944
  0
VERTEX
  5
D5
  8
2
 10
509.96380302971141
 20
417.13998164042971
 30
0.0
 42
0.1060481969950755
 70
     2
 50
216.9115072569856
  0
VERTEX
  5
D6
  8
2
 10
507.30075802610452
 20
414.07450193922341
 30
0.0
 42
0.1266598135587198
 50
216.9115072569856
  0
VERTEX
  5
D7
  8
2
 10
506.44908440394983
 20
410.76638689048758
 30
0.0
 42
0.1266598135587178
  0
SEQEND
  5
D8
  8
2
  0
POLYLINE
  5
D9
  8
2
 66
     1
 10
0.0
 20
0.0
 30
0.0
  0
VERTEX
  5
DA
  8
2
 10
506.44908440394983
 20
410.76638689048758
 30
0.0
 42
0.1266598135587178
  0
VERTEX
  5
DB
  8
2
 10
507.30075802610452
 20
407.4582718417517
 30
0.0
 42
0.1060481969950741
  0
VERTEX
  5
DC
  8
2
 10
509.96380302971141
 20
404.39279214054551
 30
0.0
 42
0.0858577042406053
 70
     2
 50
323.08849274301451
  0
VERTEX
  5
DD
  8
2
 10
514.10564026863346
 20
402.27357987559458
 30
0.0
 42
0.0914021004951984
 50
323.08849274301451
  0
VERTEX
  5
DE
  8
2
 10
518.44908440395022
 20
401.75276275404951
 30
0.0
 42
0.0077893988732914
  0
VERTEX
  5
DF
  8
2
 10
518.94513455614231
 20
401.76049108795729
 30
0.0
 42
0.0858577042405974
  0
SEQEND
  5
E0
  8
2
  0
ARC
  5
E1
  8
0
 10
600.44908440395011
 20
410.76638689048758
 30
0.0
 40
25.800000000000001
 50
115.23656133393941
 51
64.76343866606399
  0
LINE
  5
E2
  8
0
 10
612.9490844039525
 20
487.46638689048763
 30
0.0
 11
606.02671831090197
 21
487.46638689048763
 31
0.0
  0
LINE
  5
E3
  8
1
 10
615.44908440394772
 20
495.76638689048758
 30
0.0
 11
585.44908440395147
 21
495.76638689048758
 31
0.0
  0
ARC
  5
E4
  8
0
 10
600.44908440395011
 20
410.76638689048758
 30
0.0
 40
82.0
 50
102.8491307976189
 51
134.3028323100315
  0
ARC
  5
E5
  8
0
 10
600.44908440395011
 20
410.76638689048758
 30
0.0
 40
85.0
 50
104.7269138136209
 51
75.273086186379075
  0
ARC
  5
E6
  8
0
 10
583.22889393264666
 20
485.81720469479171
 30
0.0
 40
4.9999999999996723
 50
19.258848317291768
 51
101.71650460351751
  0
ARC
  5
E7
  8
0
 10
580.66053168567805
 20
485.698054548149
 30
0.0
 40
7.4999999999996501
 50
13.637466745678619
 51
104.03997236476179
  0
ARC
  5
E8
  8
0
 10
620.23763712222217
 20
485.698054548149
 30
0.0
 40
7.4999999999996501
 50
75.960027635238177
 51
166.36253325432139
  0
ARC
  5
E9
  8
0
 10
617.66927487525356
 20
485.81720469479171
 30
0.0
 40
4.9999999999996723
 50
78.283495396482465
 51
160.74115168270819
  0
ARC
  5
EA
  8
0
 10
600.44908440395011
 20
410.76638689048758
 30
0.0
 40
27.0
 50
342.85379000110947
 51
346.51912956848508
  0
ARC
  5
EB
  8
0
 10
600.44908440395011
 20
410.76638689048758
 30
0.0
 40
27.0
 50
193.48087043151489
 51
197.14620999889061
  0
ARC
  5
EC
  8
0
 10
600.44908440395011
 20
410.76638689048758
 30
0.0
 40
82.0
 50
45.697167689968538
 51
77.150869202381116
  0
ARC
  5
ED
  8
0
 10
600.44908440395011
 20
410.76638689048758
 30
0.0
 40
82.0
 50
296.48387600926719
 51
14.30283231003159
  0
ARC
  5
EE
  8
0
 10
600.44908440395011
 20
410.76638689048758
 30
0.0
 40
82.0
 50
165.69716768996841
 51
243.51612399073281
  0
ARC
  5
EF
  8
0
 10
557.44908440394966
 20
397.49988772906681
 30
0.0
 40
18.000000000000281
 50
359.99999999999989
 51
17.146209998890601
  0
ARC
  5
F0
  8
0
 10
567.44908440395
 20
344.53195475734378
 30
0.0
 40
8.0000000000000853
 50
243.51612399073281
 51
360.0
  0
LINE
  5
F1
  8
0
 10
575.44908440395011
 20
344.53195475734378
 30
0.0
 11
575.44908440394988
 21
397.49989312386361
 31
0.0
  0
ARC
  5
F2
  8
0
 10
548.76373530394892
 20
463.72509428040649
 30
0.0
 40
8.0000000000004263
 50
134.30283231003131
 51
241.39718102729611
  0
ARC
  5
F3
  8
0
 10
587.65398898273713
 20
453.90900541512133
 30
0.0
 40
18.000000000000199
 50
241.39718102729799
 51
275.72348028467252
  0
ARC
  5
F4
  8
0
 10
528.74282390269332
 20
429.04785851959639
 30
0.0
 40
7.9999999999998739
 50
58.602818972696838
 51
165.69716768996841
  0
ARC
  5
F5
  8
0
 10
556.68893306522989
 20
400.27595530678587
 30
0.0
 40
18.000000000001059
 50
13.480870431514759
 51
58.602818972701421
  0
LINE
  5
F6
  8
0
 10
579.03675800289898
 20
438.10573580911478
 30
0.0
 11
544.93385486846489
 21
456.70141889995909
 31
0.0
  0
LINE
  5
F7
  8
0
 10
566.06635051696776
 20
415.64033104860772
 30
0.0
 11
532.91056499235481
 21
435.87646996040542
 31
0.0
  0
LINE
  5
F8
  8
0
 10
634.83181436032339
 20
415.64032864961911
 30
0.0
 11
667.98760774615585
 21
435.87647235939471
 31
0.0
  0
LINE
  5
F9
  8
0
 10
621.86141080500136
 20
438.10573580911489
 30
0.0
 11
655.96431393943544
 21
456.70141889995909
 31
0.0
  0
ARC
  5
FA
  8
0
 10
644.20923574267033
 20
400.27595530678587
 30
0.0
 40
18.000000000001059
 50
121.3971810272985
 51
166.5191295684852
  0
ARC
  5
FB
  8
0
 10
672.15534490520702
 20
429.04785851959639
 30
0.0
 40
7.9999999999998739
 50
14.30283231003154
 51
121.39718102730311
  0
ARC
  5
FC
  8
0
 10
613.24417982516331
 20
453.90900541512133
 30
0.0
 40
18.000000000000199
 50
264.27651971532362
 51
298.60281897270198
  0
ARC
  5
FD
  8
0
 10
652.13443350395153
 20
463.72509428040649
 30
0.0
 40
8.0000000000004263
 50
298.60281897270397
 51
45.697167689968687
  0
LINE
  5
FE
  8
0
 10
625.44908440395011
 20
344.53195475734378
 30
0.0
 11
625.44908440395045
 21
397.49989042646519
 31
0.0
  0
ARC
  5
FF
  8
0
 10
633.44908440395034
 20
344.53195475734378
 30
0.0
 40
8.0000000000000853
 50
180.00000000000011
 51
296.48387600926731
  0
ARC
  5
100
  8
0
 10
643.44908440395068
 20
397.49988772906681
 30
0.0
 40
18.000000000000281
 50
162.85379000110939
 51
180.00000000000011
  0
LINE
  5
101
  8
1
 10
600.44908440395011
 20
525.76638689048764
 30
0.0
 11
600.44908440395011
 21
295.76638689048792
 31
0.0
  0
LINE
  5
102
  8
1
 10
715.44908440395
 20
410.76638689048758
 30
0.0
 11
485.44908440395062
 21
410.76638689048758
 31
0.0
  0
CIRCLE
  5
103
  8
0
 10
600.44908440395011
 20
410.76638689048758
 30
0.0
 40
100.0
  0
LINE
  5
104
  8
0
 10
781.82541624670375
 20
506.09542366107121
 30
0.0
 11
781.82541624670375
 21
314.09542366107121
 31
0.0
  0
LINE
  5
105
  8
0
 10
804.70020158871841
 20
436.53201958082502
 30
0.0
 11
781.82541624670375
 21
458.21228250142258
 31
0.0
  0
LINE
  5
106
  8
0
 10
781.82541624670375
 20
435.9365591291517
 30
0.0
 11
803.97151247843328
 21
412.55262026453039
 31
0.0
  0
LINE
  5
107
  8
0
 10
781.82541624670375
 20
424.23734747199251
 30
0.0
 11
791.99451764718151
 21
412.55262026453039
 31
0.0
  0
LINE
  5
108
  8
0
 10
792.35359392914995
 20
392.8075418238281
 30
0.0
 11
781.82541624670375
 21
365.31358821160512
 31
0.0
  0
ARC
  5
109
  8
0
 10
811.59280839663836
 20
379.75939204240967
 30
0.0
 40
6.0
 50
108.6005597436852
 51
152.81574105550661
  0
LINE
  5
10A
  8
0
 10
781.82541624670375
 20
334.93258432727959
 30
0.0
 11
806.25556267884599
 21
382.50052468202171
 31
0.0
  0
ARC
  5
10B
  8
2
 10
795.32541624670387
 20
428.09542366107149
 30
0.0
 40
8.9999999999996021
 50
90.0
 51
119.9999999999955
  0
LINE
  5
10C
  8
1
 10
800.82541624670375
 20
495.0954236610711
 30
0.0
 11
741.32541624670444
 21
495.09542366107121
 31
0.0
  0
LINE
  5
10D
  8
0
 10
785.82541624670375
 20
486.7954236610712
 30
0.0
 11
781.82541624670375
 21
486.7954236610712
 31
0.0
  0
LINE
  5
10E
  8
0
 10
785.82541624670375
 20
503.39542366107111
 30
0.0
 11
785.82541624670375
 21
486.7954236610712
 31
0.0
  0
LINE
  5
10F
  8
0
 10
785.82541624670375
 20
503.39542366107111
 30
0.0
 11
780.74736638616935
 21
508.82712777800577
 31
0.0
  0
LINE
  5
110
  8
0
 10
810.81497835134235
 20
434.34555343373
 30
0.0
 11
811.82541624670387
 21
432.5954236610711
 31
0.0
  0
LINE
  5
111
  8
2
 10
790.82541624670387
 20
384.30119502701513
 30
0.0
 11
790.82541624670387
 21
388.8167613127369
 31
0.0
  0
ARC
  5
112
  8
0
 10
825.32541624670387
 20
389.09542366107121
 30
0.0
 40
1.5
 50
270.0
 51
0.0
  0
ARC
  5
113
  8
0
 10
825.32541624670387
 20
431.0954236610711
 30
0.0
 40
1.5
 50
0.0
 51
90.0
  0
LINE
  5
114
  8
0
 10
825.32541624670387
 20
387.5954236610711
 30
0.0
 11
811.82541624670387
 21
387.5954236610711
 31
0.0
  0
LINE
  5
115
  8
0
 10
826.82541624670387
 20
431.0954236610711
 30
0.0
 11
826.82541624670387
 21
389.09542366107121
 31
0.0
  0
LINE
  5
116
  8
0
 10
811.82541624670387
 20
432.5954236610711
 30
0.0
 11
825.32541624670387
 21
432.5954236610711
 31
0.0
  0
ARC
  5
117
  8
0
 10
795.32541624670387
 20
392.0954236610711
 30
0.0
 40
45.0
 50
69.866269277392661
 51
77.140241623258092
  0
ARC
  5
118
  8
0
 10
760.82541624670375
 20
506.09542366107121
 30
0.0
 40
4.0
 50
90.0
 51
179.99999999999989
  0
ARC
  5
119
  8
0
 10
777.82541624670375
 20
314.09542366107121
 30
0.0
 40
4.0
 50
270.0
 51
0.0
  0
ARC
  5
11A
  8
0
 10
760.82541624670375
 20
314.09542366107121
 30
0.0
 40
4.0
 50
180.0
 51
269.99999999999989
  0
LINE
  5
11B
  8
0
 10
777.82541624670375
 20
310.09542366107121
 30
0.0
 11
760.82541624670375
 21
310.09542366107121
 31
0.0
  0
LINE
  5
11C
  8
0
 10
760.82541624670375
 20
510.09542366107121
 30
0.0
 11
777.82541624670398
 21
510.09542366107121
 31
0.0
  0
LINE
  5
11D
  8
0
 10
756.82541624670375
 20
314.09542366107121
 30
0.0
 11
756.82541624670375
 21
506.09542366107121
 31
0.0
  0
LINE
  5
11E
  8
1
 10
741.82541624670387
 20
410.0954236610711
 30
0.0
 11
841.82541624670387
 21
410.09542366107121
 31
0.0
  0
LINE
  5
11F
  8
0
 10
993.97895991027792
 20
495.76638689048758
 30
0.0
 11
993.97895991027792
 21
487.46638689048763
 31
0.0
  0
LINE
  5
120
  8
0
 10
998.97895991027792
 20
495.76638689048758
 30
0.0
 11
998.97895991027792
 21
490.29724423379952
 31
0.0
  0
LINE
  5
121
  8
0
 10
973.97895991027792
 20
495.76638689048758
 30
0.0
 11
973.97895991027792
 21
487.46638689048763
 31
0.0
  0
LINE
  5
122
  8
0
 10
968.97895991027792
 20
495.76638689048758
 30
0.0
 11
968.97895991027792
 21
490.29724423379952
 31
0.0
  0
ARC
  5
123
  8
0
 10
983.97895991027792
 20
495.76638689048758
 30
0.0
 40
10.0
 50
0.0
 51
180.0
  0
ARC
  5
124
  8
0
 10
983.97895991027792
 20
495.76638689048758
 30
0.0
 40
15.0
 50
0.0
 51
180.0
  0
LINE
  5
125
  8
1
 10
1003.978959910278
 20
495.76638689048758
 30
0.0
 11
963.97895991027804
 21
495.76638689048758
 31
0.0
  0
LINE
  5
126
  8
0
 10
996.4789599102802
 20
487.46638689048763
 30
0.0
 11
971.47895991027815
 21
487.46638689048763
 31
0.0
  0
LINE
  5
127
  8
0
 10
597.44908440395079
 20
495.76638689048758
 30
0.0
 11
597.44908440395079
 21
486.76638689048758
 31
0.0
  0
LINE
  5
128
  8
0
 10
603.44908440394966
 20
495.76638689048758
 30
0.0
 11
603.44908440394966
 21
486.76638689048758
 31
0.0
  0
LINE
  5
129
  8
0
 10
597.94908440395022
 20
486.76638689048758
 30
0.0
 11
597.94908440395022
 21
491.43625987156622
 31
0.0
  0
LINE
  5
12A
  8
0
 10
602.94908440395022
 20
486.76638689048758
 30
0.0
 11
602.94908440395022
 21
491.43625987156543
 31
0.0
  0
ARC
  5
12B
  8
0
 10
600.44908440395011
 20
495.76638689048758
 30
0.0
 40
5.0
 50
233.13010235416829
 51
306.86989764583819
  0
ARC
  5
12C
  8
0
 10
600.44908440395011
 20
495.76638689048758
 30
0.0
 40
9.999999999999261
 50
295.84193276314971
 51
244.1580672368504
  0
ARC
  5
12D
  8
0
 10
600.44908440395011
 20
495.76638689048758
 30
0.0
 40
3.0
 50
0.0
 51
180.0
  0
LINE
  5
12E
  8
1
 10
625.44908440394909
 20
495.76638689048758
 30
0.0
 11
575.44908440395147
 21
495.76638689048758
 31
0.0
  0
LINE
  5
12F
  8
0
 10
589.44908440394966
 20
459.76638689048758
 30
0.0
 11
611.44908440395091
 21
459.76638689048758
 31
0.0
  0
LINE
  5
130
  8
0
 10
611.44908440395091
 20
459.76638689048758
 30
0.0
 11
610.52894852522491
 21
481.84964797991188
 31
0.0
  0
ARC
  5
131
  8
0
 10
608.53068237904017
 20
481.76638689048752
 30
0.0
 40
2.0
 50
2.385944030388746
 51
90.0
  0
ARC
  5
132
  8
0
 10
592.36748642886016
 20
481.76638689048752
 30
0.0
 40
2.0
 50
90.0
 51
177.6140559696112
  0
LINE
  5
133
  8
0
 10
589.44908440394966
 20
459.76638689048758
 30
0.0
 11
590.36922028267554
 21
481.84964797991188
 31
0.0
  0
LINE
  5
134
  8
0
 10
611.44908440394954
 20
459.76638689048741
 30
0.0
 11
611.44908440394954
 21
411.30861784442862
 31
0.0
  0
LINE
  5
135
  8
0
 10
589.44908440394954
 20
459.76638689048741
 30
0.0
 11
589.44908440394954
 21
411.30861784442891
 31
0.0
  0
ARC
  5
136
  8
0
 10
600.44908440395034
 20
449.76638689048752
 30
0.0
 40
40.0
 50
254.03798583715169
 51
285.96201416284617
  0
LINE
  5
137
  8
0
 10
590.94908440395022
 20
486.76638689048758
 30
0.0
 11
609.94908440395022
 21
486.76638689048758
 31
0.0
  0
LINE
  5
138
  8
0
 10
590.94908440395022
 20
486.76638689048758
 30
0.0
 11
590.94908440395022
 21
483.76638689048758
 31
0.0
  0
LINE
  5
139
  8
0
 10
609.94908440395022
 20
486.76638689048758
 30
0.0
 11
609.94908440395022
 21
483.76638689048758
 31
0.0
  0
LINE
  5
13A
  8
0
 10
590.94908440395022
 20
483.76638689048758
 30
0.0
 11
609.94908440395022
 21
483.76638689048758
 31
0.0
  0
LINE
  5
13B
  8
1
 10
600.44908440395034
 20
510.7663868904873
 30
0.0
 11
600.44908440395011
 21
404.76638689048713
 31
0.0
  0
LINE
  5
13C
  8
0
 10
589.44908440394954
 20
411.30861784442862
 30
0.0
 11
611.44908440395091
 21
411.30861784442862
 31
0.0
  0
LINE
  5
13D
  8
0
 10
594.87145049699825
 20
487.46638689048763
 30
0.0
 11
587.94908440395011
 21
487.46638689048763
 31
0.0
  0
LINE
  5
13E
  8
0
 10
983.9789599102786
 20
498.65313823408508
 30
0.0
 11
986.4789599102786
 21
497.20976256111152
 31
0.0
  0
LINE
  5
13F
  8
0
 10
981.47895991231212
 20
497.20976256228749
 30
0.0
 11
983.97895991231223
 21
498.65313823526151
 31
0.0
  0
LINE
  5
140
  8
0
 10
981.47895991231212
 20
494.32301121868949
 30
0.0
 11
981.47895991231212
 21
497.20976256463712
 31
0.0
  0
LINE
  5
141
  8
0
 10
983.9789599102786
 20
492.87963554688997
 30
0.0
 11
981.4789599102786
 21
494.32301121986359
 31
0.0
  0
LINE
  5
142
  8
0
 10
986.47895990824134
 20
494.32301121868761
 30
0.0
 11
983.97895990824316
 21
492.87963554571348
 31
0.0
  0
LINE
  5
143
  8
0
 10
986.47895990824316
 20
497.20976256228749
 30
0.0
 11
986.47895990824316
 21
494.32301121633981
 31
0.0
  0
CIRCLE
  5
144
  8
0
 10
983.97895991027815
 20
495.76638689048769
 30
0.0
 40
8.0
  0
ARC
  5
145
  8
2
 10
795.32541624670387
 20
392.0954236610707
 30
0.0
 40
8.9999999999996021
 50
240.00000000000449
 51
270.0
  0
ARC
  5
146
  8
2
 10
795.32541624670387
 20
428.0954236610711
 30
0.0
 40
45.0
 50
270.0
 51
275.212841395098
  0
LINE
  5
147
  8
0
 10
810.81497835134235
 20
385.8452938884123
 30
0.0
 11
811.82541624670387
 21
387.5954236610711
 31
0.0
  0
LINE
  5
148
  8
2
 10
778.32541624670387
 20
486.09542366107053
 30
0.0
 11
778.82541624670387
 21
486.59542366107053
 31
0.0
  0
LINE
  5
149
  8
2
 10
775.82541624670864
 20
503.59542366106137
 30
0.0
 11
775.82541624670864
 21
500.59542366108082
 31
0.0
  0
ARC
  5
14A
  8
2
 10
757.82541624670375
 20
487.59542366107053
 30
0.0
 40
1.5
 50
228.18968510422209
 51
270.00000000000188
  0
LINE
  5
14B
  8
2
 10
778.82541624670387
 20
486.59542366107053
 30
0.0
 11
778.82541624670375
 21
505.09542366107053
 31
0.0
  0
LINE
  5
14C
  8
2
 10
780.12541624669905
 20
498.41892366107101
 30
0.0
 11
771.24891624670545
 21
498.41892366107101
 31
0.0
  0
LINE
  5
14D
  8
2
 10
780.12541624669905
 20
499.09542366106672
 30
0.0
 11
780.12541624669916
 21
491.0954236610757
 31
0.0
  0
LINE
  5
14E
  8
2
 10
780.12541624669905
 20
491.77192366107113
 30
0.0
 11
771.24891624670545
 21
491.77192366107113
 31
0.0
  0
LINE
  5
14F
  8
2
 10
770.72541624670146
 20
497.89542366106741
 30
0.0
 11
771.92541624670162
 21
499.09542366106751
 31
0.0
  0
LINE
  5
150
  8
2
 10
770.7254162467018
 20
492.29542366107478
 30
0.0
 11
771.92541624670173
 21
491.0954236610749
 31
0.0
  0
LINE
  5
151
  8
2
 10
771.92541624670162
 20
499.0954236610674
 30
0.0
 11
771.92541624670162
 21
491.0954236610749
 31
0.0
  0
LINE
  5
152
  8
2
 10
770.72541624670146
 20
497.89542366106741
 30
0.0
 11
770.7254162467018
 21
492.29542366107478
 31
0.0
  0
LINE
  5
153
  8
1
 10
765.32541624670375
 20
508.44707020531678
 30
0.0
 11
765.32541624670375
 21
394.09542366107132
 31
0.0
  0
LINE
  5
154
  8
0
 10
756.32541624670387
 20
487.59542366107058
 30
0.0
 11
756.32541624670512
 21
504.59542366107178
 31
0.0
  0
LINE
  5
155
  8
0
 10
756.32541624670375
 20
504.59542366107053
 30
0.0
 11
756.32541624670375
 21
504.59542366107053
 31
0.0
  0
LINE
  5
156
  8
0
 10
756.82541624670375
 20
505.09542366107053
 30
0.0
 11
756.32541624670375
 21
504.59542366107053
 31
0.0
  0
ARC
  5
157
  8
0
 10
757.82541624670375
 20
487.59542366107053
 30
0.0
 40
1.5
 50
180.0
 51
228.18968510422209
  0
LINE
  5
158
  8
2
 10
756.82541624670375
 20
486.09542366107041
 30
0.0
 11
778.32541624670387
 21
486.09542366107053
 31
0.0
  0
LINE
  5
159
  8
2
 10
778.82541624670375
 20
505.09542366107053
 30
0.0
 11
756.82541624670375
 21
505.09542366107053
 31
0.0
  0
LINE
  5
15A
  8
2
 10
756.82541624670375
 20
459.0954236610707
 30
0.0
 11
776.32541624670444
 21
459.0954236610707
 31
0.0
  0
LINE
  5
15B
  8
2
 10
776.32541624670444
 20
459.0954236610707
 30
0.0
 11
775.40528036797855
 21
481.17868475049511
 31
0.0
  0
ARC
  5
15C
  8
2
 10
773.40701422179382
 20
481.0954236610707
 30
0.0
 40
2.0
 50
2.385944030388746
 51
90.0
  0
ARC
  5
15D
  8
0
 10
757.24381827161392
 20
481.0954236610707
 30
0.0
 40
2.0
 50
102.0755336526299
 51
177.6140559696112
  0
LINE
  5
15E
  8
0
 10
754.32541624670318
 20
459.0954236610707
 30
0.0
 11
755.24555212542919
 21
481.17868475049511
 31
0.0
  0
LINE
  5
15F
  8
2
 10
776.32541624670307
 20
459.0954236610707
 30
0.0
 11
776.32541624670307
 21
410.63765461501168
 31
0.0
  0
LINE
  5
160
  8
0
 10
754.32541624670307
 20
459.0954236610707
 30
0.0
 11
754.32541624670307
 21
410.63765461501202
 31
0.0
  0
ARC
  5
161
  8
2
 10
765.32541624670375
 20
449.0954236610707
 30
0.0
 40
40.0
 50
257.73110100404313
 51
285.96201416284617
  0
LINE
  5
162
  8
0
 10
755.82541624670375
 20
486.0954236610707
 30
0.0
 11
755.82541624670375
 21
483.0954236610707
 31
0.0
  0
LINE
  5
163
  8
2
 10
774.82541624670387
 20
486.0954236610707
 30
0.0
 11
774.82541624670387
 21
483.0954236610707
 31
0.0
  0
LINE
  5
164
  8
2
 10
756.82541624670375
 20
483.0954236610707
 30
0.0
 11
774.82541624670387
 21
483.0954236610707
 31
0.0
  0
LINE
  5
165
  8
2
 10
756.82541624670375
 20
410.63765461501168
 30
0.0
 11
776.32541624670444
 21
410.63765461501168
 31
0.0
  0
LINE
  5
166
  8
0
 10
755.82541624670375
 20
486.0954236610707
 30
0.0
 11
756.82541624670375
 21
486.09542366107058
 31
0.0
  0
LINE
  5
167
  8
2
 10
781.82541624669398
 20
503.59542366106137
 30
0.0
 11
781.82541624669398
 21
500.59542366108082
 31
0.0
  0
LINE
  5
168
  8
2
 10
781.82541624669398
 20
503.59542366106137
 30
0.0
 11
775.82541624670864
 21
503.59542366106137
 31
0.0
  0
LINE
  5
169
  8
2
 10
781.82541624669398
 20
500.59542366108082
 30
0.0
 11
775.82541624670864
 21
500.59542366108082
 31
0.0
  0
LINE
  5
16A
  8
1
 10
786.8254162466942
 20
502.09542366107121
 30
0.0
 11
770.82541624671137
 21
502.09542366107121
 31
0.0
  0
LINE
  5
16B
  8
2
 10
771.92541624670162
 20
499.09542366106751
 30
0.0
 11
781.32541624670012
 21
499.09542366106751
 31
0.0
  0
LINE
  5
16C
  8
2
 10
771.92541624670173
 20
491.0954236610749
 30
0.0
 11
781.32541624670012
 21
491.0954236610749
 31
0.0
  0
LINE
  5
16D
  8
2
 10
785.32541624669943
 20
503.09542366106672
 30
0.0
 11
781.32541624669921
 21
499.09542366106672
 31
0.0
  0
LINE
  5
16E
  8
2
 10
785.72541624669918
 20
503.09542366106649
 30
0.0
 11
785.72541624669918
 21
487.09542366107559
 31
0.0
  0
LINE
  5
16F
  8
2
 10
785.32541624669921
 20
503.09542366106649
 30
0.0
 11
785.72541624669918
 21
503.09542366106649
 31
0.0
  0
LINE
  5
170
  8
2
 10
785.32541624669943
 20
487.09542366107559
 30
0.0
 11
785.72541624669918
 21
487.09542366107559
 31
0.0
  0
LINE
  5
171
  8
2
 10
781.32541624669921
 20
499.09542366106672
 30
0.0
 11
781.32541624669921
 21
491.0954236610757
 31
0.0
  0
LINE
  5
172
  8
2
 10
785.32541624669943
 20
487.09542366107559
 30
0.0
 11
781.32541624669921
 21
491.0954236610757
 31
0.0
  0
ARC
  5
173
  8
0
 10
777.82541624670375
 20
506.09542366107121
 30
0.0
 40
4.0
 50
0.0
 51
90.0
  0
LINE
  5
174
  8
0
 10
801.13841354772114
 20
387.78497660596531
 30
0.0
 11
781.82541624670375
 21
337.34978564291021
 31
0.0
  0
ARC
  5
175
  8
0
 10
790.48584817355163
 20
411.23964028778369
 30
0.0
 40
2.0
 50
279.77526272870938
 51
41.032725550400677
  0
ARC
  5
176
  8
0
 10
790.48584817355163
 20
393.52275213726341
 30
0.0
 40
2.0
 50
339.04680685416412
 51
80.224737271281754
  0
ARC
  5
177
  8
0
 10
812.58017963148154
 20
420.9126950158726
 30
0.0
 40
12.0
 50
224.16067574907601
 51
256.009251453096
  0
ARC
  5
178
  8
0
 10
812.95503179252955
 20
445.24165667466008
 30
0.0
 40
12.0
 50
226.53569660641509
 51
254.1569646390046
  0
ARC
  5
179
  8
2
 10
795.32541624670387
 20
392.0954236610711
 30
0.0
 40
45.0
 50
77.140241623258007
 51
90.0
  0
ARC
  5
17A
  8
0
 10
812.34488808131107
 20
383.49371472535341
 30
0.0
 40
12.0
 50
102.8357903872916
 51
159.0468068541756
  0
LINE
  5
17B
  8
2
 10
790.82541624670387
 20
413.89596717439599
 30
0.0
 11
790.82541624670387
 21
435.88965229513292
 31
0.0
  0
LINE
  5
17C
  8
0
 10
790.82541624670387
 20
388.81676131273679
 30
0.0
 11
790.82541624670387
 21
413.89596717439599
 31
0.0
  0
ARC
  5
17D
  8
0
 10
795.32541624670387
 20
428.0954236610711
 30
0.0
 40
45.0
 50
275.212841395098
 51
290.13373072260731
  0
LINE
  5
17E
  8
0
 10
810.81497835134201
 20
385.84529388841167
 30
0.0
 11
810.81497835134178
 21
434.34555343373103
 31
0.0
  0
LINE
  5
17F
  8
0
 10
811.82541624670387
 20
432.59542366107098
 30
0.0
 11
811.82541624670387
 21
387.5954236610711
 31
0.0
  0
LINE
  5
180
  8
2
 10
785.32541624669921
 20
503.09542366106649
 30
0.0
 11
785.32541624669943
 21
487.09542366107559
 31
0.0
  0
ARC
  5
181
  8
0
 10
983.97895991027815
 20
495.76638689048758
 30
0.0
 40
9.1709632294163157
 50
295.17262989729022
 51
244.82737010270981
  0
LINE
  5
182
  8
2
 10
77.835620224289102
 20
503.09542366106649
 30
0.0
 11
77.835620224288874
 21
487.09542366107559
 31
0.0
  0
LINE
  5
183
  8
0
 10
51.335620224284447
 20
432.59542366107098
 30
0.0
 11
51.335620224284447
 21
387.5954236610711
 31
0.0
  0
LINE
  5
184
  8
0
 10
52.346058119646301
 20
385.84529388841167
 30
0.0
 11
52.346058119646528
 21
434.34555343373103
 31
0.0
  0
ARC
  5
185
  8
0
 10
67.83562022428444
 20
428.0954236610711
 30
0.0
 40
45.0
 50
249.86626927739269
 51
264.787158604902
  0
LINE
  5
186
  8
0
 10
72.33562022428444
 20
388.81676131273679
 30
0.0
 11
72.33562022428444
 21
413.89596717439599
 31
0.0
  0
LINE
  5
187
  8
2
 10
72.33562022428444
 20
413.89596717439599
 30
0.0
 11
72.33562022428444
 21
435.88965229513292
 31
0.0
  0
ARC
  5
188
  8
0
 10
50.816148389677132
 20
383.49371472535341
 30
0.0
 40
12.0
 50
20.953193145824439
 51
77.164209612708362
  0
ARC
  5
189
  8
2
 10
67.83562022428444
 20
392.0954236610711
 30
0.0
 40
45.0
 50
90.000000000000028
 51
102.85975837674199
  0
ARC
  5
18A
  8
0
 10
50.206004678458882
 20
445.24165667466008
 30
0.0
 40
12.0
 50
285.84303536099537
 51
313.464303393585
  0
ARC
  5
18B
  8
0
 10
50.580856839506659
 20
420.9126950158726
 30
0.0
 40
12.0
 50
283.990748546904
 51
315.83932425092399
  0
ARC
  5
18C
  8
0
 10
72.675188297436677
 20
393.52275213726341
 30
0.0
 40
2.0
 50
99.775262728718275
 51
200.953193145836
  0
ARC
  5
18D
  8
0
 10
72.675188297436677
 20
411.23964028778369
 30
0.0
 40
2.0
 50
138.9672744495993
 51
260.22473727129068
  0
LINE
  5
18E
  8
0
 10
62.022622923267292
 20
387.78497660596531
 30
0.0
 11
81.335620224284554
 21
337.34978564291021
 31
0.0
  0
ARC
  5
18F
  8
0
 10
85.33562022428444
 20
506.09542366107121
 30
0.0
 40
4.0
 50
90.000000000000028
 51
180.0
  0
LINE
  5
190
  8
2
 10
77.835620224288874
 20
487.09542366107559
 30
0.0
 11
81.835620224289102
 21
491.0954236610757
 31
0.0
  0
LINE
  5
191
  8
2
 10
81.835620224289102
 20
499.09542366106672
 30
0.0
 11
81.835620224289102
 21
491.0954236610757
 31
0.0
  0
LINE
  5
192
  8
2
 10
77.835620224288874
 20
487.09542366107559
 30
0.0
 11
77.435620224289011
 21
487.09542366107559
 31
0.0
  0
LINE
  5
193
  8
2
 10
77.835620224289102
 20
503.09542366106649
 30
0.0
 11
77.435620224289011
 21
503.09542366106649
 31
0.0
  0
LINE
  5
194
  8
2
 10
77.435620224289011
 20
503.09542366106649
 30
0.0
 11
77.435620224289011
 21
487.09542366107559
 31
0.0
  0
LINE
  5
195
  8
2
 10
77.835620224288874
 20
503.09542366106672
 30
0.0
 11
81.835620224289102
 21
499.09542366106672
 31
0.0
  0
LINE
  5
196
  8
2
 10
91.235620224286563
 20
491.0954236610749
 30
0.0
 11
81.835620224288192
 21
491.0954236610749
 31
0.0
  0
LINE
  5
197
  8
2
 10
91.235620224286706
 20
499.09542366106751
 30
0.0
 11
81.835620224288192
 21
499.09542366106751
 31
0.0
  0
LINE
  5
198
  8
1
 10
76.335620224294104
 20
502.09542366107121
 30
0.0
 11
92.335620224276809
 21
502.09542366107121
 31
0.0
  0
LINE
  5
199
  8
2
 10
81.335620224294203
 20
500.59542366108082
 30
0.0
 11
87.335620224279666
 21
500.59542366108082
 31
0.0
  0
LINE
  5
19A
  8
2
 10
81.335620224294203
 20
503.59542366106137
 30
0.0
 11
87.335620224279666
 21
503.59542366106137
 31
0.0
  0
LINE
  5
19B
  8
2
 10
81.335620224294203
 20
503.59542366106137
 30
0.0
 11
81.335620224294203
 21
500.59542366108082
 31
0.0
  0
LINE
  5
19C
  8
2
 10
84.335620224284554
 20
505.09542366107053
 30
0.0
 11
106.3356202242845
 21
505.09542366107053
 31
0.0
  0
LINE
  5
19D
  8
2
 10
105.3356202242844
 20
486.09542366107053
 30
0.0
 11
84.83562022428444
 21
486.09542366107053
 31
0.0
  0
ARC
  5
19E
  8
0
 10
143.8356202242845
 20
495.0954236610711
 30
0.0
 40
40.0
 50
344.03798583715383
 51
15.962014162848289
  0
LINE
  5
19F
  8
0
 10
133.8356202242845
 20
506.09542366107178
 30
0.0
 11
182.29338927034311
 21
506.09542366107189
 31
0.0
  0
LINE
  5
1A0
  8
0
 10
133.8356202242845
 20
484.09542366107178
 30
0.0
 11
182.29338927034351
 21
484.09542366107178
 31
0.0
  0
LINE
  5
1A1
  8
0
 10
133.83562022428441
 20
506.09542366107178
 30
0.0
 11
111.7523591348601
 21
505.17528778234578
 31
0.0
  0
ARC
  5
1A2
  8
0
 10
111.8356202242845
 20
503.1770216361611
 30
0.0
 40
2.0
 50
92.385944030388771
 51
180.0
  0
LINE
  5
1A3
  8
0
 10
106.8356202242845
 20
504.59542366107178
 30
0.0
 11
109.8356202242845
 21
504.59542366107178
 31
0.0
  0
LINE
  5
1A4
  8
0
 10
109.8356202242845
 20
485.59542366107041
 30
0.0
 11
109.8356202242845
 21
504.59542366107178
 31
0.0
  0
LINE
  5
1A5
  8
0
 10
106.8356202242845
 20
485.59542366107041
 30
0.0
 11
109.8356202242845
 21
485.59542366107041
 31
0.0
  0
ARC
  5
1A6
  8
0
 10
111.8356202242845
 20
487.0138256859812
 30
0.0
 40
2.0
 50
180.0
 51
267.61405596961129
  0
LINE
  5
1A7
  8
0
 10
133.83562022428441
 20
484.09542366107053
 30
0.0
 11
111.7523591348601
 21
485.01555953979641
 31
0.0
  0
ARC
  5
1A8
  8
0
 10
105.3356202242845
 20
487.59542366107053
 30
0.0
 40
1.5
 50
311.81031489577788
 51
0.0000000000000254
  0
LINE
  5
1A9
  8
0
 10
106.3356202242845
 20
505.09542366107053
 30
0.0
 11
106.8356202242845
 21
504.59542366107053
 31
0.0
  0
LINE
  5
1AA
  8
0
 10
106.8356202242845
 20
504.59542366107053
 30
0.0
 11
106.8356202242845
 21
504.59542366107053
 31
0.0
  0
LINE
  5
1AB
  8
0
 10
106.8356202242845
 20
485.59542366107041
 30
0.0
 11
106.8356202242832
 21
504.59542366107178
 31
0.0
  0
LINE
  5
1AC
  8
0
 10
133.83562022428441
 20
506.09542366107178
 30
0.0
 11
133.83562022428441
 21
484.09542366107053
 31
0.0
  0
LINE
  5
1AD
  8
0
 10
182.29338927034351
 20
506.09542366107178
 30
0.0
 11
182.29338927034351
 21
484.09542366107053
 31
0.0
  0
LINE
  5
1AE
  8
2
 10
92.435620224286737
 20
497.89542366106741
 30
0.0
 11
92.435620224286509
 21
492.29542366107478
 31
0.0
  0
LINE
  5
1AF
  8
2
 10
91.235620224286706
 20
499.0954236610674
 30
0.0
 11
91.235620224286706
 21
491.0954236610749
 31
0.0
  0
LINE
  5
1B0
  8
2
 10
92.435620224286509
 20
492.29542366107478
 30
0.0
 11
91.235620224286563
 21
491.0954236610749
 31
0.0
  0
LINE
  5
1B1
  8
2
 10
92.435620224286737
 20
497.89542366106741
 30
0.0
 11
91.235620224286706
 21
499.09542366106751
 31
0.0
  0
LINE
  5
1B2
  8
2
 10
83.035620224289147
 20
491.77192366107113
 30
0.0
 11
91.912120224282859
 21
491.77192366107113
 31
0.0
  0
LINE
  5
1B3
  8
2
 10
83.035620224289147
 20
499.09542366106672
 30
0.0
 11
83.035620224289033
 21
491.0954236610757
 31
0.0
  0
LINE
  5
1B4
  8
2
 10
83.035620224289147
 20
498.41892366107101
 30
0.0
 11
91.912120224282859
 21
498.41892366107101
 31
0.0
  0
LINE
  5
1B5
  8
2
 10
84.335620224284455
 20
486.59542366107053
 30
0.0
 11
84.335620224284554
 21
505.09542366107053
 31
0.0
  0
ARC
  5
1B6
  8
2
 10
105.3356202242845
 20
487.59542366107053
 30
0.0
 40
1.5
 50
269.99999999999818
 51
311.81031489577788
  0
LINE
  5
1B7
  8
2
 10
87.335620224279666
 20
503.59542366106137
 30
0.0
 11
87.335620224279666
 21
500.59542366108082
 31
0.0
  0
LINE
  5
1B8
  8
2
 10
84.83562022428444
 20
486.09542366107053
 30
0.0
 11
84.335620224284455
 21
486.59542366107053
 31
0.0
  0
LINE
  5
1B9
  8
0
 10
52.346058119645853
 20
385.8452938884123
 30
0.0
 11
51.335620224284447
 21
387.5954236610711
 31
0.0
  0
ARC
  5
1BA
  8
2
 10
67.83562022428444
 20
428.0954236610711
 30
0.0
 40
45.0
 50
264.787158604902
 51
270.00000000000011
  0
ARC
  5
1BB
  8
2
 10
67.83562022428444
 20
392.0954236610707
 30
0.0
 40
8.9999999999996021
 50
270.00000000000011
 51
299.99999999999551
  0
LINE
  5
1BC
  8
0
 10
106.3356202242844
 20
314.09542366107121
 30
0.0
 11
106.3356202242844
 21
506.09542366107121
 31
0.0
  0
LINE
  5
1BD
  8
0
 10
102.3356202242844
 20
510.09542366107121
 30
0.0
 11
85.335620224284327
 21
510.09542366107121
 31
0.0
  0
LINE
  5
1BE
  8
0
 10
85.33562022428444
 20
310.09542366107121
 30
0.0
 11
102.3356202242844
 21
310.09542366107121
 31
0.0
  0
ARC
  5
1BF
  8
0
 10
102.3356202242844
 20
314.09542366107121
 30
0.0
 40
4.0
 50
270.00000000000011
 51
0.0000000000000254
  0
ARC
  5
1C0
  8
0
 10
85.33562022428444
 20
314.09542366107121
 30
0.0
 40
4.0
 50
180.0
 51
270.00000000000011
  0
ARC
  5
1C1
  8
0
 10
102.3356202242844
 20
506.09542366107121
 30
0.0
 40
4.0
 50
0.0000000000000763
 51
90.000000000000028
  0
ARC
  5
1C2
  8
0
 10
67.83562022428444
 20
392.0954236610711
 30
0.0
 40
45.0
 50
102.85975837674189
 51
110.1337307226073
  0
LINE
  5
1C3
  8
0
 10
51.335620224284447
 20
432.5954236610711
 30
0.0
 11
37.835620224284447
 21
432.5954236610711
 31
0.0
  0
LINE
  5
1C4
  8
0
 10
36.335620224284447
 20
431.0954236610711
 30
0.0
 11
36.335620224284447
 21
389.09542366107121
 31
0.0
  0
LINE
  5
1C5
  8
0
 10
37.835620224284447
 20
387.5954236610711
 30
0.0
 11
51.335620224284447
 21
387.5954236610711
 31
0.0
  0
ARC
  5
1C6
  8
0
 10
37.835620224284447
 20
431.0954236610711
 30
0.0
 40
1.5
 50
90.000000000000028
 51
180.0
  0
ARC
  5
1C7
  8
0
 10
37.835620224284447
 20
389.09542366107121
 30
0.0
 40
1.5
 50
180.0
 51
270.00000000000011
  0
LINE
  5
1C8
  8
2
 10
72.33562022428444
 20
384.30119502701513
 30
0.0
 11
72.33562022428444
 21
388.8167613127369
 31
0.0
  0
LINE
  5
1C9
  8
0
 10
52.346058119645853
 20
434.34555343373
 30
0.0
 11
51.335620224284447
 21
432.5954236610711
 31
0.0
  0
LINE
  5
1CA
  8
0
 10
77.33562022428444
 20
503.39542366107111
 30
0.0
 11
82.413670084818847
 21
508.82712777800577
 31
0.0
  0
LINE
  5
1CB
  8
0
 10
77.33562022428444
 20
503.39542366107111
 30
0.0
 11
77.335620224284554
 21
486.7954236610712
 31
0.0
  0
LINE
  5
1CC
  8
0
 10
77.33562022428444
 20
486.7954236610712
 30
0.0
 11
81.33562022428444
 21
486.7954236610712
 31
0.0
  0
LINE
  5
1CD
  8
1
 10
62.335620224284511
 20
495.0954236610711
 30
0.0
 11
198.8356202242847
 21
495.0954236610711
 31
0.0
  0
ARC
  5
1CE
  8
2
 10
67.83562022428444
 20
428.09542366107149
 30
0.0
 40
8.9999999999996021
 50
60.00000000000454
 51
90.000000000000028
  0
LINE
  5
1CF
  8
0
 10
81.33562022428444
 20
334.93258432727959
 30
0.0
 11
56.905473792142317
 21
382.50052468202171
 31
0.0
  0
ARC
  5
1D0
  8
0
 10
51.56822807434984
 20
379.75939204240967
 30
0.0
 40
6.0
 50
27.184258944493379
 51
71.399440256314776
  0
LINE
  5
1D1
  8
0
 10
70.807442541838242
 20
392.8075418238281
 30
0.0
 11
81.335620224284554
 21
365.31358821160512
 31
0.0
  0
LINE
  5
1D2
  8
0
 10
81.335620224284554
 20
424.23734747199251
 30
0.0
 11
71.166518823806797
 21
412.55262026453039
 31
0.0
  0
LINE
  5
1D3
  8
0
 10
81.33562022428444
 20
435.9365591291517
 30
0.0
 11
59.189523992554911
 21
412.55262026453039
 31
0.0
  0
LINE
  5
1D4
  8
0
 10
58.460834882270021
 20
436.53201958082502
 30
0.0
 11
81.335620224284554
 21
458.21228250142258
 31
0.0
  0
LINE
  5
1D5
  8
0
 10
81.33562022428444
 20
506.09542366107121
 30
0.0
 11
81.33562022428444
 21
314.09542366107121
 31
0.0
  0
LINE
  5
1D6
  8
1
 10
121.3356202242845
 20
410.0954236610711
 30
0.0
 11
21.335620224284451
 21
410.0954236610711
 31
0.0
  0
LINE
  5
1D7
  8
0
 10
756.82541624670375
 20
483.0954236610707
 30
0.0
 11
755.82541624670375
 21
483.0954236610707
 31
0.0
  0
ARC
  5
1D8
  8
2
 10
757.24381827161392
 20
481.0954236610707
 30
0.0
 40
2.0
 50
89.999690900921735
 51
102.0755336526299
  0
LINE
  5
1D9
  8
0
 10
756.82541624670375
 20
410.63765461501168
 30
0.0
 11
754.32541624670307
 21
410.63765461501202
 31
0.0
  0
ARC
  5
1DA
  8
0
 10
765.32541624670375
 20
449.0954236610707
 30
0.0
 40
40.0
 50
254.0379858371509
 51
257.73110100404313
  0
LINE
  5
1DB
  8
0
 10
756.82541624670375
 20
459.09542366107092
 30
0.0
 11
754.32541624670307
 21
459.09542366107092
 31
0.0
  0
ARC
  5
1DC
  8
0
 10
983.97895991027815
 20
410.76638689048758
 30
0.0
 40
82.0
 50
102.8491307976189
 51
134.3028323100315
  0
ARC
  5
1DD
  8
0
 10
966.75876943897458
 20
485.81720469479171
 30
0.0
 40
4.9999999999996723
 50
19.258848317291768
 51
101.71650460351751
  0
ARC
  5
1DE
  8
0
 10
1001.199150381581
 20
485.81720469479171
 30
0.0
 40
4.9999999999996723
 50
78.283495396482465
 51
160.74115168270819
  0
ARC
  5
1DF
  8
0
 10
983.97895991027815
 20
410.76638689048758
 30
0.0
 40
82.0
 50
45.697167689968538
 51
77.150869202381116
  0
ARC
  5
1E0
  8
0
 10
1035.6643090102791
 20
463.72509428040649
 30
0.0
 40
8.0000000000004263
 50
298.60281897270397
 51
45.697167689968687
  0
LINE
  5
1E1
  8
0
 10
1005.3912863113291
 20
438.10573580911489
 30
0.0
 11
1039.4941894457629
 21
456.70141889995909
 31
0.0
  0
ARC
  5
1E2
  8
0
 10
971.18386448906494
 20
453.90900541512138
 30
0.0
 40
18.000000000000199
 50
241.39718102729799
 51
286.5191295684869
  0
LINE
  5
1E3
  8
0
 10
962.5666335092269
 20
438.10573580911489
 30
0.0
 11
928.46373037479282
 21
456.70141889995909
 31
0.0
  0
ARC
  5
1E4
  8
0
 10
932.29361081027673
 20
463.72509428040649
 30
0.0
 40
8.0000000000004263
 50
134.30283231003131
 51
241.39718102729611
  0
ARC
  5
1E5
  8
0
 10
1026.978959910278
 20
397.49988772906693
 30
0.0
 40
18.000000000000281
 50
162.85379000110939
 51
180.00000000000011
  0
ARC
  5
1E6
  8
0
 10
1027.7391112489979
 20
400.27595530678587
 30
0.0
 40
18.000000000001059
 50
121.3971810272985
 51
166.5191295684852
  0
ARC
  5
1E7
  8
0
 10
983.97895991027815
 20
410.76638689048758
 30
0.0
 40
27.0
 50
342.85379000110947
 51
346.51912956848508
  0
ARC
  5
1E8
  8
0
 10
940.97895991027735
 20
397.49988772906693
 30
0.0
 40
18.000000000000281
 50
359.99999999999989
 51
17.146209998890601
  0
ARC
  5
1E9
  8
0
 10
940.21880857155793
 20
400.27595530678587
 30
0.0
 40
18.000000000001059
 50
13.480870431514759
 51
58.602818972701421
  0
ARC
  5
1EA
  8
0
 10
996.77405533149113
 20
453.90900541512138
 30
0.0
 40
18.000000000000199
 50
253.4808704315131
 51
298.60281897270198
  0
ARC
  5
1EB
  8
0
 10
983.97895991027815
 20
410.76638689048758
 30
0.0
 40
27.0
 50
73.480870431513068
 51
106.5191295684869
  0
CIRCLE
  5
1EC
  8
0
 10
983.97895991027815
 20
410.76638689048758
 30
0.0
 40
23.17096322941649
  0
LINE
  5
1ED
  8
0
 10
1018.361689866651
 20
415.64032864961911
 30
0.0
 11
1051.517483252484
 21
435.87647235939471
 31
0.0
  0
LINE
  5
1EE
  8
0
 10
1008.978959910278
 20
344.53195475734378
 30
0.0
 11
1008.978959910278
 21
397.4998904264653
 31
0.0
  0
ARC
  5
1EF
  8
0
 10
983.97895991027815
 20
410.76638689048758
 30
0.0
 40
82.0
 50
296.48387600926731
 51
14.30283231003159
  0
ARC
  5
1F0
  8
0
 10
1016.978959910278
 20
344.53195475734378
 30
0.0
 40
8.0000000000000853
 50
180.00000000000011
 51
296.48387600926731
  0
LINE
  5
1F1
  8
0
 10
958.97895991027815
 20
344.53195475734378
 30
0.0
 11
958.97895991027769
 21
397.49989312386361
 31
0.0
  0
ARC
  5
1F2
  8
0
 10
950.97895991027792
 20
344.53195475734378
 30
0.0
 40
8.0000000000000853
 50
243.51612399073281
 51
360.0
  0
ARC
  5
1F3
  8
0
 10
983.97895991027815
 20
410.76638689048758
 30
0.0
 40
82.0
 50
165.69716768996841
 51
243.51612399073289
  0
ARC
  5
1F4
  8
0
 10
912.27269940902124
 20
429.04785851959639
 30
0.0
 40
7.9999999999998739
 50
58.602818972696859
 51
165.6971676899685
  0
LINE
  5
1F5
  8
0
 10
949.59622602329546
 20
415.64033104860772
 30
0.0
 11
916.44044049868251
 21
435.87646996040542
 31
0.0
  0
CIRCLE
  5
1F6
  8
0
 10
983.97895991027815
 20
410.76638689048758
 30
0.0
 40
100.0
  0
LINE
  5
1F7
  8
1
 10
1098.978959910278
 20
410.76638689048758
 30
0.0
 11
868.97895991027804
 21
410.76638689048758
 31
0.0
  0
LINE
  5
1F8
  8
1
 10
983.97895991027815
 20
525.76638689048764
 30
0.0
 11
983.97895991027815
 21
295.76638689048769
 31
0.0
  0
LINE
  5
203
  8
1
 10
329.55091559604961
 20
275.05109151872239
 30
0.0
 11
329.55091559604961
 21
102.5510915187223
 31
0.0
  0
LINE
  5
204
  8
0
 10
425.55091559604978
 20
162.5510915187223
 30
0.0
 11
233.55091559604969
 21
162.5510915187223
 31
0.0
  0
LINE
  5
205
  8
0
 10
303.75668696199352
 20
153.5510915187223
 30
0.0
 11
304.55091559604938
 21
153.5510915187223
 31
0.0
  0
ARC
  5
206
  8
0
 10
308.55091559604972
 20
119.0510915187223
 30
0.0
 40
1.5
 50
180.0
 51
270.0
  0
LINE
  5
207
  8
0
 10
307.05091559604972
 20
119.0510915187223
 30
0.0
 11
307.05091559604972
 21
132.5510915187223
 31
0.0
  0
LINE
  5
208
  8
0
 10
350.55091559604961
 20
117.5510915187223
 30
0.0
 11
308.55091559604972
 21
117.5510915187223
 31
0.0
  0
ARC
  5
209
  8
0
 10
233.55091559604969
 20
166.5510915187223
 30
0.0
 40
4.0
 50
180.0
 51
270.0
  0
ARC
  5
20A
  8
0
 10
233.55091559604969
 20
183.5510915187223
 30
0.0
 40
4.0
 50
89.999999999999986
 51
179.99999999999989
  0
LINE
  5
20B
  8
0
 10
229.55091559604961
 20
166.5510915187223
 30
0.0
 11
229.55091559604961
 21
183.5510915187223
 31
0.0
  0
LINE
  5
20C
  8
0
 10
233.55091559604969
 20
187.5510915187223
 30
0.0
 11
425.55091559604961
 21
187.5510915187223
 31
0.0
  0
ARC
  5
20D
  8
0
 10
311.55091559604932
 20
149.0510915187223
 30
0.0
 40
8.9999999999996021
 50
150.00000000000441
 51
180.0
  0
LINE
  5
20E
  8
0
 10
305.30078582339081
 20
133.56152941408371
 30
0.0
 11
307.05091559604961
 21
132.5510915187223
 31
0.0
  0
LINE
  5
20F
  8
0
 10
340.55091559605017
 20
263.50886056478129
 30
0.0
 11
318.55091559604892
 21
263.50886056478129
 31
0.0
  0
LINE
  5
210
  8
0
 10
340.55091559605017
 20
215.0510915187223
 30
0.0
 11
318.55091559604892
 21
215.0510915187223
 31
0.0
  0
LINE
  5
211
  8
0
 10
320.05091559604892
 20
188.05109151872239
 30
0.0
 11
339.05091559605017
 21
188.05109151872099
 31
0.0
  0
LINE
  5
212
  8
0
 10
339.05091559604892
 20
188.05109151872239
 30
0.0
 11
339.05091559604892
 21
188.05109151872239
 31
0.0
  0
LINE
  5
213
  8
0
 10
339.55091559604892
 20
187.55109151872239
 30
0.0
 11
339.05091559604892
 21
188.05109151872239
 31
0.0
  0
LINE
  5
214
  8
0
 10
318.55091559604892
 20
215.0510915187223
 30
0.0
 11
319.47105147477481
 21
192.96783042929789
 31
0.0
  0
ARC
  5
215
  8
0
 10
321.46931762095949
 20
193.05109151872239
 30
0.0
 40
2.0
 50
182.38594403038871
 51
270.0
  0
LINE
  5
216
  8
0
 10
320.05091559604892
 20
188.05109151872239
 30
0.0
 11
320.05091559604892
 21
191.05109151872239
 31
0.0
  0
LINE
  5
217
  8
0
 10
320.05091559604892
 20
191.05109151872239
 30
0.0
 11
339.05091559605017
 21
191.05109151872239
 31
0.0
  0
LINE
  5
218
  8
0
 10
339.05091559605017
 20
188.05109151872239
 30
0.0
 11
339.05091559605017
 21
191.05109151872239
 31
0.0
  0
ARC
  5
219
  8
0
 10
337.63251357113938
 20
193.05109151872239
 30
0.0
 40
2.0
 50
270.0
 51
357.61405596961117
  0
LINE
  5
21A
  8
0
 10
340.55091559605017
 20
215.0510915187223
 30
0.0
 11
339.63077971732412
 21
192.96783042929789
 31
0.0
  0
LINE
  5
21B
  8
0
 10
318.55091559605017
 20
215.05109151872239
 30
0.0
 11
318.55091559605017
 21
263.50886056478129
 31
0.0
  0
LINE
  5
21C
  8
0
 10
340.55091559605017
 20
215.05109151872239
 30
0.0
 11
340.55091559605017
 21
263.508860564781
 31
0.0
  0
ARC
  5
21D
  8
0
 10
329.55091559604961
 20
225.05109151872239
 30
0.0
 40
40.0
 50
74.037985837151709
 51
105.9620141628462
  0
ARC
  5
21E
  8
0
 10
347.55091559604972
 20
149.0510915187223
 30
0.0
 40
45.0
 50
180.0
 51
200.13373072260731
  0
LINE
  5
21F
  8
0
 10
305.30078582339007
 20
133.56152941408419
 30
0.0
 11
353.80104536870942
 21
133.56152941408439
 31
0.0
  0
LINE
  5
220
  8
0
 10
352.05091559604961
 20
132.5510915187223
 30
0.0
 11
307.05091559604972
 21
132.5510915187223
 31
0.0
  0
LINE
  5
221
  8
0
 10
319.55091559605029
 20
187.55109151872239
 30
0.0
 11
320.05091559605029
 21
188.05109151872239
 31
0.0
  0
LINE
  5
222
  8
2
 10
354.55091559604978
 20
153.5510915187223
 30
0.0
 11
304.55091559604932
 21
153.5510915187219
 31
0.0
  0
ARC
  5
223
  8
0
 10
329.55091559604978
 20
410.76638689048758
 30
0.0
 40
27.0
 50
193.480870431515
 51
197.14620999889061
  0
ARC
  5
224
  8
0
 10
372.5509155960504
 20
397.49988772906693
 30
0.0
 40
18.000000000000281
 50
162.85379000110939
 51
180.00000000000011
  0
ARC
  5
225
  8
0
 10
373.31106693477
 20
400.27595530678587
 30
0.0
 40
18.000000000001059
 50
121.3971810272985
 51
166.5191295684852
  0
ARC
  5
226
  8
0
 10
329.55091559604978
 20
410.76638689048758
 30
0.0
 40
27.0
 50
342.85379000110947
 51
346.51912956848508
  0
LINE
  5
227
  8
0
 10
354.55091559604978
 20
344.53195475734378
 30
0.0
 11
354.55091559605017
 21
397.4998904264653
 31
0.0
  0
LINE
  5
228
  8
0
 10
363.93364555242312
 20
415.64032864961911
 30
0.0
 11
397.08943893825551
 21
435.87647235939471
 31
0.0
  0
ARC
  5
229
  8
0
 10
286.55091559604932
 20
397.49988772906693
 30
0.0
 40
18.000000000000281
 50
359.99999999999989
 51
17.146209998890601
  0
LINE
  5
22A
  8
0
 10
304.55091559604978
 20
344.53195475734378
 30
0.0
 11
304.55091559604961
 21
397.49989312386361
 31
0.0
  0
ARC
  5
22B
  8
0
 10
285.79076425732973
 20
400.27595530678587
 30
0.0
 40
18.000000000001059
 50
13.480870431514759
 51
58.602818972701421
  0
LINE
  5
22C
  8
0
 10
295.16818170906743
 20
415.64033104860772
 30
0.0
 11
262.01239618445442
 21
435.87646996040542
 31
0.0
  0
ARC
  5
22D
  8
0
 10
346.77110606735329
 20
485.81720469479171
 30
0.0
 40
4.9999999999996723
 50
78.283495396482465
 51
160.74115168270819
  0
ARC
  5
22E
  8
0
 10
312.33072512474638
 20
485.81720469479171
 30
0.0
 40
4.9999999999996723
 50
19.258848317291768
 51
101.71650460351751
  0
ARC
  5
22F
  8
0
 10
277.86556649604847
 20
463.72509428040649
 30
0.0
 40
8.0000000000004263
 50
134.30283231003131
 51
241.39718102729611
  0
ARC
  5
230
  8
0
 10
329.55091559604978
 20
410.76638689048758
 30
0.0
 40
82.0
 50
102.8491307976189
 51
134.3028323100315
  0
ARC
  5
231
  8
0
 10
329.55091559604978
 20
410.76638689048758
 30
0.0
 40
82.0
 50
45.697167689968538
 51
77.150869202381116
  0
ARC
  5
232
  8
0
 10
381.23626469605119
 20
463.72509428040649
 30
0.0
 40
8.0000000000004263
 50
298.60281897270397
 51
45.697167689968687
  0
LINE
  5
233
  8
0
 10
350.96324199710102
 20
438.10573580911489
 30
0.0
 11
385.066145131535
 21
456.70141889995909
 31
0.0
  0
ARC
  5
234
  8
0
 10
342.34601101726292
 20
453.90900541512138
 30
0.0
 40
18.000000000000199
 50
253.4808704315131
 51
298.60281897270198
  0
ARC
  5
235
  8
0
 10
329.55091559604978
 20
410.76638689048758
 30
0.0
 40
27.0
 50
73.480870431513068
 51
106.5191295684869
  0
ARC
  5
236
  8
0
 10
316.75582017483669
 20
453.90900541512138
 30
0.0
 40
18.000000000000199
 50
241.39718102729799
 51
286.5191295684869
  0
LINE
  5
237
  8
0
 10
308.13858919499881
 20
438.10573580911478
 30
0.0
 11
274.03568606056461
 21
456.70141889995909
 31
0.0
  0
CIRCLE
  5
238
  8
0
 10
329.55091559604978
 20
410.76638689048758
 30
0.0
 40
25.800000000000001
  0
POLYLINE
  5
239
  8
2
 66
     1
 10
0.0
 20
0.0
 30
0.0
  0
VERTEX
  5
23A
  8
2
 10
296.59827522097282
 20
485.85382586872697
 30
0.0
 42
0.0077893988732914
  0
VERTEX
  5
23B
  8
2
 10
296.35694307836968
 20
486.2872820690306
 30
0.0
 42
0.0755524339494504
  0
VERTEX
  5
23C
  8
2
 10
293.36902019125102
 20
490.0246660942214
 30
0.0
 42
0.0858577042405944
  0
VERTEX
  5
23D
  8
2
 10
289.82796987580741
 20
492.31573660413233
 30
0.0
 42
0.1060481969950755
 70
     2
 50
156.9115072569856
  0
VERTEX
  5
23E
  8
2
 10
285.8416640779738
 20
493.08926137807401
 30
0.0
 42
0.1266598135587198
  0
VERTEX
  5
23F
  8
2
 10
282.55091559604961
 20
492.17277484622502
 30
0.0
 42
0.1266598135587178
  0
SEQEND
  5
240
  8
2
  0
POLYLINE
  5
241
  8
2
 66
     1
 10
0.0
 20
0.0
 30
0.0
  0
VERTEX
  5
242
  8
2
 10
282.55091559604961
 20
492.17277484622502
 30
0.0
 42
0.1266598135587178
  0
VERTEX
  5
243
  8
2
 10
280.1118407362801
 20
489.78114632933818
 30
0.0
 42
0.1060481969950741
  0
VERTEX
  5
244
  8
2
 10
278.78857994205339
 20
485.9421418541902
 30
0.0
 42
0.0858577042406053
 70
     2
 50
263.08849274301451
  0
VERTEX
  5
245
  8
2
 10
279.02420690405557
 20
481.29559945446778
 30
0.0
 42
0.0914021004951984
  0
VERTEX
  5
246
  8
2
 10
280.74488811372981
 20
477.27365793259253
 30
0.0
 42
0.0077893988732914
  0
VERTEX
  5
247
  8
2
 10
280.99960612331898
 20
476.84793006619691
 30
0.0
 42
0.0858577042405974
  0
SEQEND
  5
248
  8
2
  0
POLYLINE
  5
249
  8
2
 66
     1
 10
0.0
 20
0.0
 30
0.0
  0
VERTEX
  5
24A
  8
2
 10
256.94504583840347
 20
372.65618252557113
 30
0.0
 42
0.0077893988732914
  0
VERTEX
  5
24B
  8
2
 10
256.52947999488759
 20
372.38520187988252
 30
0.0
 42
0.0755524339494504
  0
VERTEX
  5
24C
  8
2
 10
253.00962701376659
 20
369.14385069211937
 30
0.0
 42
0.0858577042405944
  0
VERTEX
  5
24D
  8
2
 10
250.97114861982499
 20
365.45160919740113
 30
0.0
 42
0.1060481969950755
 70
     2
 50
250.9115072569856
  0
VERTEX
  5
24E
  8
2
 10
250.47757874907799
 20
361.42105547955612
 30
0.0
 42
0.1266598135587198
  0
VERTEX
  5
24F
  8
2
 10
251.6213837758757
 20
358.20225396423717
 30
0.0
 42
0.1266598135587178
  0
SEQEND
  5
250
  8
2
  0
POLYLINE
  5
251
  8
2
 66
     1
 10
0.0
 20
0.0
 30
0.0
  0
VERTEX
  5
252
  8
2
 10
251.6213837758757
 20
358.20225396423717
 30
0.0
 42
0.1266598135587178
  0
VERTEX
  5
253
  8
2
 10
254.1773276673137
 20
355.93595214008258
 30
0.0
 42
0.1060481969950741
  0
VERTEX
  5
254
  8
2
 10
258.09928652735698
 20
354.88371015751801
 30
0.0
 42
0.0858577042406053
 70
     2
 50
357.08849274301451
  0
VERTEX
  5
255
  8
2
 10
262.7180736773397
 20
355.44288955699039
 30
0.0
 42
0.0914021004951984
  0
VERTEX
  5
256
  8
2
 10
266.61018929818522
 20
357.43993573189022
 30
0.0
 42
0.0077893988732914
  0
VERTEX
  5
257
  8
2
 10
267.01711188274732
 20
357.72373053594453
 30
0.0
 42
0.0858577042405974
  0
SEQEND
  5
258
  8
2
  0
POLYLINE
  5
259
  8
2
 66
     1
 10
0.0
 20
0.0
 30
0.0
  0
VERTEX
  5
25A
  8
2
 10
271.25992245348237
 20
353.09351529167481
 30
0.0
 42
0.0077893988732914
  0
VERTEX
  5
25B
  8
2
 10
270.94174193423919
 20
352.71287551733542
 30
0.0
 42
0.0755524339494504
  0
VERTEX
  5
25C
  8
2
 10
268.52336916047398
 20
348.58405054426743
 30
0.0
 42
0.0858577042405944
  0
VERTEX
  5
25D
  8
2
 10
267.65346951747853
 20
344.45714903962698
 30
0.0
 42
0.1060481969950755
 70
     2
 50
267.9115072569856
  0
VERTEX
  5
25E
  8
2
 10
268.35988616414602
 20
340.45840548557737
 30
0.0
 42
0.1266598135587198
  0
VERTEX
  5
25F
  8
2
 10
270.39479883736487
 20
337.71466651353211
 30
0.0
 42
0.1266598135587178
  0
SEQEND
  5
260
  8
2
  0
POLYLINE
  5
261
  8
2
 66
     1
 10
0.0
 20
0.0
 30
0.0
  0
VERTEX
  5
262
  8
2
 10
270.39479883736487
 20
337.71466651353211
 30
0.0
 42
0.1266598135587178
  0
VERTEX
  5
263
  8
2
 10
273.50166266446621
 20
336.29467697336071
 30
0.0
 42
0.1060481969950741
  0
VERTEX
  5
264
  8
2
 10
277.55989635724012
 20
336.4350827587736
 30
0.0
 42
0.0858577042406053
 70
     2
 50
14.08849274301452
  0
VERTEX
  5
265
  8
2
 10
281.81337624128003
 20
338.32023135071751
 30
0.0
 42
0.0914021004951984
  0
VERTEX
  5
266
  8
2
 10
284.95154512568712
 20
341.36796058469662
 30
0.0
 42
0.0077893988732914
  0
VERTEX
  5
267
  8
2
 10
285.25771355795979
 20
341.75832755526977
 30
0.0
 42
0.0858577042405974
  0
SEQEND
  5
268
  8
2
  0
POLYLINE
  5
269
  8
2
 66
     1
 10
0.0
 20
0.0
 30
0.0
  0
VERTEX
  5
26A
  8
2
 10
235.55091559604949
 20
410.76638689048758
 30
0.0
 42
0.1266598135587178
  0
VERTEX
  5
26B
  8
2
 10
236.4025892182041
 20
407.4582718417517
 30
0.0
 42
0.1060481969950741
  0
VERTEX
  5
26C
  8
2
 10
239.06563422181111
 20
404.39279214054551
 30
0.0
 42
0.0858577042406053
 70
     2
 50
323.08849274301451
  0
VERTEX
  5
26D
  8
2
 10
243.20747146073319
 20
402.27357987559458
 30
0.0
 42
0.0914021004951984
  0
VERTEX
  5
26E
  8
2
 10
247.5509155960498
 20
401.75276275404951
 30
0.0
 42
0.0077893988732914
  0
VERTEX
  5
26F
  8
2
 10
248.046965748242
 20
401.76049108795729
 30
0.0
 42
0.0858577042405974
  0
SEQEND
  5
270
  8
2
  0
POLYLINE
  5
271
  8
2
 66
     1
 10
0.0
 20
0.0
 30
0.0
  0
VERTEX
  5
272
  8
2
 10
248.046965748242
 20
419.77228269301793
 30
0.0
 42
0.0077893988732914
  0
VERTEX
  5
273
  8
2
 10
247.5509155960498
 20
419.78001102692559
 30
0.0
 42
0.0755524339494504
  0
VERTEX
  5
274
  8
2
 10
242.82028464297699
 20
419.06108591472719
 30
0.0
 42
0.0858577042405944
  0
VERTEX
  5
275
  8
2
 10
239.06563422181111
 20
417.13998164042971
 30
0.0
 42
0.1060481969950755
 70
     2
 50
216.9115072569856
  0
VERTEX
  5
276
  8
2
 10
236.4025892182041
 20
414.07450193922352
 30
0.0
 42
0.1266598135587198
  0
VERTEX
  5
277
  8
2
 10
235.55091559604949
 20
410.76638689048758
 30
0.0
 42
0.1266598135587178
  0
SEQEND
  5
278
  8
2
  0
POLYLINE
  5
279
  8
2
 66
     1
 10
0.0
 20
0.0
 30
0.0
  0
VERTEX
  5
27A
  8
2
 10
248.97523161847741
 20
395.54931911951502
 30
0.0
 42
0.0077893988732914
  0
VERTEX
  5
27B
  8
2
 10
248.4985969525805
 20
395.41167873336212
 30
0.0
 42
0.0755524339494504
  0
VERTEX
  5
27C
  8
2
 10
244.18486543407249
 20
393.34106459322152
 30
0.0
 42
0.0858577042405944
  0
VERTEX
  5
27D
  8
2
 10
241.15595191095929
 20
390.40614989473562
 30
0.0
 42
0.1060481969950755
 70
     2
 50
233.9115072569856
  0
VERTEX
  5
27E
  8
2
 10
239.5055288347011
 20
386.6960180697061
 30
0.0
 42
0.1266598135587198
  0
VERTEX
  5
27F
  8
2
 10
239.6582685355242
 20
383.28344664655032
 30
0.0
 42
0.1266598135587178
  0
SEQEND
  5
280
  8
2
  0
POLYLINE
  5
281
  8
2
 66
     1
 10
0.0
 20
0.0
 30
0.0
  0
VERTEX
  5
282
  8
2
 10
239.6582685355242
 20
383.28344664655032
 30
0.0
 42
0.1266598135587178
  0
VERTEX
  5
283
  8
2
 10
241.4399273071368
 20
380.3688857609481
 30
0.0
 42
0.1060481969950741
  0
VERTEX
  5
284
  8
2
 10
244.88286943546419
 20
378.21595195083432
 30
0.0
 42
0.0858577042406053
 70
     2
 50
340.08849274301451
  0
VERTEX
  5
285
  8
2
 10
249.46332578804331
 20
377.4002951971944
 30
0.0
 42
0.0914021004951984
  0
VERTEX
  5
286
  8
2
 10
253.7692542615813
 20
378.17213547308432
 30
0.0
 42
0.0077893988732914
  0
VERTEX
  5
287
  8
2
 10
254.2413698351595
 20
378.3245571441804
 30
0.0
 42
0.0858577042405974
  0
SEQEND
  5
288
  8
2
  0
POLYLINE
  5
289
  8
2
 66
     1
 10
0.0
 20
0.0
 30
0.0
  0
VERTEX
  5
28A
  8
2
 10
376.55091559605012
 20
492.17277484622502
 30
0.0
 42
-0.1266598135587178
  0
VERTEX
  5
28B
  8
2
 10
378.98999045581951
 20
489.78114632933818
 30
0.0
 42
-0.1060481969950741
  0
VERTEX
  5
28C
  8
2
 10
380.31325125004622
 20
485.9421418541902
 30
0.0
 42
-0.0858577042406053
 70
     2
 50
276.9115072569856
  0
VERTEX
  5
28D
  8
2
 10
380.07762428804409
 20
481.29559945446778
 30
0.0
 42
-0.0914021004951984
  0
VERTEX
  5
28E
  8
2
 10
378.3569430783698
 20
477.27365793259253
 30
0.0
 42
-0.0077893988732914
  0
VERTEX
  5
28F
  8
2
 10
378.10222506878068
 20
476.84793006619691
 30
0.0
 42
-0.0858577042405974
  0
SEQEND
  5
290
  8
2
  0
POLYLINE
  5
291
  8
2
 66
     1
 10
0.0
 20
0.0
 30
0.0
  0
VERTEX
  5
292
  8
2
 10
362.5035559711269
 20
485.85382586872697
 30
0.0
 42
-0.0077893988732914
  0
VERTEX
  5
293
  8
2
 10
362.74488811372993
 20
486.2872820690306
 30
0.0
 42
-0.0755524339494504
  0
VERTEX
  5
294
  8
2
 10
365.7328110008487
 20
490.0246660942214
 30
0.0
 42
-0.0858577042405944
  0
VERTEX
  5
295
  8
2
 10
369.27386131629231
 20
492.31573660413233
 30
0.0
 42
-0.1060481969950755
 70
     2
 50
23.088492743014449
  0
VERTEX
  5
296
  8
2
 10
373.26016711412592
 20
493.08926137807401
 30
0.0
 42
-0.1266598135587198
  0
VERTEX
  5
297
  8
2
 10
376.55091559605012
 20
492.17277484622502
 30
0.0
 42
-0.1266598135587178
  0
SEQEND
  5
298
  8
2
  0
POLYLINE
  5
299
  8
2
 66
     1
 10
0.0
 20
0.0
 30
0.0
  0
VERTEX
  5
29A
  8
2
 10
388.70703235473479
 20
337.71466651353211
 30
0.0
 42
-0.1266598135587178
  0
VERTEX
  5
29B
  8
2
 10
385.60016852763351
 20
336.29467697336071
 30
0.0
 42
-0.1060481969950741
  0
VERTEX
  5
29C
  8
2
 10
381.54193483485938
 20
336.4350827587736
 30
0.0
 42
-0.0858577042406053
 70
     2
 50
165.91150725698549
  0
VERTEX
  5
29D
  8
2
 10
377.28845495081958
 20
338.32023135071751
 30
0.0
 42
-0.0914021004951984
  0
VERTEX
  5
29E
  8
2
 10
374.15028606641249
 20
341.36796058469662
 30
0.0
 42
-0.0077893988732914
  0
VERTEX
  5
29F
  8
2
 10
373.84411763413988
 20
341.75832755526977
 30
0.0
 42
-0.0858577042405974
  0
SEQEND
  5
2A0
  8
2
  0
POLYLINE
  5
2A1
  8
2
 66
     1
 10
0.0
 20
0.0
 30
0.0
  0
VERTEX
  5
2A2
  8
2
 10
387.84190873861729
 20
353.09351529167481
 30
0.0
 42
-0.0077893988732914
  0
VERTEX
  5
2A3
  8
2
 10
388.16008925786042
 20
352.71287551733542
 30
0.0
 42
-0.0755524339494504
  0
VERTEX
  5
2A4
  8
2
 10
390.57846203162558
 20
348.58405054426743
 30
0.0
 42
-0.0858577042405944
  0
VERTEX
  5
2A5
  8
2
 10
391.4483616746212
 20
344.45714903962698
 30
0.0
 42
-0.1060481969950755
 70
     2
 50
272.0884927430144
  0
VERTEX
  5
2A6
  8
2
 10
390.74194502795359
 20
340.45840548557737
 30
0.0
 42
-0.1266598135587198
  0
VERTEX
  5
2A7
  8
2
 10
388.70703235473479
 20
337.71466651353211
 30
0.0
 42
-0.1266598135587178
  0
SEQEND
  5
2A8
  8
2
  0
POLYLINE
  5
2A9
  8
2
 66
     1
 10
0.0
 20
0.0
 30
0.0
  0
VERTEX
  5
2AA
  8
2
 10
407.48044741622391
 20
358.20225396423717
 30
0.0
 42
-0.1266598135587178
  0
VERTEX
  5
2AB
  8
2
 10
404.92450352478579
 20
355.93595214008258
 30
0.0
 42
-0.1060481969950741
  0
VERTEX
  5
2AC
  8
2
 10
401.00254466474257
 20
354.88371015751801
 30
0.0
 42
-0.0858577042406053
 70
     2
 50
182.91150725698549
  0
VERTEX
  5
2AD
  8
2
 10
396.38375751475991
 20
355.44288955699039
 30
0.0
 42
-0.0914021004951984
  0
VERTEX
  5
2AE
  8
2
 10
392.4916418939145
 20
357.43993573189022
 30
0.0
 42
-0.0077893988732914
  0
VERTEX
  5
2AF
  8
2
 10
392.08471930935229
 20
357.72373053594453
 30
0.0
 42
-0.0858577042405974
  0
SEQEND
  5
2B0
  8
2
  0
POLYLINE
  5
2B1
  8
2
 66
     1
 10
0.0
 20
0.0
 30
0.0
  0
VERTEX
  5
2B2
  8
2
 10
402.15678535369619
 20
372.65618252557113
 30
0.0
 42
-0.0077893988732914
  0
VERTEX
  5
2B3
  8
2
 10
402.57235119721201
 20
372.38520187988252
 30
0.0
 42
-0.0755524339494504
  0
VERTEX
  5
2B4
  8
2
 10
406.09220417833302
 20
369.14385069211937
 30
0.0
 42
-0.0858577042405944
  0
VERTEX
  5
2B5
  8
2
 10
408.13068257227462
 20
365.45160919740113
 30
0.0
 42
-0.1060481969950755
 70
     2
 50
289.08849274301451
  0
VERTEX
  5
2B6
  8
2
 10
408.62425244302159
 20
361.42105547955612
 30
0.0
 42
-0.1266598135587198
  0
VERTEX
  5
2B7
  8
2
 10
407.48044741622391
 20
358.20225396423717
 30
0.0
 42
-0.1266598135587178
  0
SEQEND
  5
2B8
  8
2
  0
POLYLINE
  5
2B9
  8
2
 66
     1
 10
0.0
 20
0.0
 30
0.0
  0
VERTEX
  5
2BA
  8
2
 10
419.44356265657541
 20
383.28344664655032
 30
0.0
 42
-0.1266598135587178
  0
VERTEX
  5
2BB
  8
2
 10
417.66190388496278
 20
380.3688857609481
 30
0.0
 42
-0.1060481969950741
  0
VERTEX
  5
2BC
  8
2
 10
414.21896175663539
 20
378.21595195083432
 30
0.0
 42
-0.0858577042406053
 70
     2
 50
199.9115072569856
  0
VERTEX
  5
2BD
  8
2
 10
409.63850540405627
 20
377.4002951971944
 30
0.0
 42
-0.0914021004951984
  0
VERTEX
  5
2BE
  8
2
 10
405.33257693051843
 20
378.17213547308432
 30
0.0
 42
-0.0077893988732914
  0
VERTEX
  5
2BF
  8
2
 10
404.86046135693999
 20
378.3245571441804
 30
0.0
 42
-0.0858577042405974
  0
SEQEND
  5
2C0
  8
2
  0
POLYLINE
  5
2C1
  8
2
 66
     1
 10
0.0
 20
0.0
 30
0.0
  0
VERTEX
  5
2C2
  8
2
 10
410.12659957362217
 20
395.54931911951502
 30
0.0
 42
-0.0077893988732914
  0
VERTEX
  5
2C3
  8
2
 10
410.60323423951922
 20
395.41167873336212
 30
0.0
 42
-0.0755524339494504
  0
VERTEX
  5
2C4
  8
2
 10
414.91696575802712
 20
393.34106459322152
 30
0.0
 42
-0.0858577042405944
  0
VERTEX
  5
2C5
  8
2
 10
417.94587928114032
 20
390.40614989473562
 30
0.0
 42
-0.1060481969950755
 70
     2
 50
306.08849274301451
  0
VERTEX
  5
2C6
  8
2
 10
419.59630235739849
 20
386.6960180697061
 30
0.0
 42
-0.1266598135587198
  0
VERTEX
  5
2C7
  8
2
 10
419.44356265657541
 20
383.28344664655032
 30
0.0
 42
-0.1266598135587178
  0
SEQEND
  5
2C8
  8
2
  0
POLYLINE
  5
2C9
  8
2
 66
     1
 10
0.0
 20
0.0
 30
0.0
  0
VERTEX
  5
2CA
  8
2
 10
411.05486544385758
 20
419.77228269301793
 30
0.0
 42
-0.0077893988732914
  0
VERTEX
  5
2CB
  8
2
 10
411.55091559604978
 20
419.78001102692559
 30
0.0
 42
-0.0755524339494504
  0
VERTEX
  5
2CC
  8
2
 10
416.2815465491226
 20
419.06108591472719
 30
0.0
 42
-0.0858577042405944
  0
VERTEX
  5
2CD
  8
2
 10
420.03619697028859
 20
417.13998164042971
 30
0.0
 42
-0.1060481969950755
 70
     2
 50
323.08849274301451
  0
VERTEX
  5
2CE
  8
2
 10
422.69924197389548
 20
414.07450193922352
 30
0.0
 42
-0.1266598135587198
  0
VERTEX
  5
2CF
  8
2
 10
423.55091559605012
 20
410.76638689048758
 30
0.0
 42
-0.1266598135587178
  0
SEQEND
  5
2D0
  8
2
  0
POLYLINE
  5
2D1
  8
2
 66
     1
 10
0.0
 20
0.0
 30
0.0
  0
VERTEX
  5
2D2
  8
2
 10
423.55091559605012
 20
410.76638689048758
 30
0.0
 42
-0.1266598135587178
  0
VERTEX
  5
2D3
  8
2
 10
422.69924197389548
 20
407.4582718417517
 30
0.0
 42
-0.1060481969950741
  0
VERTEX
  5
2D4
  8
2
 10
420.03619697028859
 20
404.39279214054551
 30
0.0
 42
-0.0858577042406053
 70
     2
 50
216.9115072569856
  0
VERTEX
  5
2D5
  8
2
 10
415.89435973136648
 20
402.27357987559458
 30
0.0
 42
-0.0914021004951984
  0
VERTEX
  5
2D6
  8
2
 10
411.55091559604978
 20
401.75276275404951
 30
0.0
 42
-0.0077893988732914
  0
VERTEX
  5
2D7
  8
2
 10
411.05486544385758
 20
401.76049108795729
 30
0.0
 42
-0.0858577042405974
  0
SEQEND
  5
2D8
  8
2
  0
LINE
  5
2D9
  8
0
 10
317.05091559604762
 20
487.46638689048763
 30
0.0
 11
322.33218994673922
 21
487.46638689048763
 31
0.0
  0
LINE
  5
2DA
  8
1
 10
303.55091559604978
 20
495.76638689048758
 30
0.0
 11
355.55091559604978
 21
495.76638689048758
 31
0.0
  0
ARC
  5
2DB
  8
0
 10
329.55091559604978
 20
410.76638689048758
 30
0.0
 40
85.0
 50
104.7269138136209
 51
75.273086186379075
  0
ARC
  5
2DC
  8
0
 10
349.33946831432189
 20
485.69805454814912
 30
0.0
 40
7.4999999999996501
 50
75.960027635238177
 51
166.36253325432139
  0
ARC
  5
2DD
  8
0
 10
309.76236287777778
 20
485.69805454814912
 30
0.0
 40
7.4999999999996501
 50
13.637466745678619
 51
104.03997236476179
  0
ARC
  5
2DE
  8
0
 10
329.55091559604978
 20
410.76638689048758
 30
0.0
 40
82.0
 50
165.69716768996841
 51
243.51612399073289
  0
ARC
  5
2DF
  8
0
 10
329.55091559604978
 20
410.76638689048758
 30
0.0
 40
82.0
 50
296.48387600926731
 51
14.30283231003159
  0
ARC
  5
2E0
  8
0
 10
362.55091559605
 20
344.53195475734378
 30
0.0
 40
8.0000000000000853
 50
180.00000000000011
 51
296.48387600926731
  0
ARC
  5
2E1
  8
0
 10
401.25717609730668
 20
429.04785851959639
 30
0.0
 40
7.9999999999998739
 50
14.302832310031571
 51
121.39718102730311
  0
ARC
  5
2E2
  8
0
 10
257.84465509479298
 20
429.04785851959639
 30
0.0
 40
7.9999999999998739
 50
58.602818972696859
 51
165.6971676899685
  0
ARC
  5
2E3
  8
0
 10
296.55091559604972
 20
344.53195475734378
 30
0.0
 40
8.0000000000000853
 50
243.51612399073281
 51
360.0
  0
LINE
  5
2E4
  8
1
 10
329.55091559604978
 20
525.76638689048752
 30
0.0
 11
329.55091559604978
 21
295.76638689048769
 31
0.0
  0
LINE
  5
2E5
  8
1
 10
214.55091559605
 20
410.76638689048758
 30
0.0
 11
444.55091559604978
 21
410.76638689048758
 31
0.0
  0
CIRCLE
  5
2E6
  8
0
 10
329.55091559604978
 20
410.76638689048758
 30
0.0
 40
100.0
  0
LINE
  5
2E7
  8
1
 10
314.55091559604978
 20
495.76638689048758
 30
0.0
 11
344.55091559604921
 21
495.76638689048758
 31
0.0
  0
LINE
  5
2E8
  8
1
 10
329.55091559604972
 20
510.7663868904873
 30
0.0
 11
329.55091559604978
 21
404.76638689048713
 31
0.0
  0
LINE
  5
2E9
  8
0
 10
336.7696412453605
 20
487.46638689048763
 30
0.0
 11
342.05091559605
 21
487.46638689048763
 31
0.0
  0
CIRCLE
  5
2EA
  8
0
 10
329.55091559604978
 20
495.76638689048758
 30
0.0
 40
11.0
  0
POLYLINE
  5
2EB
  8
0
 66
     1
 10
0.0
 20
0.0
 30
0.0
  0
VERTEX
  5
2EC
  8
0
 10
304.36421353239768
 20
138.06160834838741
 30
0.0
 42
0.0334401135511769
 70
     2
 50
72.971348874955595
  0
VERTEX
  5
2ED
  8
0
 10
304.48320085182212
 20
138.670301823015
 30
0.0
 42
0.0315580224902655
  0
VERTEX
  5
2EE
  8
0
 10
304.55091559604961
 20
139.74209436863171
 30
0.0
 42
0.0315580224902739
  0
SEQEND
  5
2EF
  8
0
  0
LINE
  5
2F0
  8
0
 10
304.55091559604961
 20
139.74209436863171
 30
0.0
 11
304.55091559604961
 21
160.905559237783
 31
0.0
  0
POLYLINE
  5
2F1
  8
0
 66
     1
 10
0.0
 20
0.0
 30
0.0
  0
VERTEX
  5
2F2
  8
0
 10
304.55091559604961
 20
160.905559237783
 30
0.0
 42
0.1614567050058524
  0
VERTEX
  5
2F3
  8
0
 10
304.00532864940612
 20
162.5510915187223
 30
0.0
 42
0.1026604460375691
  0
SEQEND
  5
2F4
  8
0
  0
POLYLINE
  5
2F5
  8
0
 66
     1
 10
0.0
 20
0.0
 30
0.0
  0
VERTEX
  5
2F6
  8
0
 10
354.55091559604978
 20
160.905559237783
 30
0.0
 42
-0.1614567050058524
  0
VERTEX
  5
2F7
  8
0
 10
355.0965025426932
 20
162.5510915187223
 30
0.0
 42
-0.1026604460375691
  0
SEQEND
  5
2F8
  8
0
  0
LINE
  5
2F9
  8
0
 10
354.55091559604978
 20
139.74209436863171
 30
0.0
 11
354.55091559604978
 21
160.905559237783
 31
0.0
  0
POLYLINE
  5
2FA
  8
0
 66
     1
 10
0.0
 20
0.0
 30
0.0
  0
VERTEX
  5
2FB
  8
0
 10
354.73761765970158
 20
138.06160834838741
 30
0.0
 42
-0.0334401135511769
 70
     2
 50
107.02865112504441
  0
VERTEX
  5
2FC
  8
0
 10
354.61863034027732
 20
138.670301823015
 30
0.0
 42
-0.0315580224902655
  0
VERTEX
  5
2FD
  8
0
 10
354.55091559604978
 20
139.74209436863171
 30
0.0
 42
-0.0315580224902739
  0
SEQEND
  5
2FE
  8
0
  0
ARC
  5
2FF
  8
0
 10
311.55091559604972
 20
149.0510915187223
 30
0.0
 40
45.0
 50
339.86626927739269
 51
0.0
  0
LINE
  5
300
  8
0
 10
353.80104536870851
 20
133.56152941408371
 30
0.0
 11
352.05091559604978
 21
132.5510915187223
 31
0.0
  0
ARC
  5
301
  8
0
 10
347.55091559605
 20
149.0510915187223
 30
0.0
 40
8.9999999999996021
 50
0.0000000000000254
 51
29.999999999995541
  0
LINE
  5
302
  8
0
 10
429.55091559604961
 20
166.5510915187223
 30
0.0
 11
429.55091559604961
 21
183.5510915187223
 31
0.0
  0
ARC
  5
303
  8
0
 10
425.55091559604961
 20
183.5510915187223
 30
0.0
 40
4.0
 50
0.0000000000000763
 51
90.000000000000028
  0
ARC
  5
304
  8
0
 10
425.55091559604961
 20
166.5510915187223
 30
0.0
 40
4.0
 50
270.0
 51
0.0000000000000254
  0
LINE
  5
305
  8
0
 10
352.05091559604972
 20
119.0510915187223
 30
0.0
 11
352.05091559604972
 21
132.5510915187223
 31
0.0
  0
ARC
  5
306
  8
0
 10
350.55091559604961
 20
119.0510915187223
 30
0.0
 40
1.5
 50
270.0
 51
0.0000000000000254
  0
LINE
  5
307
  8
0
 10
355.3451442301058
 20
153.5510915187223
 30
0.0
 11
354.55091559604989
 21
153.5510915187223
 31
0.0
  0
LINE
  5
308
  8
1
 10
329.55091559604978
 20
546.48168226225255
 30
0.0
 11
329.55091559604978
 21
718.98168226225266
 31
0.0
  0
LINE
  5
309
  8
0
 10
425.55091559605
 20
658.98168226225278
 30
0.0
 11
233.5509155960498
 21
658.98168226225278
 31
0.0
  0
LINE
  5
30A
  8
2
 10
303.75668696199381
 20
667.98168226225278
 30
0.0
 11
311.07827410686679
 21
667.98168226225278
 31
0.0
  0
ARC
  5
30B
  8
0
 10
308.55091559604978
 20
702.48168226225266
 30
0.0
 40
1.5
 50
90.000000000000014
 51
180.0
  0
LINE
  5
30C
  8
0
 10
307.05091559604978
 20
702.48168226225266
 30
0.0
 11
307.05091559604978
 21
688.98168226225278
 31
0.0
  0
LINE
  5
30D
  8
0
 10
350.55091559604978
 20
703.98168226225266
 30
0.0
 11
308.55091559604978
 21
703.98168226225266
 31
0.0
  0
ARC
  5
30E
  8
0
 10
233.5509155960498
 20
654.98168226225278
 30
0.0
 40
4.0
 50
90.000000000000014
 51
180.0
  0
ARC
  5
30F
  8
0
 10
233.5509155960498
 20
637.98168226225278
 30
0.0
 40
4.0
 50
180.00000000000011
 51
270.00000000000011
  0
LINE
  5
310
  8
0
 10
229.5509155960498
 20
654.98168226225278
 30
0.0
 11
229.5509155960498
 21
637.98168226225278
 31
0.0
  0
LINE
  5
311
  8
0
 10
233.5509155960498
 20
633.98168226225278
 30
0.0
 11
425.55091559604989
 21
633.98168226225278
 31
0.0
  0
ARC
  5
312
  8
2
 10
311.55091559604949
 20
672.48168226225278
 30
0.0
 40
8.9999999999996021
 50
180.0
 51
209.99999999999559
  0
LINE
  5
313
  8
0
 10
305.3007858233911
 20
687.97124436689126
 30
0.0
 11
307.05091559604978
 21
688.98168226225278
 31
0.0
  0
LINE
  5
314
  8
0
 10
340.5509155960504
 20
558.02391321619371
 30
0.0
 11
318.55091559604898
 21
558.02391321619371
 31
0.0
  0
LINE
  5
315
  8
0
 10
340.5509155960504
 20
606.48168226225278
 30
0.0
 11
318.55091559604898
 21
606.48168226225278
 31
0.0
  0
LINE
  5
316
  8
0
 10
320.05091559604909
 20
633.48168226225255
 30
0.0
 11
339.05091559605052
 21
633.48168226225403
 31
0.0
  0
LINE
  5
317
  8
0
 10
339.05091559604909
 20
633.48168226225255
 30
0.0
 11
339.05091559604909
 21
633.48168226225255
 31
0.0
  0
LINE
  5
318
  8
0
 10
339.55091559604921
 20
633.98168226225255
 30
0.0
 11
339.05091559604909
 21
633.48168226225255
 31
0.0
  0
LINE
  5
319
  8
0
 10
318.55091559604898
 20
606.48168226225278
 30
0.0
 11
319.47105147477498
 21
628.56494335167713
 31
0.0
  0
ARC
  5
31A
  8
0
 10
321.46931762095983
 20
628.48168226225255
 30
0.0
 40
2.0
 50
90.000000000000014
 51
177.61405596961129
  0
LINE
  5
31B
  8
0
 10
320.05091559604909
 20
633.48168226225255
 30
0.0
 11
320.05091559604909
 21
630.48168226225266
 31
0.0
  0
LINE
  5
31C
  8
0
 10
320.05091559604909
 20
630.48168226225266
 30
0.0
 11
339.05091559605052
 21
630.48168226225266
 31
0.0
  0
LINE
  5
31D
  8
0
 10
339.05091559605052
 20
633.48168226225255
 30
0.0
 11
339.05091559605052
 21
630.48168226225266
 31
0.0
  0
ARC
  5
31E
  8
0
 10
337.63251357113973
 20
628.48168226225255
 30
0.0
 40
2.0
 50
2.3859440303887598
 51
90.000000000000014
  0
LINE
  5
31F
  8
0
 10
340.5509155960504
 20
606.48168226225278
 30
0.0
 11
339.6307797173244
 21
628.56494335167713
 31
0.0
  0
LINE
  5
320
  8
0
 10
318.5509155960504
 20
606.48168226225255
 30
0.0
 11
318.5509155960504
 21
558.02391321619371
 31
0.0
  0
LINE
  5
321
  8
0
 10
340.5509155960504
 20
606.48168226225255
 30
0.0
 11
340.55091559605052
 21
558.02391321619405
 31
0.0
  0
ARC
  5
322
  8
0
 10
329.55091559604972
 20
596.48168226225255
 30
0.0
 40
40.0
 50
254.0379858371538
 51
285.96201416284828
  0
ARC
  5
323
  8
0
 10
347.55091559604978
 20
672.48168226225278
 30
0.0
 40
45.0
 50
159.86626927739269
 51
165.0228052347872
  0
LINE
  5
324
  8
0
 10
305.30078582339041
 20
687.97124436689091
 30
0.0
 11
353.80104536870971
 21
687.97124436689069
 31
0.0
  0
LINE
  5
325
  8
0
 10
352.05091559604978
 20
688.98168226225278
 30
0.0
 11
307.05091559604978
 21
688.98168226225278
 31
0.0
  0
LINE
  5
326
  8
0
 10
319.55091559605052
 20
633.98168226225255
 30
0.0
 11
320.05091559605052
 21
633.48168226225255
 31
0.0
  0
LINE
  5
327
  8
0
 10
293.65048849507372
 20
658.98168226225278
 30
0.0
 11
313.861810655684
 21
669.41914709555897
 31
0.0
  0
LINE
  5
328
  8
0
 10
318.66757069627101
 20
683.33371602618945
 30
0.0
 11
272.38250145303988
 21
658.98168226225278
 31
0.0
  0
LINE
  5
329
  8
0
 10
301.337926637978
 20
680.49752850860432
 30
0.0
 11
264.96030944762151
 21
658.98168226225278
 31
0.0
  0
ARC
  5
32A
  8
0
 10
298.28344849973382
 20
685.66184485280598
 30
0.0
 40
6.0
 50
300.60254776108093
 51
345.02280523478697
  0
ARC
  5
32B
  8
2
 10
347.55091559604978
 20
672.48168226225278
 30
0.0
 40
45.0
 50
165.0228052347872
 51
180.0
  0
LINE
  5
32C
  8
0
 10
311.07827410686679
 20
667.98168226225278
 30
0.0
 11
355.3451442301112
 21
667.98168226225278
 31
0.0
  0
ARC
  5
32D
  8
0
 10
314.77950017254949
 20
667.64211418910099
 30
0.0
 40
2.0
 50
9.7752627286703291
 51
117.3125869679196
  0
ARC
  5
32E
  8
0
 10
315.87385834332201
 20
688.64362857622075
 30
0.0
 40
6.0
 50
297.75027225079418
 51
315.02297156441188
  0
ARC
  5
32F
  8
0
 10
343.22797284877771
 20
688.64362857622075
 30
0.0
 40
6.0
 50
224.9770284355881
 51
242.24972774920579
  0
ARC
  5
330
  8
0
 10
344.32233101955018
 20
667.64211418910099
 30
0.0
 40
2.0
 50
62.68741303208045
 51
170.22473727132959
  0
ARC
  5
331
  8
2
 10
311.55091559604989
 20
672.48168226225278
 30
0.0
 40
45.0
 50
360.0
 51
14.977194765212801
  0
ARC
  5
332
  8
0
 10
360.8183826923659
 20
685.66184485280598
 30
0.0
 40
6.0
 50
194.977194765213
 51
239.3974522389191
  0
LINE
  5
333
  8
0
 10
357.76390455412172
 20
680.49752850860432
 30
0.0
 11
394.14152174447821
 21
658.98168226225278
 31
0.0
  0
LINE
  5
334
  8
0
 10
340.43426049582871
 20
683.33371602618945
 30
0.0
 11
386.71932973905979
 21
658.98168226225278
 31
0.0
  0
LINE
  5
335
  8
0
 10
365.45134269702601
 20
658.98168226225278
 30
0.0
 11
345.24002053641573
 21
669.41914709555897
 31
0.0
  0
ARC
  5
336
  8
0
 10
311.55091559604989
 20
672.48168226225278
 30
0.0
 40
45.0
 50
14.97719476521285
 51
20.133730722607289
  0
LINE
  5
337
  8
0
 10
353.80104536870863
 20
687.97124436689126
 30
0.0
 11
352.05091559604978
 21
688.98168226225278
 31
0.0
  0
ARC
  5
338
  8
2
 10
347.55091559605017
 20
672.48168226225278
 30
0.0
 40
8.9999999999996021
 50
330.00000000000438
 51
360.0
  0
LINE
  5
339
  8
0
 10
352.05091559604978
 20
702.48168226225266
 30
0.0
 11
352.05091559604978
 21
688.98168226225278
 31
0.0
  0
ARC
  5
33A
  8
0
 10
350.55091559604978
 20
702.48168226225266
 30
0.0
 40
1.5
 50
360.0
 51
90.000000000000014
  0
LINE
  5
33B
  8
2
 10
355.34514423010592
 20
667.98168226225278
 30
0.0
 11
348.02355708523288
 21
667.98168226225278
 31
0.0
  0
LINE
  5
33C
  8
0
 10
429.55091559604978
 20
654.98168226225278
 30
0.0
 11
429.55091559604978
 21
637.98168226225278
 31
0.0
  0
ARC
  5
33D
  8
0
 10
425.55091559604978
 20
637.98168226225278
 30
0.0
 40
4.0
 50
270.0
 51
360.0
  0
ARC
  5
33E
  8
0
 10
425.55091559604978
 20
654.98168226225278
 30
0.0
 40
4.0
 50
360.0
 51
90.000000000000014
  0
POLYLINE
  5
33F
  8
0
 66
     1
 10
0.0
 20
0.0
 30
0.0
  0
VERTEX
  5
340
  8
0
 10
354.55091559605
 20
660.62721454319217
 30
0.0
 42
0.1614567050058524
  0
VERTEX
  5
341
  8
0
 10
355.09650254269337
 20
658.98168226225289
 30
0.0
 42
0.1026604460375691
  0
SEQEND
  5
342
  8
0
  0
POLYLINE
  5
343
  8
0
 66
     1
 10
0.0
 20
0.0
 30
0.0
  0
VERTEX
  5
344
  8
0
 10
304.55091559604972
 20
660.62721454319217
 30
0.0
 42
-0.1614567050058524
  0
VERTEX
  5
345
  8
0
 10
304.00532864940629
 20
658.98168226225289
 30
0.0
 42
-0.1026604460375691
  0
SEQEND
  5
346
  8
0
  0
LINE
  5
347
  8
0
 10
304.55091559604972
 20
664.61084514582649
 30
0.0
 11
304.55091559604972
 21
660.62721454319217
 31
0.0
  0
LINE
  5
348
  8
0
 10
354.55091559605
 20
664.61084514582649
 30
0.0
 11
354.55091559605
 21
660.62721454319217
 31
0.0
  0
LINE
  5
349
  8
0
 10
338.4985724179752
 20
662.98168226225278
 30
0.0
 11
320.60325877412441
 21
662.98168226225278
 31
0.0
  0
LINE
  5
34A
  8
0
 10
315.92048553703091
 20
660.07733821503746
 30
0.0
 11
318.72917363146121
 21
662.32428869058185
 31
0.0
  0
LINE
  5
34B
  8
0
 10
343.18134565506881
 20
660.07733821503746
 30
0.0
 11
340.37265756063852
 21
662.32428869058185
 31
0.0
  0
ARC
  5
34C
  8
0
 10
338.4985724179752
 20
659.98168226225278
 30
0.0
 40
3.0
 50
51.340191745909628
 51
89.999999999999957
  0
ARC
  5
34D
  8
0
 10
320.60325877412441
 20
659.98168226225278
 30
0.0
 40
3.0
 50
90.000000000000014
 51
128.65980825409039
  0
ARC
  5
34E
  8
0
 10
346.30482089284112
 20
663.98168226225278
 30
0.0
 40
5.0
 50
231.34019174590969
 51
270.0
  0
ARC
  5
34F
  8
0
 10
312.79701029925872
 20
663.98168226225278
 30
0.0
 40
5.0
 50
270.0
 51
308.65980825409019
  0
LINE
  5
350
  8
0
 10
293.6504884950736
 20
162.5510915187223
 30
0.0
 11
304.55091559604961
 21
156.92192863514859
 31
0.0
  0
LINE
  5
351
  8
0
 10
303.5243035067744
 20
139.74209436863109
 30
0.0
 11
264.96030944762128
 21
162.5510915187223
 31
0.0
  0
LINE
  5
352
  8
0
 10
355.57752768532521
 20
139.7420943686312
 30
0.0
 11
394.1415217444781
 21
162.5510915187223
 31
0.0
  0
LINE
  5
353
  8
0
 10
365.45134269702578
 20
162.5510915187223
 30
0.0
 11
354.55091559604978
 21
156.92192863514859
 31
0.0
  0
LINE
  5
354
  8
0
 10
356.3305144598221
 20
151.030647981995
 30
0.0
 11
378.01938164408
 21
162.5510915187223
 31
0.0
  0
LINE
  5
355
  8
0
 10
302.77131673227848
 20
151.03064798199441
 30
0.0
 11
281.08244954801933
 21
162.5510915187223
 31
0.0
  0
ARC
  5
356
  8
0
 10
583.69517910715911
 20
663.98168226225278
 30
0.0
 40
5.0
 50
270.0
 51
308.65980825409019
  0
ARC
  5
357
  8
0
 10
617.20298970074145
 20
663.98168226225278
 30
0.0
 40
5.0
 50
231.34019174590969
 51
270.0
  0
ARC
  5
358
  8
0
 10
591.50142758202469
 20
659.98168226225278
 30
0.0
 40
3.0
 50
90.000000000000014
 51
128.65980825409039
  0
ARC
  5
359
  8
0
 10
609.39674122587564
 20
659.98168226225278
 30
0.0
 40
3.0
 50
51.340191745909628
 51
89.999999999999957
  0
LINE
  5
35A
  8
0
 10
614.0795144629692
 20
660.07733821503746
 30
0.0
 11
611.27082636853891
 21
662.32428869058185
 31
0.0
  0
LINE
  5
35B
  8
0
 10
586.81865434493125
 20
660.07733821503746
 30
0.0
 11
589.62734243936154
 21
662.32428869058185
 31
0.0
  0
LINE
  5
35C
  8
0
 10
609.39674122587564
 20
662.98168226225278
 30
0.0
 11
591.50142758202469
 21
662.98168226225278
 31
0.0
  0
LINE
  5
35D
  8
0
 10
625.44908440395034
 20
664.61084514582649
 30
0.0
 11
625.44908440395034
 21
660.62721454319217
 31
0.0
  0
LINE
  5
35E
  8
0
 10
575.44908440395011
 20
664.61084514582649
 30
0.0
 11
575.44908440395011
 21
660.62721454319217
 31
0.0
  0
POLYLINE
  5
35F
  8
0
 66
     1
 10
0.0
 20
0.0
 30
0.0
  0
VERTEX
  5
360
  8
0
 10
575.44908440395011
 20
660.62721454319217
 30
0.0
 42
-0.1614567050058524
  0
VERTEX
  5
361
  8
0
 10
574.90349745730657
 20
658.98168226225289
 30
0.0
 42
-0.1026604460375691
  0
SEQEND
  5
362
  8
0
  0
POLYLINE
  5
363
  8
0
 66
     1
 10
0.0
 20
0.0
 30
0.0
  0
VERTEX
  5
364
  8
0
 10
625.44908440395034
 20
660.62721454319217
 30
0.0
 42
0.1614567050058524
  0
VERTEX
  5
365
  8
0
 10
625.99467135059376
 20
658.98168226225289
 30
0.0
 42
0.1026604460375691
  0
SEQEND
  5
366
  8
0
  0
ARC
  5
367
  8
0
 10
696.44908440395022
 20
654.98168226225278
 30
0.0
 40
4.0
 50
360.0
 51
90.000000000000014
  0
ARC
  5
368
  8
0
 10
696.44908440395022
 20
637.98168226225278
 30
0.0
 40
4.0
 50
270.0
 51
360.0
  0
LINE
  5
369
  8
0
 10
700.44908440395011
 20
654.98168226225278
 30
0.0
 11
700.44908440395011
 21
637.98168226225278
 31
0.0
  0
LINE
  5
36A
  8
2
 10
626.24331303800625
 20
667.98168226225278
 30
0.0
 11
618.92172589313316
 21
667.98168226225278
 31
0.0
  0
ARC
  5
36B
  8
0
 10
621.44908440395022
 20
702.48168226225266
 30
0.0
 40
1.5
 50
360.0
 51
90.000000000000014
  0
LINE
  5
36C
  8
0
 10
622.94908440395022
 20
702.48168226225266
 30
0.0
 11
622.94908440395022
 21
688.98168226225278
 31
0.0
  0
ARC
  5
36D
  8
2
 10
618.44908440395056
 20
672.48168226225278
 30
0.0
 40
8.9999999999996021
 50
330.00000000000438
 51
360.0
  0
LINE
  5
36E
  8
0
 10
624.69921417660896
 20
687.97124436689126
 30
0.0
 11
622.94908440395022
 21
688.98168226225278
 31
0.0
  0
ARC
  5
36F
  8
0
 10
582.44908440395022
 20
672.48168226225278
 30
0.0
 40
45.0
 50
14.97719476521285
 51
20.133730722607289
  0
LINE
  5
370
  8
0
 10
636.34951150492634
 20
658.98168226225278
 30
0.0
 11
616.13818934431595
 21
669.41914709555897
 31
0.0
  0
LINE
  5
371
  8
0
 10
611.33242930372899
 20
683.33371602618945
 30
0.0
 11
657.61749854696006
 21
658.98168226225278
 31
0.0
  0
LINE
  5
372
  8
0
 10
628.66207336202206
 20
680.49752850860432
 30
0.0
 11
665.0396905523786
 21
658.98168226225278
 31
0.0
  0
ARC
  5
373
  8
0
 10
631.71655150026618
 20
685.66184485280598
 30
0.0
 40
6.0
 50
194.977194765213
 51
239.3974522389191
  0
ARC
  5
374
  8
2
 10
582.44908440395022
 20
672.48168226225278
 30
0.0
 40
45.0
 50
360.0
 51
14.977194765212801
  0
ARC
  5
375
  8
0
 10
615.22049982745045
 20
667.64211418910099
 30
0.0
 40
2.0
 50
62.68741303208045
 51
170.22473727132959
  0
ARC
  5
376
  8
0
 10
614.1261416566781
 20
688.64362857622075
 30
0.0
 40
6.0
 50
224.9770284355881
 51
242.24972774920579
  0
ARC
  5
377
  8
0
 10
586.77202715122235
 20
688.64362857622075
 30
0.0
 40
6.0
 50
297.75027225079418
 51
315.02297156441188
  0
ARC
  5
378
  8
0
 10
585.67766898044977
 20
667.64211418910099
 30
0.0
 40
2.0
 50
9.7752627286703291
 51
117.3125869679196
  0
LINE
  5
379
  8
0
 10
581.97644291476718
 20
667.98168226225278
 30
0.0
 11
626.24331303801159
 21
667.98168226225278
 31
0.0
  0
ARC
  5
37A
  8
2
 10
618.44908440395022
 20
672.48168226225278
 30
0.0
 40
45.0
 50
165.0228052347872
 51
180.0
  0
ARC
  5
37B
  8
0
 10
569.18161730763416
 20
685.66184485280598
 30
0.0
 40
6.0
 50
300.60254776108093
 51
345.02280523478697
  0
LINE
  5
37C
  8
0
 10
572.23609544587839
 20
680.49752850860432
 30
0.0
 11
535.85847825552185
 21
658.98168226225278
 31
0.0
  0
LINE
  5
37D
  8
0
 10
589.56573950417135
 20
683.33371602618945
 30
0.0
 11
543.28067026094016
 21
658.98168226225278
 31
0.0
  0
LINE
  5
37E
  8
0
 10
564.54865730297399
 20
658.98168226225278
 30
0.0
 11
584.75997946358439
 21
669.41914709555897
 31
0.0
  0
LINE
  5
37F
  8
0
 10
590.44908440395091
 20
633.98168226225255
 30
0.0
 11
590.94908440395091
 21
633.48168226225255
 31
0.0
  0
LINE
  5
380
  8
0
 10
622.94908440395022
 20
688.98168226225278
 30
0.0
 11
577.94908440395022
 21
688.98168226225278
 31
0.0
  0
LINE
  5
381
  8
0
 10
576.1989546312908
 20
687.97124436689091
 30
0.0
 11
624.69921417660998
 21
687.97124436689069
 31
0.0
  0
ARC
  5
382
  8
0
 10
618.44908440395022
 20
672.48168226225278
 30
0.0
 40
45.0
 50
159.86626927739269
 51
165.0228052347872
  0
LINE
  5
383
  8
0
 10
610.44908440394954
 20
633.98168226225255
 30
0.0
 11
609.94908440394954
 21
633.48168226225255
 31
0.0
  0
LINE
  5
384
  8
0
 10
609.94908440394954
 20
633.48168226225255
 30
0.0
 11
609.94908440394954
 21
633.48168226225255
 31
0.0
  0
LINE
  5
385
  8
0
 10
590.94908440394943
 20
633.48168226225255
 30
0.0
 11
609.94908440395079
 21
633.48168226225403
 31
0.0
  0
LINE
  5
386
  8
0
 10
576.19895463129137
 20
687.97124436689126
 30
0.0
 11
577.94908440395022
 21
688.98168226225278
 31
0.0
  0
ARC
  5
387
  8
2
 10
582.44908440394977
 20
672.48168226225278
 30
0.0
 40
8.9999999999996021
 50
180.0
 51
209.99999999999559
  0
LINE
  5
388
  8
0
 10
504.44908440395011
 20
633.98168226225278
 30
0.0
 11
696.44908440395034
 21
633.98168226225278
 31
0.0
  0
LINE
  5
389
  8
0
 10
500.44908440395011
 20
654.98168226225278
 30
0.0
 11
500.44908440395011
 21
637.98168226225278
 31
0.0
  0
ARC
  5
38A
  8
0
 10
504.44908440395011
 20
637.98168226225278
 30
0.0
 40
4.0
 50
180.00000000000011
 51
270.00000000000011
  0
ARC
  5
38B
  8
0
 10
504.44908440395011
 20
654.98168226225278
 30
0.0
 40
4.0
 50
90.000000000000014
 51
180.0
  0
LINE
  5
38C
  8
0
 10
621.44908440395022
 20
703.98168226225266
 30
0.0
 11
579.44908440395011
 21
703.98168226225266
 31
0.0
  0
LINE
  5
38D
  8
0
 10
577.94908440395022
 20
702.48168226225266
 30
0.0
 11
577.94908440395022
 21
688.98168226225278
 31
0.0
  0
ARC
  5
38E
  8
0
 10
579.44908440395011
 20
702.48168226225266
 30
0.0
 40
1.5
 50
90.000000000000014
 51
180.0
  0
LINE
  5
38F
  8
2
 10
574.65485576989408
 20
667.98168226225278
 30
0.0
 11
581.97644291476718
 21
667.98168226225278
 31
0.0
  0
LINE
  5
390
  8
0
 10
696.44908440395045
 20
658.98168226225278
 30
0.0
 11
504.44908440395011
 21
658.98168226225278
 31
0.0
  0
LINE
  5
391
  8
1
 10
600.44908440395011
 20
621.48168226225278
 30
0.0
 11
600.44908440395011
 21
718.98168226225266
 31
0.0
  0
LINE
  5
392
  8
0
 10
573.66948554017881
 20
151.03064798199441
 30
0.0
 11
551.98061835591955
 21
162.5510915187223
 31
0.0
  0
LINE
  5
393
  8
0
 10
627.22868326772243
 20
151.030647981995
 30
0.0
 11
648.91755045198045
 21
162.5510915187223
 31
0.0
  0
LINE
  5
394
  8
0
 10
636.34951150492611
 20
162.5510915187223
 30
0.0
 11
625.44908440395011
 21
156.92192863514859
 31
0.0
  0
LINE
  5
395
  8
0
 10
626.47569649322554
 20
139.7420943686312
 30
0.0
 11
665.03969055237837
 21
162.5510915187223
 31
0.0
  0
LINE
  5
396
  8
0
 10
574.42247231467456
 20
139.74209436863109
 30
0.0
 11
535.85847825552173
 21
162.5510915187223
 31
0.0
  0
LINE
  5
397
  8
0
 10
564.54865730297388
 20
162.5510915187223
 30
0.0
 11
575.44908440394988
 21
156.92192863514859
 31
0.0
  0
LINE
  5
398
  8
0
 10
626.24331303800614
 20
153.5510915187223
 30
0.0
 11
625.44908440395034
 21
153.5510915187223
 31
0.0
  0
ARC
  5
399
  8
0
 10
621.44908440395011
 20
119.0510915187223
 30
0.0
 40
1.5
 50
270.0
 51
0.0000000000000254
  0
LINE
  5
39A
  8
0
 10
622.94908440395011
 20
119.0510915187223
 30
0.0
 11
622.94908440395011
 21
132.5510915187223
 31
0.0
  0
ARC
  5
39B
  8
0
 10
696.44908440395011
 20
166.5510915187223
 30
0.0
 40
4.0
 50
270.0
 51
0.0000000000000254
  0
ARC
  5
39C
  8
0
 10
696.44908440395011
 20
183.5510915187223
 30
0.0
 40
4.0
 50
0.0000000000000763
 51
90.000000000000028
  0
LINE
  5
39D
  8
0
 10
700.44908440395011
 20
166.5510915187223
 30
0.0
 11
700.44908440395011
 21
183.5510915187223
 31
0.0
  0
ARC
  5
39E
  8
0
 10
618.44908440395034
 20
149.0510915187223
 30
0.0
 40
8.9999999999996021
 50
0.0000000000000254
 51
29.999999999995541
  0
LINE
  5
39F
  8
0
 10
624.69921417660885
 20
133.56152941408371
 30
0.0
 11
622.94908440395011
 21
132.5510915187223
 31
0.0
  0
ARC
  5
3A0
  8
0
 10
582.44908440395011
 20
149.0510915187223
 30
0.0
 40
45.0
 50
339.86626927739269
 51
0.0
  0
POLYLINE
  5
3A1
  8
0
 66
     1
 10
0.0
 20
0.0
 30
0.0
  0
VERTEX
  5
3A2
  8
0
 10
625.63578646760197
 20
138.06160834838741
 30
0.0
 42
-0.0334401135511769
 70
     2
 50
107.02865112504441
  0
VERTEX
  5
3A3
  8
0
 10
625.51679914817748
 20
138.670301823015
 30
0.0
 42
-0.0315580224902655
  0
VERTEX
  5
3A4
  8
0
 10
625.44908440395011
 20
139.74209436863171
 30
0.0
 42
-0.0315580224902739
  0
SEQEND
  5
3A5
  8
0
  0
LINE
  5
3A6
  8
0
 10
625.44908440395011
 20
139.74209436863171
 30
0.0
 11
625.44908440395011
 21
160.905559237783
 31
0.0
  0
POLYLINE
  5
3A7
  8
0
 66
     1
 10
0.0
 20
0.0
 30
0.0
  0
VERTEX
  5
3A8
  8
0
 10
625.44908440395011
 20
160.905559237783
 30
0.0
 42
-0.1614567050058524
  0
VERTEX
  5
3A9
  8
0
 10
625.99467135059353
 20
162.5510915187223
 30
0.0
 42
-0.1026604460375691
  0
SEQEND
  5
3AA
  8
0
  0
POLYLINE
  5
3AB
  8
0
 66
     1
 10
0.0
 20
0.0
 30
0.0
  0
VERTEX
  5
3AC
  8
0
 10
575.44908440394988
 20
160.905559237783
 30
0.0
 42
0.1614567050058524
  0
VERTEX
  5
3AD
  8
0
 10
574.90349745730634
 20
162.5510915187223
 30
0.0
 42
0.1026604460375691
  0
SEQEND
  5
3AE
  8
0
  0
LINE
  5
3AF
  8
0
 10
575.44908440394988
 20
139.74209436863171
 30
0.0
 11
575.44908440394988
 21
160.905559237783
 31
0.0
  0
POLYLINE
  5
3B0
  8
0
 66
     1
 10
0.0
 20
0.0
 30
0.0
  0
VERTEX
  5
3B1
  8
0
 10
575.26238234029802
 20
138.06160834838741
 30
0.0
 42
0.0334401135511769
 70
     2
 50
72.971348874955595
  0
VERTEX
  5
3B2
  8
0
 10
575.3813696597224
 20
138.670301823015
 30
0.0
 42
0.0315580224902655
  0
VERTEX
  5
3B3
  8
0
 10
575.44908440394988
 20
139.74209436863171
 30
0.0
 42
0.0315580224902739
  0
SEQEND
  5
3B4
  8
0
  0
LINE
  5
3B5
  8
2
 10
625.44908440395011
 20
153.5510915187223
 30
0.0
 11
575.44908440394966
 21
153.5510915187219
 31
0.0
  0
LINE
  5
3B6
  8
0
 10
590.44908440395068
 20
187.55109151872239
 30
0.0
 11
590.94908440395079
 21
188.05109151872239
 31
0.0
  0
LINE
  5
3B7
  8
0
 10
622.94908440394977
 20
132.5510915187223
 30
0.0
 11
577.94908440395011
 21
132.5510915187223
 31
0.0
  0
LINE
  5
3B8
  8
0
 10
576.19895463129035
 20
133.56152941408419
 30
0.0
 11
624.69921417660976
 21
133.56152941408439
 31
0.0
  0
ARC
  5
3B9
  8
0
 10
618.44908440395011
 20
149.0510915187223
 30
0.0
 40
45.0
 50
180.0
 51
200.13373072260731
  0
LINE
  5
3BA
  8
0
 10
610.44908440394909
 20
187.55109151872239
 30
0.0
 11
609.94908440394909
 21
188.05109151872239
 31
0.0
  0
LINE
  5
3BB
  8
0
 10
609.94908440394909
 20
188.05109151872239
 30
0.0
 11
609.94908440394909
 21
188.05109151872239
 31
0.0
  0
LINE
  5
3BC
  8
0
 10
590.9490844039492
 20
188.05109151872239
 30
0.0
 11
594.12452908360478
 21
188.0510915187221
 31
0.0
  0
LINE
  5
3BD
  8
0
 10
576.19895463129114
 20
133.56152941408371
 30
0.0
 11
577.94908440394977
 21
132.5510915187223
 31
0.0
  0
ARC
  5
3BE
  8
0
 10
582.44908440394966
 20
149.0510915187223
 30
0.0
 40
8.9999999999996021
 50
150.00000000000441
 51
180.0
  0
LINE
  5
3BF
  8
0
 10
504.44908440395
 20
187.5510915187223
 30
0.0
 11
696.44908440395011
 21
187.5510915187223
 31
0.0
  0
LINE
  5
3C0
  8
0
 10
500.44908440395011
 20
166.5510915187223
 30
0.0
 11
500.44908440395011
 21
183.5510915187223
 31
0.0
  0
ARC
  5
3C1
  8
0
 10
504.44908440395
 20
183.5510915187223
 30
0.0
 40
4.0
 50
89.999999999999986
 51
179.99999999999989
  0
ARC
  5
3C2
  8
0
 10
504.44908440395
 20
166.5510915187223
 30
0.0
 40
4.0
 50
180.0
 51
270.0
  0
LINE
  5
3C3
  8
0
 10
621.44908440395011
 20
117.5510915187223
 30
0.0
 11
579.44908440395011
 21
117.5510915187223
 31
0.0
  0
LINE
  5
3C4
  8
0
 10
577.94908440395011
 20
119.0510915187223
 30
0.0
 11
577.94908440395011
 21
132.5510915187223
 31
0.0
  0
ARC
  5
3C5
  8
0
 10
579.44908440395011
 20
119.0510915187223
 30
0.0
 40
1.5
 50
180.0
 51
270.0
  0
LINE
  5
3C6
  8
0
 10
574.65485576989386
 20
153.5510915187223
 30
0.0
 11
575.44908440394988
 21
153.5510915187223
 31
0.0
  0
LINE
  5
3C7
  8
0
 10
696.44908440395022
 20
162.5510915187223
 30
0.0
 11
504.44908440395
 21
162.5510915187223
 31
0.0
  0
LINE
  5
3C8
  8
1
 10
600.44908440395
 20
200.05109151872369
 30
0.0
 11
600.44908440395011
 21
102.5510915187223
 31
0.0
  0
ARC
  5
3C9
  8
2
 10
600.44908440395
 20
179.0510915187223
 30
0.0
 40
11.0000000000017
 50
129.40056875375461
 51
50.5994312462458
  0
ARC
  5
3CA
  8
0
 10
600.44908440395
 20
179.0510915187223
 30
0.0
 40
11.0000000000017
 50
50.5994312462458
 51
129.40056875375461
  0
LINE
  5
3CB
  8
0
 10
606.77363972429669
 20
188.05109151872119
 30
0.0
 11
609.94908440395056
 21
188.05109151872099
 31
0.0
  0
LINE
  5
3CC
  8
1
 10
621.4490844039517
 20
179.0510915187223
 30
0.0
 11
579.44908440394829
 21
179.0510915187223
 31
0.0
  0
ARC
  5
3CD
  8
2
 10
600.44908440395011
 20
642.48168226225278
 30
0.0
 40
11.0
 50
305.09680122761011
 51
234.90319877239841
  0
ARC
  5
3CE
  8
0
 10
600.44908440395011
 20
642.48168226225278
 30
0.0
 40
11.0
 50
234.90319877239841
 51
305.09680122761011
  0
LINE
  5
3CF
  8
1
 10
621.44908440395022
 20
642.48168226225278
 30
0.0
 11
579.44908440395011
 21
642.48168226225278
 31
0.0
  0
ARC
  5
3D0
  8
0
 10
600.44908440395011
 20
642.48168226225278
 30
0.0
 40
9.4999999999998863
 50
251.32828193594031
 51
288.67171806406782
  0
CIRCLE
  5
3D1
  8
0
 10
983.97895991027815
 20
410.76638689048758
 30
0.0
 40
24.921093002076422
  0
ARC
  5
3D2
  8
0
 10
899.08710484805135
 20
398.03061115117708
 30
0.0
 40
3.8418722977784361
 50
295.45466871490919
 51
82.294777172685514
  0
POLYLINE
  5
3D3
  8
0
 66
     1
 10
0.0
 20
0.0
 30
0.0
  0
VERTEX
  5
3D4
  8
0
 10
900.73832947722894
 20
394.56168624906348
 30
0.0
 42
0.0385375788199559
  0
VERTEX
  5
3D5
  8
0
 10
898.61290974830058
 20
393.34106459322152
 30
0.0
 42
0.0858577042405944
  0
VERTEX
  5
3D6
  8
0
 10
895.58399622518755
 20
390.40614989473562
 30
0.0
 42
0.1060481969950755
 70
     2
 50
233.9115072569856
  0
VERTEX
  5
3D7
  8
0
 10
893.93357314892933
 20
386.6960180697061
 30
0.0
 42
0.1266598135587198
  0
VERTEX
  5
3D8
  8
0
 10
894.08631284975229
 20
383.28344664655032
 30
0.0
 42
0.1266598135587178
  0
SEQEND
  5
3D9
  8
0
  0
POLYLINE
  5
3DA
  8
0
 66
     1
 10
0.0
 20
0.0
 30
0.0
  0
VERTEX
  5
3DB
  8
0
 10
889.97895991027758
 20
410.76638689048758
 30
0.0
 42
0.1266598135587178
  0
VERTEX
  5
3DC
  8
0
 10
890.83063353243244
 20
407.4582718417517
 30
0.0
 42
0.1060481969950741
  0
VERTEX
  5
3DD
  8
0
 10
893.49367853603917
 20
404.39279214054551
 30
0.0
 42
0.0858577042406053
 70
     2
 50
323.08849274301451
  0
VERTEX
  5
3DE
  8
0
 10
897.63551577496139
 20
402.27357987559458
 30
0.0
 42
0.0418131052509376
  0
VERTEX
  5
3DF
  8
0
 10
899.60220971011142
 20
401.83779511489399
 30
0.0
 42
0.0077893988732914
  0
SEQEND
  5
3E0
  8
0
  0
ARC
  5
3E1
  8
0
 10
899.07289470787748
 20
423.40708036172498
 30
0.0
 40
3.8418722977784361
 50
278.45466871490919
 51
351.53209879228882
  0
POLYLINE
  5
3E2
  8
0
 66
     1
 10
0.0
 20
0.0
 30
0.0
  0
VERTEX
  5
3E3
  8
0
 10
899.63775318673754
 20
419.60695962004451
 30
0.0
 42
0.0385375788199716
  0
VERTEX
  5
3E4
  8
0
 10
897.24832895720522
 20
419.06108591472719
 30
0.0
 42
0.0858577042405944
  0
VERTEX
  5
3E5
  8
0
 10
893.49367853603917
 20
417.13998164042971
 30
0.0
 42
0.1060481969950755
 70
     2
 50
216.9115072569856
  0
VERTEX
  5
3E6
  8
0
 10
890.83063353243244
 20
414.07450193922341
 30
0.0
 42
0.1266598135587198
  0
VERTEX
  5
3E7
  8
0
 10
889.97895991027758
 20
410.76638689048758
 30
0.0
 42
0.1266598135587178
  0
SEQEND
  5
3E8
  8
0
  0
ARC
  5
3E9
  8
0
 10
906.52005563561465
 20
373.76712759848772
 30
0.0
 40
3.8418722977784361
 50
312.45466871490919
 51
99.294777172685514
  0
ARC
  5
3EA
  8
0
 10
920.72217787341265
 20
352.73702737370002
 30
0.0
 40
3.8418722977784361
 50
329.45466871490919
 51
116.2947771726855
  0
ARC
  5
3EB
  8
0
 10
940.45234116739834
 20
336.77814119970179
 30
0.0
 40
3.8418722977784361
 50
59.53207742379039
 51
133.29477717268551
  0
POLYLINE
  5
3EC
  8
0
 66
     1
 10
0.0
 20
0.0
 30
0.0
  0
VERTEX
  5
3ED
  8
0
 10
894.08631284975229
 20
383.28344664655032
 30
0.0
 42
0.1266598135587178
  0
VERTEX
  5
3EE
  8
0
 10
895.86797162136497
 20
380.3688857609481
 30
0.0
 42
0.1060481969950741
  0
VERTEX
  5
3EF
  8
0
 10
899.31091374969242
 20
378.21595195083432
 30
0.0
 42
0.0858577042406053
 70
     2
 50
340.08849274301451
  0
VERTEX
  5
3F0
  8
0
 10
903.89137010227137
 20
377.4002951971944
 30
0.0
 42
0.0418131052510068
  0
VERTEX
  5
3F1
  8
0
 10
905.8995399993612
 20
377.5585578164397
 30
0.0
 42
0.0077893988732914
  0
SEQEND
  5
3F2
  8
0
  0
POLYLINE
  5
3F3
  8
0
 66
     1
 10
0.0
 20
0.0
 30
0.0
  0
VERTEX
  5
3F4
  8
0
 10
909.11334508884363
 20
370.93254957623668
 30
0.0
 42
0.0385375788199951
  0
VERTEX
  5
3F5
  8
0
 10
907.43767132799474
 20
369.14385069211932
 30
0.0
 42
0.0858577042405944
  0
VERTEX
  5
3F6
  8
0
 10
905.39919293405308
 20
365.45160919740113
 30
0.0
 42
0.1060481969950755
 70
     2
 50
250.9115072569856
  0
VERTEX
  5
3F7
  8
0
 10
904.90562306330605
 20
361.42105547955612
 30
0.0
 42
0.1266598135587198
  0
VERTEX
  5
3F8
  8
0
 10
906.0494280901039
 20
358.20225396423717
 30
0.0
 42
0.1266598135587178
  0
SEQEND
  5
3F9
  8
0
  0
POLYLINE
  5
3FA
  8
0
 66
     1
 10
0.0
 20
0.0
 30
0.0
  0
VERTEX
  5
3FB
  8
0
 10
906.0494280901039
 20
358.20225396423717
 30
0.0
 42
0.1266598135587178
  0
VERTEX
  5
3FC
  8
0
 10
908.60537198154191
 20
355.93595214008258
 30
0.0
 42
0.1060481969950741
  0
VERTEX
  5
3FD
  8
0
 10
912.52733084158524
 20
354.88371015751801
 30
0.0
 42
0.0858577042406053
 70
     2
 50
357.08849274301451
  0
VERTEX
  5
3FE
  8
0
 10
917.14611799156785
 20
355.44288955699039
 30
0.0
 42
0.041813105251108
  0
VERTEX
  5
3FF
  8
0
 10
919.02026890316313
 20
356.18136890864122
 30
0.0
 42
0.0077893988732914
  0
SEQEND
  5
400
  8
0
  0
POLYLINE
  5
401
  8
0
 66
     1
 10
0.0
 20
0.0
 30
0.0
  0
VERTEX
  5
402
  8
0
 10
924.03090331965632
 20
350.78451138815632
 30
0.0
 42
0.038537578820019
  0
VERTEX
  5
403
  8
0
 10
922.95141347470224
 20
348.58405054426743
 30
0.0
 42
0.0858577042405944
  0
VERTEX
  5
404
  8
0
 10
922.08151383170684
 20
344.45714903962698
 30
0.0
 42
0.1060481969950755
 70
     2
 50
267.9115072569856
  0
VERTEX
  5
405
  8
0
 10
922.78793047837405
 20
340.45840548557732
 30
0.0
 42
0.1266598135587198
  0
VERTEX
  5
406
  8
0
 10
924.82284315159313
 20
337.71466651353211
 30
0.0
 42
0.1266598135587178
  0
SEQEND
  5
407
  8
0
  0
POLYLINE
  5
408
  8
0
 66
     1
 10
0.0
 20
0.0
 30
0.0
  0
VERTEX
  5
409
  8
0
 10
924.82284315159313
 20
337.71466651353211
 30
0.0
 42
0.1266598135587178
  0
VERTEX
  5
40A
  8
0
 10
927.9297069786943
 20
336.29467697336071
 30
0.0
 42
0.1060481969950741
  0
VERTEX
  5
40B
  8
0
 10
931.98794067146832
 20
336.4350827587736
 30
0.0
 42
0.0858577042406053
 70
     2
 50
14.08849274301452
  0
VERTEX
  5
40C
  8
0
 10
936.24142055550806
 20
338.32023135071751
 30
0.0
 42
0.0418131052510968
  0
VERTEX
  5
40D
  8
0
 10
937.81776951871302
 20
339.57439136381339
 30
0.0
 42
0.0077893988732914
  0
SEQEND
  5
40E
  8
0
  0
ARC
  5
40F
  8
0
 10
983.97895991027815
 20
410.76638689048758
 30
0.0
 40
27.0
 50
193.480870431515
 51
197.14620999889061
  0
POLYLINE
  5
410
  8
0
 66
     1
 10
0.0
 20
0.0
 30
0.0
  0
VERTEX
  5
411
  8
0
 10
949.46451711630777
 20
488.22830086368691
 30
0.0
 42
0.0385375788199716
 50
300.0
  0
VERTEX
  5
412
  8
0
 10
947.79706450547906
 20
490.02466609422129
 30
0.0
 42
0.0858577042405944
 50
300.0
  0
VERTEX
  5
413
  8
0
 10
944.25601419003556
 20
492.31573660413221
 30
0.0
 42
0.1060481969950755
 70
     2
 50
156.9115072569856
  0
VERTEX
  5
414
  8
0
 10
940.26970839220189
 20
493.08926137807401
 30
0.0
 42
0.1266598135587198
 50
300.0
  0
VERTEX
  5
415
  8
0
 10
936.97895991027781
 20
492.17277484622508
 30
0.0
 42
0.1266598135587178
 50
300.0
  0
SEQEND
  5
416
  8
0
  0
ARC
  5
417
  8
0
 10
952.4730889766214
 20
490.61754302676297
 30
0.0
 40
3.8418722977784361
 50
218.45466871490919
 51
291.53209879228882
  0
POLYLINE
  5
418
  8
0
 66
     1
 10
0.0
 20
0.0
 30
0.0
  0
VERTEX
  5
419
  8
0
 10
936.97895991027781
 20
492.17277484622508
 30
0.0
 42
0.1266598135587178
 50
300.0
  0
VERTEX
  5
41A
  8
0
 10
934.53988505050825
 20
489.78114632933801
 30
0.0
 42
0.1060481969950741
 50
300.0
  0
VERTEX
  5
41B
  8
0
 10
933.21662425628153
 20
485.94214185419008
 30
0.0
 42
0.0858577042406053
 70
     2
 50
263.08849274301451
  0
VERTEX
  5
41C
  8
0
 10
933.45225121828355
 20
481.29559945446778
 30
0.0
 42
0.0418131052509376
 50
300.0
  0
VERTEX
  5
41D
  8
0
 10
934.05819751250965
 20
479.37450016480869
 30
0.0
 42
0.0077893988732914
 50
300.0
  0
SEQEND
  5
41E
  8
0
  0
ARC
  5
41F
  8
0
 10
930.5035270520201
 20
477.91700207910702
 30
0.0
 40
3.8418722977784361
 50
308.53207262406892
 51
22.29477717268551
  0
ARC
  5
420
  8
0
 10
1037.4543927685361
 20
477.91700207910702
 30
0.0
 40
3.8418722977784361
 50
157.70522282731449
 51
231.4679273759312
  0
POLYLINE
  5
421
  8
0
 66
     1
 10
0.0
 20
0.0
 30
0.0
  0
VERTEX
  5
422
  8
0
 10
1030.978959910278
 20
492.17277484622508
 30
0.0
 42
-0.1266598135587178
  0
VERTEX
  5
423
  8
0
 10
1033.4180347700481
 20
489.78114632933801
 30
0.0
 42
-0.1060481969950741
  0
VERTEX
  5
424
  8
0
 10
1034.741295564274
 20
485.94214185419008
 30
0.0
 42
-0.0858577042406053
 70
     2
 50
276.9115072569856
  0
VERTEX
  5
425
  8
0
 10
1034.505668602272
 20
481.29559945446778
 30
0.0
 42
-0.0418131052509376
  0
VERTEX
  5
426
  8
0
 10
1033.899722308046
 20
479.37450016480869
 30
0.0
 42
-0.0077893988732914
  0
SEQEND
  5
427
  8
0
  0
ARC
  5
428
  8
0
 10
1015.484830843934
 20
490.61754302676297
 30
0.0
 40
3.8418722977784361
 50
248.46790120771121
 51
321.54533128509092
  0
POLYLINE
  5
429
  8
0
 66
     1
 10
0.0
 20
0.0
 30
0.0
  0
VERTEX
  5
42A
  8
0
 10
1018.493402704248
 20
488.22830086368691
 30
0.0
 42
-0.0385375788199716
  0
VERTEX
  5
42B
  8
0
 10
1020.160855315077
 20
490.02466609422129
 30
0.0
 42
-0.0858577042405944
  0
VERTEX
  5
42C
  8
0
 10
1023.7019056305199
 20
492.31573660413221
 30
0.0
 42
-0.1060481969950755
 70
     2
 50
23.08849274301442
  0
VERTEX
  5
42D
  8
0
 10
1027.688211428354
 20
493.08926137807401
 30
0.0
 42
-0.1266598135587198
  0
VERTEX
  5
42E
  8
0
 10
1030.978959910278
 20
492.17277484622508
 30
0.0
 42
-0.1266598135587178
  0
SEQEND
  5
42F
  8
0
  0
POLYLINE
  5
430
  8
0
 66
     1
 10
0.0
 20
0.0
 30
0.0
  0
VERTEX
  5
431
  8
0
 10
1043.1350766689629
 20
337.71466651353211
 30
0.0
 42
-0.1266598135587178
  0
VERTEX
  5
432
  8
0
 10
1040.028212841861
 20
336.29467697336071
 30
0.0
 42
-0.1060481969950741
  0
VERTEX
  5
433
  8
0
 10
1035.9699791490871
 20
336.4350827587736
 30
0.0
 42
-0.0858577042406053
 70
     2
 50
165.91150725698549
  0
VERTEX
  5
434
  8
0
 10
1031.716499265048
 20
338.32023135071751
 30
0.0
 42
-0.0418131052510968
  0
VERTEX
  5
435
  8
0
 10
1030.1401503018431
 20
339.57439136381339
 30
0.0
 42
-0.0077893988732914
  0
SEQEND
  5
436
  8
0
  0
POLYLINE
  5
437
  8
0
 66
     1
 10
0.0
 20
0.0
 30
0.0
  0
VERTEX
  5
438
  8
0
 10
1043.9270165009
 20
350.78451138815632
 30
0.0
 42
-0.038537578820019
  0
VERTEX
  5
439
  8
0
 10
1045.0065063458539
 20
348.58405054426743
 30
0.0
 42
-0.0858577042405944
  0
VERTEX
  5
43A
  8
0
 10
1045.876405988849
 20
344.45714903962698
 30
0.0
 42
-0.1060481969950755
 70
     2
 50
272.0884927430144
  0
VERTEX
  5
43B
  8
0
 10
1045.1699893421819
 20
340.45840548557732
 30
0.0
 42
-0.1266598135587198
  0
VERTEX
  5
43C
  8
0
 10
1043.1350766689629
 20
337.71466651353211
 30
0.0
 42
-0.1266598135587178
  0
SEQEND
  5
43D
  8
0
  0
POLYLINE
  5
43E
  8
0
 66
     1
 10
0.0
 20
0.0
 30
0.0
  0
VERTEX
  5
43F
  8
0
 10
1061.9084917304519
 20
358.20225396423717
 30
0.0
 42
-0.1266598135587178
  0
VERTEX
  5
440
  8
0
 10
1059.3525478390141
 20
355.93595214008258
 30
0.0
 42
-0.1060481969950741
  0
VERTEX
  5
441
  8
0
 10
1055.4305889789709
 20
354.88371015751801
 30
0.0
 42
-0.0858577042406053
 70
     2
 50
182.91150725698549
  0
VERTEX
  5
442
  8
0
 10
1050.8118018289881
 20
355.44288955699039
 30
0.0
 42
-0.041813105251108
  0
VERTEX
  5
443
  8
0
 10
1048.9376509173931
 20
356.18136890864122
 30
0.0
 42
-0.0077893988732914
  0
SEQEND
  5
444
  8
0
  0
POLYLINE
  5
445
  8
0
 66
     1
 10
0.0
 20
0.0
 30
0.0
  0
VERTEX
  5
446
  8
0
 10
1058.8445747317121
 20
370.93254957623668
 30
0.0
 42
-0.0385375788199951
  0
VERTEX
  5
447
  8
0
 10
1060.520248492561
 20
369.14385069211932
 30
0.0
 42
-0.0858577042405944
  0
VERTEX
  5
448
  8
0
 10
1062.5587268865031
 20
365.45160919740113
 30
0.0
 42
-0.1060481969950755
 70
     2
 50
289.0884927430144
  0
VERTEX
  5
449
  8
0
 10
1063.0522967572499
 20
361.42105547955612
 30
0.0
 42
-0.1266598135587198
  0
VERTEX
  5
44A
  8
0
 10
1061.9084917304519
 20
358.20225396423717
 30
0.0
 42
-0.1266598135587178
  0
SEQEND
  5
44B
  8
0
  0
POLYLINE
  5
44C
  8
0
 66
     1
 10
0.0
 20
0.0
 30
0.0
  0
VERTEX
  5
44D
  8
0
 10
1073.871606970803
 20
383.28344664655032
 30
0.0
 42
-0.1266598135587178
  0
VERTEX
  5
44E
  8
0
 10
1072.089948199191
 20
380.3688857609481
 30
0.0
 42
-0.1060481969950741
  0
VERTEX
  5
44F
  8
0
 10
1068.647006070863
 20
378.21595195083432
 30
0.0
 42
-0.0858577042406053
 70
     2
 50
199.91150725698549
  0
VERTEX
  5
450
  8
0
 10
1064.066549718284
 20
377.4002951971944
 30
0.0
 42
-0.0418131052510068
  0
VERTEX
  5
451
  8
0
 10
1062.058379821194
 20
377.5585578164397
 30
0.0
 42
-0.0077893988732914
  0
SEQEND
  5
452
  8
0
  0
ARC
  5
453
  8
0
 10
1027.505578653157
 20
336.77814119970179
 30
0.0
 40
3.8418722977784361
 50
46.705222827314493
 51
120.4679225762096
  0
ARC
  5
454
  8
0
 10
1047.235741947143
 20
352.73702737370002
 30
0.0
 40
3.8418722977784361
 50
63.7052228273145
 51
210.54533128509081
  0
ARC
  5
455
  8
0
 10
1061.437864184941
 20
373.76712759848772
 30
0.0
 40
3.8418722977784361
 50
80.705222827314515
 51
227.5453312850909
  0
POLYLINE
  5
456
  8
0
 66
     1
 10
0.0
 20
0.0
 30
0.0
  0
VERTEX
  5
457
  8
0
 10
1068.320166633818
 20
419.60695962004451
 30
0.0
 42
-0.0385375788199716
  0
VERTEX
  5
458
  8
0
 10
1070.709590863351
 20
419.06108591472719
 30
0.0
 42
-0.0858577042405944
  0
VERTEX
  5
459
  8
0
 10
1074.4642412845169
 20
417.13998164042971
 30
0.0
 42
-0.1060481969950755
 70
     2
 50
323.08849274301451
  0
VERTEX
  5
45A
  8
0
 10
1077.127286288124
 20
414.07450193922341
 30
0.0
 42
-0.1266598135587198
  0
VERTEX
  5
45B
  8
0
 10
1077.978959910278
 20
410.76638689048758
 30
0.0
 42
-0.1266598135587178
  0
SEQEND
  5
45C
  8
0
  0
ARC
  5
45D
  8
0
 10
1068.885025112678
 20
423.40708036172498
 30
0.0
 40
3.8418722977784361
 50
188.46790120771121
 51
261.54533128509092
  0
POLYLINE
  5
45E
  8
0
 66
     1
 10
0.0
 20
0.0
 30
0.0
  0
VERTEX
  5
45F
  8
0
 10
1077.978959910278
 20
410.76638689048758
 30
0.0
 42
-0.1266598135587178
  0
VERTEX
  5
460
  8
0
 10
1077.127286288124
 20
407.4582718417517
 30
0.0
 42
-0.1060481969950741
  0
VERTEX
  5
461
  8
0
 10
1074.4642412845169
 20
404.39279214054551
 30
0.0
 42
-0.0858577042406053
 70
     2
 50
216.9115072569856
  0
VERTEX
  5
462
  8
0
 10
1070.322404045595
 20
402.27357987559458
 30
0.0
 42
-0.0418131052509376
  0
VERTEX
  5
463
  8
0
 10
1068.355710110445
 20
401.83779511489399
 30
0.0
 42
-0.0077893988732914
  0
SEQEND
  5
464
  8
0
  0
POLYLINE
  5
465
  8
0
 66
     1
 10
0.0
 20
0.0
 30
0.0
  0
VERTEX
  5
466
  8
0
 10
1067.2195903433269
 20
394.56168624906348
 30
0.0
 42
-0.0385375788199559
  0
VERTEX
  5
467
  8
0
 10
1069.345010072255
 20
393.34106459322152
 30
0.0
 42
-0.0858577042405944
  0
VERTEX
  5
468
  8
0
 10
1072.3739235953681
 20
390.40614989473562
 30
0.0
 42
-0.1060481969950755
 70
     2
 50
306.08849274301451
  0
VERTEX
  5
469
  8
0
 10
1074.024346671627
 20
386.6960180697061
 30
0.0
 42
-0.1266598135587198
  0
VERTEX
  5
46A
  8
0
 10
1073.871606970803
 20
383.28344664655032
 30
0.0
 42
-0.1266598135587178
  0
SEQEND
  5
46B
  8
0
  0
ARC
  5
46C
  8
0
 10
1068.8708149725051
 20
398.03061115117708
 30
0.0
 40
3.8418722977784361
 50
97.705222827314515
 51
244.5453312850909
  0
ARC
  5
46D
  8
0
 10
1055.6852204115351
 20
429.04785851959639
 30
0.0
 40
7.9999999999998739
 50
14.30283231003154
 51
121.39718102730311
  0
LINE
  5
4F5
  8
0
 10
984.16621680215803
 20
354.12119309644538
 30
0.0
 11
984.18725690236897
 21
357.68114384731581
 31
0.0
  0
TEXT
  5
4F6
  8
0
 10
979.99722821620094
 20
370.35248679241829
 30
0.0
 40
7.9999709525690781
  1
S
 50
269.6613731506751
 41
0.8010058167796952
 51
359.92960064159581
  7
K90
 72
     1
 11
979.97919384459101
 21
367.30110043453652
 31
0.0
  0
TEXT
  5
4F7
  8
0
 10
979.95738125459434
 20
363.61044566784449
 30
0.0
 40
7.9999709525690781
  1
Y
 50
269.66137315068329
 41
0.8010058167797513
 51
359.92960064160428
  7
K90
 72
     1
 11
979.94115032014577
 21
360.86419794575067
 31
0.0
  0
TEXT
  5
4F8
  8
0
 10
980.28620003152605
 20
341.01284932354002
 30
0.0
 40
7.4999727680334818
  1
0
 50
269.6613731506751
 41
0.801005816779755
 51
359.92960064159638
  7
K90
 72
     1
 11
980.26929280814159
 21
338.15217461302558
 31
0.0
  0
TEXT
  5
4F9
  8
0
 10
980.32407221190533
 20
347.42076067509038
 30
0.0
 40
7.4999727680335981
  1
0
 50
269.66137315069142
 41
0.8010058167796845
 51
359.9296006416123
  7
K90
 72
     1
 11
980.30716498852155
 21
344.56008596457627
 31
0.0
  0
TEXT
  5
4FA
  8
0
 10
980.36194439228575
 20
353.82867202664039
 30
0.0
 40
7.4999727680334818
  1
2
 50
269.66137315068329
 41
0.8010058167796973
 51
359.92960064160411
  7
K90
 72
     1
 11
980.34503716890185
 21
350.96799731612617
 31
0.0
  0
TEXT
  5
5A8
  8
0
 62
     3
 10
0.0
 20
0.0
 30
0.0
 40
10.0
  1
SY200
  7
STANDARD1
  0
ENDSEC
  0
EOF
