  0
SECTION
  2
HEADER
  9
$ACADVER
  1
AC1009
  9
$INSBASE
 10
0.0
 20
0.0
 30
0.0
  9
$EXTMIN
 10
0.0
 20
-2.960436562073669
 30
0.0
  9
$EXTMAX
 10
1110.5440954383951
 20
691.86755960858659
 30
0.0
  9
$LIMMIN
 10
0.0
 20
0.0
  9
$LIMMAX
 10
1125.0
 20
810.0
  9
$ORTHOMODE
 70
     1
  9
$REGENMODE
 70
     1
  9
$FILLMODE
 70
     1
  9
$QTEXTMODE
 70
     0
  9
$MIRRTEXT
 70
     0
  9
$DRAGMODE
 70
     2
  9
$LTSCALE
 40
30.0
  9
$OSMODE
 70
    55
  9
$ATTMODE
 70
     1
  9
$TEXTSIZE
 40
0.2
  9
$TRACEWID
 40
0.05
  9
$TEXTSTYLE
  7
K50
  9
$CLAYER
  8
0
  9
$CELTYPE
  6
BYLAYER
  9
$CECOLOR
 62
   256
  9
$DIMSCALE
 40
3.0
  9
$DIMASZ
 40
3.0
  9
$DIMEXO
 40
2.0
  9
$DIMDLI
 40
0.3799999999999999
  9
$DIMRND
 40
0.0
  9
$DIMDLE
 40
0.0
  9
$DIMEXE
 40
2.0
  9
$DIMTP
 40
0.0
  9
$DIMTM
 40
0.0
  9
$DIMTXT
 40
3.2000000000000002
  9
$DIMCEN
 40
0.09
  9
$DIMTSZ
 40
0.0
  9
$DIMTOL
 70
     0
  9
$DIMLIM
 70
     0
  9
$DIMTIH
 70
     0
  9
$DIMTOH
 70
     0
  9
$DIMSE1
 70
     0
  9
$DIMSE2
 70
     0
  9
$DIMTAD
 70
     1
  9
$DIMZIN
 70
     0
  9
$DIMBLK
  1

  9
$DIMASO
 70
     1
  9
$DIMSHO
 70
     0
  9
$DIMPOST
  1

  9
$DIMAPOST
  1

  9
$DIMALT
 70
     0
  9
$DIMALTD
 70
     2
  9
$DIMALTF
 40
25.399999999999999
  9
$DIMLFAC
 40
1.0
  9
$DIMTOFL
 70
     0
  9
$DIMTVP
 40
1.6000000000000001
  9
$DIMTIX
 70
     1
  9
$DIMSOXD
 70
     0
  9
$DIMSAH
 70
     0
  9
$DIMBLK1
  1

  9
$DIMBLK2
  1

  9
$DIMSTYLE
  2
STANDARD
  9
$DIMCLRD
 70
     0
  9
$DIMCLRE
 70
     0
  9
$DIMCLRT
 70
     0
  9
$DIMTFAC
 40
1.0
  9
$DIMGAP
 40
0.09
  9
$LUNITS
 70
     2
  9
$LUPREC
 70
     4
  9
$SKETCHINC
 40
0.1
  9
$FILLETRAD
 40
5.0
  9
$AUNITS
 70
     0
  9
$AUPREC
 70
     0
  9
$MENU
  1
E:\r13\win\SUPPORT\ACAD
  9
$ELEVATION
 40
0.0
  9
$PELEVATION
 40
0.0
  9
$THICKNESS
 40
0.0
  9
$LIMCHECK
 70
     0
  9
$BLIPMODE
 70
     0
  9
$CHAMFERA
 40
0.0
  9
$CHAMFERB
 40
0.0
  9
$SKPOLY
 70
     0
  9
$TDCREATE
 40
2449840.5978356488
  9
$TDUPDATE
 40
2456598.5678961109
  9
$TDINDWG
 40
0.0015950231
  9
$TDUSRTIMER
 40
0.0015950231
  9
$USRTIMER
 70
     1
  9
$ANGBASE
 50
0.0
  9
$ANGDIR
 70
     0
  9
$PDMODE
 70
     0
  9
$PDSIZE
 40
0.0
  9
$PLINEWID
 40
0.0
  9
$COORDS
 70
     1
  9
$SPLFRAME
 70
     0
  9
$SPLINETYPE
 70
     6
  9
$SPLINESEGS
 70
     8
  9
$ATTDIA
 70
     0
  9
$ATTREQ
 70
     1
  9
$HANDLING
 70
     1
  9
$HANDSEED
  5
5DA
  9
$SURFTAB1
 70
     6
  9
$SURFTAB2
 70
     6
  9
$SURFTYPE
 70
     6
  9
$SURFU
 70
     6
  9
$SURFV
 70
     6
  9
$UCSNAME
  2

  9
$UCSORG
 10
0.0
 20
0.0
 30
0.0
  9
$UCSXDIR
 10
1.0
 20
0.0
 30
0.0
  9
$UCSYDIR
 10
0.0
 20
1.0
 30
0.0
  9
$PUCSNAME
  2

  9
$PUCSORG
 10
0.0
 20
0.0
 30
0.0
  9
$PUCSXDIR
 10
1.0
 20
0.0
 30
0.0
  9
$PUCSYDIR
 10
0.0
 20
1.0
 30
0.0
  9
$USERI1
 70
     0
  9
$USERI2
 70
     1
  9
$USERI3
 70
     1
  9
$USERI4
 70
     0
  9
$USERI5
 70
     0
  9
$USERR1
 40
0.0
  9
$USERR2
 40
0.0
  9
$USERR3
 40
0.0
  9
$USERR4
 40
0.0
  9
$USERR5
 40
0.0
  9
$WORLDVIEW
 70
     1
  9
$SHADEDGE
 70
     3
  9
$SHADEDIF
 70
    70
  9
$TILEMODE
 70
     1
  9
$MAXACTVP
 70
    16
  9
$PLIMCHECK
 70
     0
  9
$PEXTMIN
 10
1.0000000000000000E+020
 20
1.0000000000000000E+020
 30
1.0000000000000000E+020
  9
$PEXTMAX
 10
-1.0000000000000000E+020
 20
-1.0000000000000000E+020
 30
-1.0000000000000000E+020
  9
$PLIMMIN
 10
0.0
 20
0.0
  9
$PLIMMAX
 10
12.0
 20
9.0
  9
$UNITMODE
 70
     0
  9
$VISRETAIN
 70
     0
  9
$PLINEGEN
 70
     0
  9
$PSLTSCALE
 70
     0
  0
ENDSEC
  0
SECTION
  2
TABLES
  0
TABLE
  2
VPORT
 70
     1
  0
VPORT
  2
*ACTIVE
 70
     0
 10
0.0
 20
0.0
 11
1.0
 21
1.0
 12
562.48283517195694
 22
592.73813582168805
 13
0.0
 23
0.0
 14
30.0
 24
30.0
 15
30.0
 25
30.0
 16
0.0
 26
0.0
 36
1.0
 17
0.0
 27
0.0
 37
0.0
 40
1201.9485303289921
 41
1.7807262569832401
 42
50.0
 43
0.0
 44
0.0
 50
0.0
 51
0.0
 71
     0
 72
   500
 73
     1
 74
     0
 75
     0
 76
     0
 77
     0
 78
     1
  0
ENDTAB
  0
TABLE
  2
LTYPE
 70
     4
  0
LTYPE
  2
CONTINUOUS
 70
     0
  3
Solid Line
 72
    65
 73
     0
 40
0.0
  0
LTYPE
  2
CENTER
 70
     0
  3
____ _ ____ _ ____ _ ____ _ ____ _ ____ _ ____
 72
    65
 73
     4
 40
2.0
 49
1.25
 49
-0.25
 49
0.25
 49
-0.25
  0
LTYPE
  2
HIDDEN
 70
     0
  3
_ _ _ _ _ _ _ _ _ _ _ _ _ _ _ _ _ _ _ _ _ _ _
 72
    65
 73
     2
 40
0.375
 49
0.25
 49
-0.125
  0
LTYPE
  2
PHANTOM2
 70
     0
  3
___ _ _ ___ _ _ ___ _ _ ___ _ _
 72
    65
 73
     6
 40
1.25
 49
0.625
 49
-0.125
 49
0.125
 49
-0.125
 49
0.125
 49
-0.125
  0
ENDTAB
  0
TABLE
  2
LAYER
 70
     4
  0
LAYER
  2
0
 70
     0
 62
     7
  6
CONTINUOUS
  0
LAYER
  2
1
 70
     0
 62
     1
  6
CENTER
  0
LAYER
  2
4
 70
     0
 62
     4
  6
CONTINUOUS
  0
LAYER
  2
2
 70
     0
 62
     2
  6
HIDDEN
  0
ENDTAB
  0
TABLE
  2
STYLE
 70
     4
  0
STYLE
  2
STANDARD
 70
     0
 40
0.0
 41
1.0
 50
0.0
 71
     0
 42
0.2
  3
romans.shx
  4

  0
STYLE
  2
K90
 70
     0
 40
0.0
 41
1.0
 50
0.0
 71
     0
 42
0.2
  3
romans.shx
  4

  0
STYLE
  2
K50
 70
     0
 40
0.0
 41
1.0
 50
0.0
 71
     0
 42
0.2
  3
romans.shx
  4

  0
STYLE
  2
STANDARD1
 70
     0
 40
0.0
 41
1.0
 50
0.0
 71
     0
 42
3.0
  3
txt
  4

  0
ENDTAB
  0
TABLE
  2
VIEW
 70
     1
  0
VIEW
  2
ALL
 70
     0
 40
810.0
 10
662.97478991596643
 20
405.0
 41
0.0
 11
0.0
 21
0.0
 31
1.0
 12
0.0
 22
0.0
 32
0.0
 42
0.0
 43
0.0
 44
0.0
 50
0.0
 71
     0
  0
ENDTAB
  0
TABLE
  2
UCS
 70
     0
  0
ENDTAB
  0
TABLE
  2
APPID
 70
     3
  0
APPID
  2
ACAD
 70
     0
  0
APPID
  2
ACAD_MLEADERVER
 70
     0
  0
APPID
  2
ACAD_NAV_VCDISPLAY
 70
     0
  0
ENDTAB
  0
TABLE
  2
DIMSTYLE
 70
     1
  0
DIMSTYLE
  2
STANDARD
 70
     0
  3

  4

  5

  6

  7

 40
1.0
 41
0.18
 42
0.0625
 43
0.38
 44
0.18
 45
0.0
 46
0.0
 47
0.0
 48
0.0
140
0.18
141
0.09
142
0.0
143
25.399999999999999
144
1.0
145
0.0
146
1.0
147
0.09
 71
     0
 72
     0
 73
     1
 74
     1
 75
     0
 76
     0
 77
     0
 78
     0
170
     0
171
     2
172
     0
173
     0
174
     0
175
     0
176
     0
177
     0
178
     0
  0
ENDTAB
  0
ENDSEC
  0
SECTION
  2
BLOCKS
  0
BLOCK
  8
0
  2
$MODEL_SPACE
 70
     0
 10
0.0
 20
0.0
 30
0.0
  3
$MODEL_SPACE
  1

  0
ENDBLK
  5
43F
  8
0
  0
BLOCK
 67
     1
  8
0
  2
$PAPER_SPACE
 70
     0
 10
0.0
 20
0.0
 30
0.0
  3
$PAPER_SPACE
  1

  0
ENDBLK
  5
43D
 67
     1
  8
0
  0
ENDSEC
  0
SECTION
  2
ENTITIES
  0
CIRCLE
  5
40
  8
0
 10
612.99868210770853
 20
395.1798561151079
 30
0.0
 40
80.0
  0
LINE
  5
41
  8
1
 10
707.99868210770853
 20
395.1798561151079
 30
0.0
 11
517.99868210770853
 21
395.1798561151079
 31
0.0
  0
LINE
  5
42
  8
1
 10
612.99868210770853
 20
490.17985611510818
 30
0.0
 11
612.99868210770853
 21
300.17985611510761
 31
0.0
  0
ARC
  5
43
  8
0
 10
642.99868210770865
 20
347.89349444496003
 30
0.0
 40
8.0000000000000853
 50
180.00000000000011
 51
302.39236548584302
  0
ARC
  5
44
  8
0
 10
649.99868210770887
 20
382.8510281091705
 30
0.0
 40
15.0000000000003
 50
161.5713303961769
 51
180.00000000000011
  0
LINE
  5
45
  8
0
 10
634.99868210770865
 20
382.8510281091705
 30
0.0
 11
634.99868210770853
 21
347.89349444496003
 31
0.0
  0
LINE
  5
46
  8
0
 10
590.99868210770819
 20
382.8510281091705
 30
0.0
 11
590.99868210770853
 21
347.89349444496003
 31
0.0
  0
ARC
  5
47
  8
0
 10
575.99868210770785
 20
382.8510281091705
 30
0.0
 40
15.0000000000003
 50
359.99999999999989
 51
18.428669603823089
  0
ARC
  5
48
  8
0
 10
582.99868210770842
 20
347.89349444496003
 30
0.0
 40
8.0000000000000853
 50
237.6076345141569
 51
359.99999999999989
  0
ARC
  5
49
  8
0
 10
650.90401088093938
 20
386.00456044721278
 30
0.0
 40
15.00000000000029
 50
121.43209618416191
 51
166.39281532609411
  0
ARC
  5
4A
  8
0
 10
668.17269975502165
 20
404.76253719370141
 30
0.0
 40
7.9999999999995568
 50
9.8529041809075881
 51
121.4320961841633
  0
LINE
  5
4B
  8
0
 10
643.08169544626435
 20
398.80344247809558
 30
0.0
 11
664.00079541256935
 21
411.5886059127688
 31
0.0
  0
ARC
  5
4C
  8
0
 10
624.0053073586937
 20
432.59448160547493
 30
0.0
 40
15.00000000000052
 50
269.97469340453
 51
298.56790381583693
  0
ARC
  5
4D
  8
0
 10
648.88453618179199
 20
438.17061648723461
 30
0.0
 40
7.9999999999998943
 50
298.5679038158334
 51
50.147095819091483
  0
LINE
  5
4E
  8
0
 10
631.17830245899984
 20
419.42071444148479
 30
0.0
 11
652.71013578789655
 21
431.14460854148251
 31
0.0
  0
LINE
  5
4F
  8
0
 10
594.81905759527638
 20
419.42071670718929
 30
0.0
 11
573.28722842752052
 21
431.14460854148228
 31
0.0
  0
ARC
  5
50
  8
0
 10
577.11282803362485
 20
438.17061648723461
 30
0.0
 40
7.9999999999998943
 50
129.8529041809085
 51
241.4320961841666
  0
ARC
  5
51
  8
0
 10
601.99205685672325
 20
432.59448160547493
 30
0.0
 40
15.00000000000052
 50
241.4320961841631
 51
270.02530659546511
  0
LINE
  5
52
  8
0
 10
582.9156687691526
 20
398.80344247809558
 30
0.0
 11
561.99656602555535
 21
411.58860761017149
 31
0.0
  0
ARC
  5
53
  8
0
 10
557.82466446039541
 20
404.76253719370141
 30
0.0
 40
7.9999999999995568
 50
58.567903815836651
 51
170.14709581909241
  0
ARC
  5
54
  8
0
 10
575.09335333447757
 20
386.00456044721278
 30
0.0
 40
15.00000000000029
 50
13.607184673905881
 51
58.567903815838129
  0
ARC
  5
55
  8
0
 10
612.99868210770853
 20
395.1798561151079
 30
0.0
 40
64.0
 50
170.1470958190925
 51
237.6076345141571
  0
ARC
  5
56
  8
0
 10
612.99868210770853
 20
395.1798561151079
 30
0.0
 40
64.0
 50
302.3923654858429
 51
9.8529041809075384
  0
ARC
  5
57
  8
0
 10
612.99868210770853
 20
395.1798561151079
 30
0.0
 40
64.0
 50
50.147095819091518
 51
72.757464544470665
  0
ARC
  5
58
  8
0
 10
612.99868210770853
 20
395.1798561151079
 30
0.0
 40
24.0
 50
341.57133039617702
 51
346.39281532609431
  0
ARC
  5
59
  8
0
 10
612.99868210770853
 20
395.1798561151079
 30
0.0
 40
24.0
 50
193.60718467390569
 51
198.42866960382301
  0
ARC
  5
5A
  8
0
 10
630.486329738976
 20
451.52861388201728
 30
0.0
 40
4.9999999999995337
 50
72.745884672236244
 51
175.97174271014151
  0
LINE
  5
5B
  8
0
 10
600.49868210770921
 20
451.87985611510788
 30
0.0
 11
607.42104820075667
 21
451.87985611510788
 31
0.0
  0
ARC
  5
5C
  8
0
 10
632.97029440896472
 20
451.22792849665501
 30
0.0
 40
7.4999999999996536
 50
70.358461740142957
 51
175.01334672801659
  0
ARC
  5
5D
  8
0
 10
593.02706980645223
 20
451.22792849665501
 30
0.0
 40
7.4999999999996536
 50
4.9866532719833954
 51
109.641538259857
  0
ARC
  5
5E
  8
0
 10
595.51103447644095
 20
451.52861388201728
 30
0.0
 40
4.9999999999995337
 50
4.0282572898585087
 51
107.2541153277637
  0
ARC
  5
5F
  8
0
 10
612.99868210770853
 20
395.1798561151079
 30
0.0
 40
64.0
 50
107.24253545552931
 51
129.85290418090841
  0
ARC
  5
60
  8
0
 10
612.99868210770853
 20
395.1798561151079
 30
0.0
 40
67.0
 50
109.6157603519836
 51
70.384239648016333
  0
ARC
  5
61
  8
0
 10
612.99868210770853
 20
395.1798561151079
 30
0.0
 40
22.928203230274988
 50
118.6696293490223
 51
61.330370650981401
  0
LINE
  5
62
  8
1
 10
783.70812684366831
 20
395.1798561151079
 30
0.0
 11
881.20812684366922
 21
395.1798561151079
 31
0.0
  0
ARC
  5
63
  8
0
 10
838.20812684366865
 20
379.1798561151079
 30
0.0
 40
40.0
 50
69.216764504063292
 51
82.831728084674012
  0
LINE
  5
64
  8
0
 10
853.20812684366911
 20
415.17985611510778
 30
0.0
 11
864.70812684366911
 21
415.17985611510778
 31
0.0
  0
LINE
  5
65
  8
0
 10
866.20812684366922
 20
413.6798561151079
 30
0.0
 11
866.20812684366922
 21
376.6798561151079
 31
0.0
  0
LINE
  5
66
  8
0
 10
864.70812684366911
 20
375.1798561151079
 30
0.0
 11
853.20812684366911
 21
375.1798561151079
 31
0.0
  0
ARC
  5
67
  8
0
 10
864.70812684366911
 20
413.6798561151079
 30
0.0
 40
1.5
 50
0.0
 51
90.0
  0
ARC
  5
68
  8
0
 10
864.70812684366911
 20
376.6798561151079
 30
0.0
 40
1.5
 50
270.0
 51
0.0
  0
LINE
  5
69
  8
0
 10
804.20812684366911
 20
315.1798561151079
 30
0.0
 11
819.20812684366911
 21
315.1798561151079
 31
0.0
  0
ARC
  5
6A
  8
0
 10
804.20812684366911
 20
318.1798561151079
 30
0.0
 40
3.0
 50
180.0
 51
269.99999999999989
  0
ARC
  5
6B
  8
0
 10
819.20812684366911
 20
318.1798561151079
 30
0.0
 40
3.0
 50
270.0
 51
0.0
  0
LINE
  5
6C
  8
0
 10
852.4014636897017
 20
416.57703768237297
 30
0.0
 11
853.20812684366911
 21
415.17985611510778
 31
0.0
  0
ARC
  5
6D
  8
0
 10
804.20812684366911
 20
472.1798561151079
 30
0.0
 40
3.0
 50
90.000000000000057
 51
180.0
  0
LINE
  5
6E
  8
0
 10
804.20812684366911
 20
475.1798561151079
 30
0.0
 11
820.20812684366911
 21
475.1798561151079
 31
0.0
  0
LINE
  5
6F
  8
0
 10
822.20812684366899
 20
451.87985611510788
 30
0.0
 11
830.20812684366899
 21
451.87985611510788
 31
0.0
  0
LINE
  5
70
  8
0
 10
830.20812684366888
 20
451.87985611510783
 30
0.0
 11
830.20812684366899
 21
468.47985611510802
 31
0.0
  0
LINE
  5
71
  8
0
 10
830.20812684366899
 20
468.47985611510802
 30
0.0
 11
821.99872518813606
 21
474.58687866772181
 31
0.0
  0
ARC
  5
72
  8
0
 10
820.20812684366911
 20
472.1798561151079
 30
0.0
 40
3.0
 50
53.354222166254047
 51
90.000000000000014
  0
LINE
  5
73
  8
2
 10
834.20812684366911
 20
372.27985611506659
 30
0.0
 11
834.20812684366911
 21
377.96430570854852
 31
0.0
  0
LINE
  5
74
  8
2
 10
829.70812684366445
 20
452.1798561151125
 30
0.0
 11
825.70812684366445
 21
456.1798561151125
 31
0.0
  0
LINE
  5
75
  8
0
 10
823.20812684366877
 20
451.6798561151079
 30
0.0
 11
823.20812684366899
 21
451.87985611510788
 31
0.0
  0
LINE
  5
76
  8
0
 10
822.20812684366899
 20
318.1798561151079
 30
0.0
 11
822.20812684366899
 21
472.1798561151079
 31
0.0
  0
POLYLINE
  5
77
  8
2
 66
     1
 10
0.0
 20
0.0
 30
0.0
  0
VERTEX
  5
78
  8
2
 10
537.99868210770808
 20
395.1798561151079
 30
0.0
 42
0.1235394496148151
  0
VERTEX
  5
79
  8
2
 10
538.83150014499142
 20
391.8606428006147
 30
0.0
 42
0.1055848245869267
  0
VERTEX
  5
7A
  8
2
 10
541.4067795033933
 20
388.81589508442897
 30
0.0
 42
0.0872964065721319
 70
     2
 50
322.27935668558899
  0
VERTEX
  5
7B
  8
2
 10
545.4296540971626
 20
386.70003002533451
 30
0.0
 42
0.0937574743961087
 50
322.27935668558899
  0
VERTEX
  5
7C
  8
2
 10
549.63465445794486
 20
386.17985611510778
 30
0.0
 42
0.077667298244456
  0
SEQEND
  5
7D
  8
2
  0
POLYLINE
  5
7E
  8
2
 66
     1
 10
0.0
 20
0.0
 30
0.0
  0
VERTEX
  5
7F
  8
2
 10
549.63465445794486
 20
404.1798561151079
 30
0.0
 42
0.0776672982444522
  0
VERTEX
  5
80
  8
2
 10
545.0591398082131
 20
403.46480706780932
 30
0.0
 42
0.0872964065721361
  0
VERTEX
  5
81
  8
2
 10
541.4067795033933
 20
401.54381714578682
 30
0.0
 42
0.1055848245869243
 70
     2
 50
217.72064331441041
  0
VERTEX
  5
82
  8
2
 10
538.83150014499142
 20
398.49906942960132
 30
0.0
 42
0.1235394496148134
 50
217.72064331441041
  0
VERTEX
  5
83
  8
2
 10
537.99868210770808
 20
395.1798561151079
 30
0.0
 42
0.1235394496148151
  0
SEQEND
  5
84
  8
2
  0
POLYLINE
  5
85
  8
2
 66
     1
 10
0.0
 20
0.0
 30
0.0
  0
VERTEX
  5
86
  8
2
 10
551.01380297332685
 20
379.2464083182216
 30
0.0
 42
0.0776672982444522
 50
22.5
  0
VERTEX
  5
87
  8
2
 10
547.06021606146362
 20
376.83481548768458
 30
0.0
 42
0.0872964065721361
 50
22.5
  0
VERTEX
  5
88
  8
2
 10
544.4210061473824
 20
373.66235443888519
 30
0.0
 42
0.1055848245869243
 70
     2
 50
240.22064331441049
  0
VERTEX
  5
89
  8
2
 10
543.20693276437146
 20
369.86385759806848
 30
0.0
 42
0.1235394496148134
 50
240.22064331441049
  0
VERTEX
  5
8A
  8
2
 10
543.70771716936167
 20
366.47859868772622
 30
0.0
 42
0.1235394496148151
 50
22.5
  0
SEQEND
  5
8B
  8
2
  0
POLYLINE
  5
8C
  8
2
 66
     1
 10
0.0
 20
0.0
 30
0.0
  0
VERTEX
  5
8D
  8
2
 10
543.70771716936167
 20
366.47859868772622
 30
0.0
 42
0.1235394496148151
 50
22.5
  0
VERTEX
  5
8E
  8
2
 10
545.74734865225594
 20
363.73075110746993
 30
0.0
 42
0.1055848245869267
 50
22.5
  0
VERTEX
  5
8F
  8
2
 10
549.29177104869802
 20
361.90328775499768
 30
0.0
 42
0.0872964065721319
 70
     2
 50
344.77935668558911
  0
VERTEX
  5
90
  8
2
 10
553.81812905097695
 20
361.48797079086262
 30
0.0
 42
0.0937574743961087
 50
344.77935668558911
  0
VERTEX
  5
91
  8
2
 10
557.90210475589856
 20
362.61657673301841
 30
0.0
 42
0.077667298244456
 50
22.5
  0
SEQEND
  5
92
  8
2
  0
POLYLINE
  5
93
  8
2
 66
     1
 10
0.0
 20
0.0
 30
0.0
  0
VERTEX
  5
94
  8
2
 10
561.82958744258985
 20
356.73868351134729
 30
0.0
 42
0.0776672982444522
 50
45.0
  0
VERTEX
  5
95
  8
2
 10
559.09982603657181
 20
352.99769004487769
 30
0.0
 42
0.0872964065721361
 50
45.0
  0
VERTEX
  5
96
  8
2
 10
557.87556229815027
 20
349.05673630554998
 30
0.0
 42
0.1055848245869243
 70
     2
 50
262.72064331441038
  0
VERTEX
  5
97
  8
2
 10
558.20752655749163
 20
345.082777050657
 30
0.0
 42
0.1235394496148134
 50
262.72064331441038
  0
VERTEX
  5
98
  8
2
 10
559.96567351871715
 20
342.14684752611669
 30
0.0
 42
0.1235394496148151
 50
45.0
  0
SEQEND
  5
99
  8
2
  0
POLYLINE
  5
9A
  8
2
 66
     1
 10
0.0
 20
0.0
 30
0.0
  0
VERTEX
  5
9B
  8
2
 10
559.96567351871715
 20
342.14684752611669
 30
0.0
 42
0.1235394496148151
 50
45.0
  0
VERTEX
  5
9C
  8
2
 10
562.9016030432573
 20
340.38870056489122
 30
0.0
 42
0.1055848245869267
 50
45.0
  0
VERTEX
  5
9D
  8
2
 10
566.87556229815027
 20
340.05673630554992
 30
0.0
 42
0.0872964065721319
 70
     2
 50
7.279356685589021
  0
VERTEX
  5
9E
  8
2
 10
571.21630673462914
 20
341.40519567930602
 30
0.0
 42
0.0937574743961087
 50
7.279356685589021
  0
VERTEX
  5
9F
  8
2
 10
574.5575095039477
 20
344.01076144998927
 30
0.0
 42
0.077667298244456
 50
45.0
  0
SEQEND
  5
A0
  8
2
  0
POLYLINE
  5
A1
  8
2
 66
     1
 10
0.0
 20
0.0
 30
0.0
  0
VERTEX
  5
A2
  8
2
 10
589.11089691688665
 20
454.55471374590257
 30
0.0
 42
0.0776672982444522
 50
300.0
  0
VERTEX
  5
A3
  8
2
 10
586.20388895210817
 20
458.159701144309
 30
0.0
 42
0.0872964065721361
 50
300.0
  0
VERTEX
  5
A4
  8
2
 10
582.7140827268131
 20
460.3622429910456
 30
0.0
 42
0.1055848245869243
 70
     2
 50
157.72064331441041
  0
VERTEX
  5
A5
  8
2
 10
578.78961417728055
 20
461.0701264791706
 30
0.0
 42
0.1235394496148134
 50
157.72064331441041
  0
VERTEX
  5
A6
  8
2
 10
575.49868210770831
 20
460.13176139894108
 30
0.0
 42
0.1235394496148151
 50
300.0
  0
SEQEND
  5
A7
  8
2
  0
POLYLINE
  5
A8
  8
2
 66
     1
 10
0.0
 20
0.0
 30
0.0
  0
VERTEX
  5
A9
  8
2
 10
575.49868210770831
 20
460.13176139894108
 30
0.0
 42
0.1235394496148151
 50
300.0
  0
VERTEX
  5
AA
  8
2
 10
573.04056807541906
 20
457.75091316467729
 30
0.0
 42
0.1055848245869267
 50
300.0
  0
VERTEX
  5
AB
  8
2
 10
571.69137888428861
 20
453.99828196036663
 30
0.0
 42
0.0872964065721319
 70
     2
 50
262.27935668558899
  0
VERTEX
  5
AC
  8
2
 10
571.87042328901782
 20
449.4564378363761
 30
0.0
 42
0.0937574743961087
 50
262.27935668558899
  0
VERTEX
  5
AD
  8
2
 10
573.52243964876664
 20
445.55471374590257
 30
0.0
 42
0.077667298244456
 50
300.0
  0
SEQEND
  5
AE
  8
2
  0
POLYLINE
  5
AF
  8
2
 66
     1
 10
0.0
 20
0.0
 30
0.0
  0
VERTEX
  5
B0
  8
2
 10
650.49868210770865
 20
460.13176139894108
 30
0.0
 42
-0.1235394496148151
  0
VERTEX
  5
B1
  8
2
 10
652.95679613999766
 20
457.75091316467729
 30
0.0
 42
-0.1055848245869267
  0
VERTEX
  5
B2
  8
2
 10
654.30598533112834
 20
453.99828196036663
 30
0.0
 42
-0.0872964065721319
 70
     2
 50
277.72064331441089
  0
VERTEX
  5
B3
  8
2
 10
654.12694092639924
 20
449.4564378363761
 30
0.0
 42
-0.0937574743961087
  0
VERTEX
  5
B4
  8
2
 10
652.47492456665032
 20
445.55471374590257
 30
0.0
 42
-0.077667298244456
  0
SEQEND
  5
B5
  8
2
  0
POLYLINE
  5
B6
  8
2
 66
     1
 10
0.0
 20
0.0
 30
0.0
  0
VERTEX
  5
B7
  8
2
 10
636.88646729853031
 20
454.55471374590257
 30
0.0
 42
-0.0776672982444522
  0
VERTEX
  5
B8
  8
2
 10
639.79347526330855
 20
458.159701144309
 30
0.0
 42
-0.0872964065721361
  0
VERTEX
  5
B9
  8
2
 10
643.28328148860385
 20
460.3622429910456
 30
0.0
 42
-0.1055848245869243
 70
     2
 50
22.279356685589569
  0
VERTEX
  5
BA
  8
2
 10
647.2077500381364
 20
461.0701264791706
 30
0.0
 42
-0.1235394496148134
  0
VERTEX
  5
BB
  8
2
 10
650.49868210770865
 20
460.13176139894108
 30
0.0
 42
-0.1235394496148151
  0
SEQEND
  5
BC
  8
2
  0
POLYLINE
  5
BD
  8
2
 66
     1
 10
0.0
 20
0.0
 30
0.0
  0
VERTEX
  5
BE
  8
2
 10
682.28964704605539
 20
366.47859868772622
 30
0.0
 42
-0.1235394496148151
  0
VERTEX
  5
BF
  8
2
 10
680.25001556316113
 20
363.73075110746993
 30
0.0
 42
-0.1055848245869267
  0
VERTEX
  5
C0
  8
2
 10
676.70559316671893
 20
361.90328775499768
 30
0.0
 42
-0.0872964065721319
 70
     2
 50
195.22064331441089
  0
VERTEX
  5
C1
  8
2
 10
672.17923516444012
 20
361.48797079086262
 30
0.0
 42
-0.0937574743961087
  0
VERTEX
  5
C2
  8
2
 10
668.0952594595185
 20
362.61657673301841
 30
0.0
 42
-0.077667298244456
  0
SEQEND
  5
C3
  8
2
  0
POLYLINE
  5
C4
  8
2
 66
     1
 10
0.0
 20
0.0
 30
0.0
  0
VERTEX
  5
C5
  8
2
 10
674.9835612420901
 20
379.2464083182216
 30
0.0
 42
-0.0776672982444522
  0
VERTEX
  5
C6
  8
2
 10
678.93714815395333
 20
376.83481548768458
 30
0.0
 42
-0.0872964065721361
  0
VERTEX
  5
C7
  8
2
 10
681.57635806803455
 20
373.66235443888519
 30
0.0
 42
-0.1055848245869243
 70
     2
 50
299.77935668558962
  0
VERTEX
  5
C8
  8
2
 10
682.79043145104549
 20
369.86385759806848
 30
0.0
 42
-0.1235394496148134
  0
VERTEX
  5
C9
  8
2
 10
682.28964704605539
 20
366.47859868772622
 30
0.0
 42
-0.1235394496148151
  0
SEQEND
  5
CA
  8
2
  0
POLYLINE
  5
CB
  8
2
 66
     1
 10
0.0
 20
0.0
 30
0.0
  0
VERTEX
  5
CC
  8
2
 10
676.36270975747209
 20
404.1798561151079
 30
0.0
 42
-0.0776672982444522
  0
VERTEX
  5
CD
  8
2
 10
680.93822440720385
 20
403.46480706780932
 30
0.0
 42
-0.0872964065721361
  0
VERTEX
  5
CE
  8
2
 10
684.59058471202366
 20
401.54381714578682
 30
0.0
 42
-0.1055848245869243
 70
     2
 50
322.27935668558962
  0
VERTEX
  5
CF
  8
2
 10
687.16586407042576
 20
398.49906942960132
 30
0.0
 42
-0.1235394496148134
  0
VERTEX
  5
D0
  8
2
 10
687.99868210770887
 20
395.1798561151079
 30
0.0
 42
-0.1235394496148151
  0
SEQEND
  5
D1
  8
2
  0
POLYLINE
  5
D2
  8
2
 66
     1
 10
0.0
 20
0.0
 30
0.0
  0
VERTEX
  5
D3
  8
2
 10
687.99868210770887
 20
395.1798561151079
 30
0.0
 42
-0.1235394496148151
  0
VERTEX
  5
D4
  8
2
 10
687.16586407042576
 20
391.8606428006147
 30
0.0
 42
-0.1055848245869267
  0
VERTEX
  5
D5
  8
2
 10
684.59058471202377
 20
388.81589508442897
 30
0.0
 42
-0.0872964065721319
 70
     2
 50
217.72064331441101
  0
VERTEX
  5
D6
  8
2
 10
680.56771011825424
 20
386.70003002533451
 30
0.0
 42
-0.0937574743961087
  0
VERTEX
  5
D7
  8
2
 10
676.36270975747209
 20
386.17985611510778
 30
0.0
 42
-0.077667298244456
  0
SEQEND
  5
D8
  8
2
  0
POLYLINE
  5
D9
  8
2
 66
     1
 10
0.0
 20
0.0
 30
0.0
  0
VERTEX
  5
DA
  8
2
 10
666.03169069669991
 20
342.14684752611669
 30
0.0
 42
-0.1235394496148151
  0
VERTEX
  5
DB
  8
2
 10
663.09576117215965
 20
340.38870056489122
 30
0.0
 42
-0.1055848245869267
  0
VERTEX
  5
DC
  8
2
 10
659.12180191726657
 20
340.05673630554992
 30
0.0
 42
-0.0872964065721319
 70
     2
 50
172.72064331441089
  0
VERTEX
  5
DD
  8
2
 10
654.78105748078792
 20
341.40519567930602
 30
0.0
 42
-0.0937574743961087
  0
VERTEX
  5
DE
  8
2
 10
651.43985471146925
 20
344.01076144998927
 30
0.0
 42
-0.077667298244456
  0
SEQEND
  5
DF
  8
2
  0
POLYLINE
  5
E0
  8
2
 66
     1
 10
0.0
 20
0.0
 30
0.0
  0
VERTEX
  5
E1
  8
2
 10
664.16777677282698
 20
356.73868351134729
 30
0.0
 42
-0.0776672982444522
  0
VERTEX
  5
E2
  8
2
 10
666.89753817884514
 20
352.99769004487769
 30
0.0
 42
-0.0872964065721361
  0
VERTEX
  5
E3
  8
2
 10
668.12180191726668
 20
349.05673630554998
 30
0.0
 42
-0.1055848245869243
 70
     2
 50
277.27935668558962
  0
VERTEX
  5
E4
  8
2
 10
667.78983765792532
 20
345.082777050657
 30
0.0
 42
-0.1235394496148134
  0
VERTEX
  5
E5
  8
2
 10
666.03169069669991
 20
342.14684752611669
 30
0.0
 42
-0.1235394496148151
  0
SEQEND
  5
E6
  8
2
  0
LINE
  5
E7
  8
0
 10
822.20812684366899
 20
333.44916723665477
 30
0.0
 11
846.98108305495964
 21
370.8423086876607
 31
0.0
  0
LINE
  5
E8
  8
0
 10
822.20812684366899
 20
355.0926436292379
 30
0.0
 11
834.80982533005749
 21
379.11112607974081
 31
0.0
  0
ARC
  5
E9
  8
0
 10
851.14933053269749
 20
368.08083933886269
 30
0.0
 40
5.0
 50
106.7132639641363
 51
146.47547521536001
  0
LINE
  5
EA
  8
0
 10
1003.0440954383949
 20
451.87985611510788
 30
0.0
 11
1028.044095438398
 21
451.87985611510788
 31
0.0
  0
CIRCLE
  5
EB
  8
0
 10
1015.5440954383949
 20
460.1798561151079
 30
0.0
 40
8.0
  0
ARC
  5
EC
  8
0
 10
1033.0317430696621
 20
451.52861388201728
 30
0.0
 40
4.9999999999995337
 50
72.745884672236244
 51
175.97174271014151
  0
ARC
  5
ED
  8
0
 10
998.05644780712726
 20
451.52861388201728
 30
0.0
 40
4.9999999999995337
 50
4.0282572898585087
 51
107.2541153277637
  0
ARC
  5
EE
  8
0
 10
1015.5440954383949
 20
460.1798561151079
 30
0.0
 40
15.0
 50
359.99999999999932
 51
180.0000000000006
  0
ARC
  5
EF
  8
0
 10
1015.5440954383949
 20
460.1798561151079
 30
0.0
 40
10.0
 50
0.0
 51
180.00000000000091
  0
LINE
  5
F0
  8
1
 10
995.54409543839517
 20
460.17985611510778
 30
0.0
 11
1035.5440954383951
 21
460.17985611510778
 31
0.0
  0
LINE
  5
F1
  8
0
 10
822.20812684366922
 20
406.6077666956308
 30
0.0
 11
834.30646629955925
 21
396.6933641946473
 31
0.0
  0
LINE
  5
F2
  8
0
 10
822.20812684366899
 20
433.66943559590032
 30
0.0
 11
847.01994244507785
 21
416.1731842224923
 31
0.0
  0
ARC
  5
F3
  8
2
 10
838.25683606436451
 20
411.18000440324522
 30
0.0
 40
8.0
 50
90.348856251628845
 51
120.4036462450696
  0
TEXT
  5
F4
  8
4
 10
368.40000000000009
 20
292.37416566746572
 30
0.0
 40
3.2000000000000002
  1
  
 50
90.0
  0
LINE
  5
F5
  8
0
 10
1005.544095438398
 20
460.17985611510778
 30
0.0
 11
1005.544095438398
 21
451.87985611510788
 31
0.0
  0
LINE
  5
F6
  8
0
 10
1025.5440954383921
 20
460.17985611510778
 30
0.0
 11
1025.5440954383921
 21
451.87985611510788
 31
0.0
  0
LINE
  5
F7
  8
0
 10
1000.544095438397
 20
460.17986150990407
 30
0.0
 11
1000.544095438397
 21
455.86584909152748
 31
0.0
  0
LINE
  5
F8
  8
0
 10
1030.544095438393
 20
460.17986150990407
 30
0.0
 11
1030.544095438393
 21
455.86584909152748
 31
0.0
  0
LINE
  5
F9
  8
0
 10
618.57631601466039
 20
451.87985611510788
 30
0.0
 11
625.49868210771126
 21
451.87985611510788
 31
0.0
  0
LINE
  5
FA
  8
0
 10
1018.04409543636
 20
461.62323178690758
 30
0.0
 11
1018.04409543636
 21
458.73648044095989
 31
0.0
  0
LINE
  5
FB
  8
0
 10
1018.044095436358
 20
458.73648044330781
 30
0.0
 11
1015.54409543636
 21
457.29310477033368
 31
0.0
  0
LINE
  5
FC
  8
0
 10
1015.5440954383949
 20
457.29310477151012
 30
0.0
 11
1013.0440954383949
 21
458.73648044448368
 31
0.0
  0
LINE
  5
FD
  8
0
 10
1013.044095440429
 20
458.73648044330957
 30
0.0
 11
1013.044095440429
 21
461.62323178925732
 31
0.0
  0
LINE
  5
FE
  8
0
 10
1013.044095440429
 20
461.62323178690758
 30
0.0
 11
1015.544095440429
 21
463.06660745988171
 31
0.0
  0
LINE
  5
FF
  8
0
 10
1015.5440954383949
 20
463.06660745870522
 30
0.0
 11
1018.0440954383949
 21
461.6232317857316
 31
0.0
  0
ARC
  5
100
  8
2
 10
838.25683606436451
 20
379.17970782697051
 30
0.0
 40
8.0
 50
239.59635375493031
 51
269.65114374837123
  0
ARC
  5
101
  8
2
 10
838.20812684366865
 20
411.17985611510778
 30
0.0
 40
40.0
 50
270.00000000000068
 51
286.71326686918189
  0
LINE
  5
102
  8
0
 10
852.4014636897017
 20
373.7826745478427
 30
0.0
 11
853.20812684366911
 21
375.1798561151079
 31
0.0
  0
LINE
  5
103
  8
0
 10
822.20812684366899
 20
334.64505792621333
 30
0.0
 11
846.2265129702995
 21
380.42342552443853
 31
0.0
  0
LINE
  5
104
  8
0
 10
800.20812684366911
 20
451.1798561151075
 30
0.0
 11
801.20812684366911
 21
451.17985611510738
 31
0.0
  0
LINE
  5
105
  8
2
 10
801.20812684366911
 20
375.72208706904848
 30
0.0
 11
820.70812684366967
 21
375.72208706904848
 31
0.0
  0
LINE
  5
106
  8
2
 10
801.20812684366911
 20
448.1798561151075
 30
0.0
 11
819.20812684366911
 21
448.1798561151075
 31
0.0
  0
LINE
  5
107
  8
2
 10
819.20812684366911
 20
451.17985611510738
 30
0.0
 11
819.20812684366911
 21
448.1798561151075
 31
0.0
  0
LINE
  5
108
  8
0
 10
800.20812684366911
 20
451.1798561151075
 30
0.0
 11
800.20812684366911
 21
448.1798561151075
 31
0.0
  0
ARC
  5
109
  8
2
 10
809.70812684366899
 20
414.1798561151075
 30
0.0
 40
40.0
 50
257.73110100404278
 51
285.96201416284617
  0
LINE
  5
10A
  8
0
 10
798.70812684366842
 20
424.17985611510761
 30
0.0
 11
798.70812684366842
 21
375.72208706904888
 31
0.0
  0
LINE
  5
10B
  8
2
 10
820.70812684366842
 20
424.17985611510761
 30
0.0
 11
820.70812684366842
 21
375.72208706904848
 31
0.0
  0
LINE
  5
10C
  8
0
 10
798.70812684366842
 20
424.17985611510761
 30
0.0
 11
799.6282627223942
 21
446.26311720453191
 31
0.0
  0
ARC
  5
10D
  8
0
 10
801.62652886857904
 20
446.1798561151075
 30
0.0
 40
2.0
 50
102.0755336524453
 51
177.6140559696112
  0
ARC
  5
10E
  8
2
 10
817.78972481875894
 20
446.1798561151075
 30
0.0
 40
2.0
 50
2.385944030388746
 51
90.0
  0
LINE
  5
10F
  8
2
 10
820.70812684366967
 20
424.17985611510761
 30
0.0
 11
819.78799096494367
 21
446.26311720453191
 31
0.0
  0
LINE
  5
110
  8
2
 10
801.20812684366911
 20
424.17985611510761
 30
0.0
 11
820.70812684366967
 21
424.17985611510761
 31
0.0
  0
LINE
  5
111
  8
2
 10
823.20812684366899
 20
470.17985611510733
 30
0.0
 11
801.20812684366888
 21
470.17985611510733
 31
0.0
  0
LINE
  5
112
  8
2
 10
801.20812684366911
 20
451.17985611510733
 30
0.0
 11
822.20812684366888
 21
451.17985611510733
 31
0.0
  0
ARC
  5
113
  8
0
 10
802.20812684366888
 20
452.67985611510733
 30
0.0
 40
1.5
 50
180.0
 51
228.18968510422209
  0
LINE
  5
114
  8
0
 10
801.20812684366888
 20
470.17985611510733
 30
0.0
 11
800.70812684366888
 21
469.67985611510733
 31
0.0
  0
LINE
  5
115
  8
0
 10
800.70812684366888
 20
469.67985611510733
 30
0.0
 11
800.70812684366888
 21
469.67985611510733
 31
0.0
  0
LINE
  5
116
  8
0
 10
800.70812684366899
 20
452.67984602236709
 30
0.0
 11
800.70812684367036
 21
469.67985611510858
 31
0.0
  0
LINE
  5
117
  8
1
 10
809.70812684366899
 20
473.53150265935358
 30
0.0
 11
809.70812684366899
 21
359.17985611511011
 31
0.0
  0
LINE
  5
118
  8
1
 10
845.20812684366911
 20
460.1798561151079
 30
0.0
 11
785.70812684366956
 21
460.17985611510778
 31
0.0
  0
LINE
  5
119
  8
2
 10
825.70812684366433
 20
464.17985611510352
 30
0.0
 11
825.70812684366445
 21
456.1798561151125
 31
0.0
  0
LINE
  5
11A
  8
2
 10
815.10812684366442
 20
462.97985611510433
 30
0.0
 11
815.10812684366442
 21
457.37985611511158
 31
0.0
  0
LINE
  5
11B
  8
2
 10
829.70812684366445
 20
452.1798561151125
 30
0.0
 11
830.10812684366454
 21
452.1798561151125
 31
0.0
  0
LINE
  5
11C
  8
2
 10
829.70812684366433
 20
468.17985611510329
 30
0.0
 11
830.10812684366431
 21
468.17985611510329
 31
0.0
  0
LINE
  5
11D
  8
2
 10
830.10812684366431
 20
468.17985611510329
 30
0.0
 11
830.10812684366454
 21
452.17985611511239
 31
0.0
  0
LINE
  5
11E
  8
2
 10
829.70812684366445
 20
468.17985611510352
 30
0.0
 11
825.70812684366433
 21
464.17985611510352
 31
0.0
  0
LINE
  5
11F
  8
2
 10
816.30812684366447
 20
456.1798561151117
 30
0.0
 11
825.70812684366513
 21
456.1798561151117
 31
0.0
  0
LINE
  5
120
  8
2
 10
816.30812684366447
 20
464.17985611510431
 30
0.0
 11
825.70812684366513
 21
464.17985611510431
 31
0.0
  0
LINE
  5
121
  8
2
 10
816.30812684366435
 20
464.1798561151042
 30
0.0
 11
816.30812684366447
 21
456.17985611511182
 31
0.0
  0
LINE
  5
122
  8
2
 10
815.10812684366442
 20
457.37985611511158
 30
0.0
 11
816.30812684366447
 21
456.1798561151117
 31
0.0
  0
LINE
  5
123
  8
2
 10
815.10812684366442
 20
462.97985611510433
 30
0.0
 11
816.30812684366447
 21
464.17985611510431
 31
0.0
  0
LINE
  5
124
  8
2
 10
824.5081268436644
 20
456.85635611510793
 30
0.0
 11
815.6316268436683
 21
456.85635611510793
 31
0.0
  0
LINE
  5
125
  8
2
 10
824.5081268436644
 20
464.17985611510352
 30
0.0
 11
824.50812684366463
 21
456.1798561151125
 31
0.0
  0
LINE
  5
126
  8
2
 10
824.5081268436644
 20
463.50335611510781
 30
0.0
 11
815.6316268436683
 21
463.50335611510781
 31
0.0
  0
LINE
  5
127
  8
0
 10
822.20812684366888
 20
451.1798561151079
 30
0.0
 11
822.70812684366888
 21
451.1798561151079
 31
0.0
  0
LINE
  5
128
  8
2
 10
823.20812684366899
 20
451.87985611510788
 30
0.0
 11
823.20812684366899
 21
470.17985611510733
 31
0.0
  0
LINE
  5
129
  8
0
 10
822.70812684366888
 20
451.1798561151079
 30
0.0
 11
823.20812684366877
 21
451.6798561151079
 31
0.0
  0
ARC
  5
12A
  8
2
 10
802.20812684366888
 20
452.67985611510733
 30
0.0
 40
1.5
 50
228.18968510422209
 51
270.00000000000188
  0
LINE
  5
12B
  8
1
 10
831.20812684365933
 20
467.1798561151079
 30
0.0
 11
815.20812684367661
 21
467.1798561151079
 31
0.0
  0
LINE
  5
12C
  8
2
 10
826.20812684365944
 20
465.67985611511762
 30
0.0
 11
820.20812684367388
 21
465.67985611511762
 31
0.0
  0
LINE
  5
12D
  8
2
 10
826.20812684365944
 20
468.67985611509818
 30
0.0
 11
820.20812684367388
 21
468.67985611509818
 31
0.0
  0
LINE
  5
12E
  8
2
 10
820.20812684367388
 20
468.67985611509818
 30
0.0
 11
820.20812684367388
 21
465.67985611511762
 31
0.0
  0
LINE
  5
12F
  8
2
 10
826.20812684365944
 20
468.67985611509818
 30
0.0
 11
826.20812684365944
 21
465.67985611511762
 31
0.0
  0
ARC
  5
130
  8
0
 10
819.20812684366911
 20
472.1798561151079
 30
0.0
 40
3.0
 50
0.0
 51
90.0
  0
LINE
  5
131
  8
0
 10
822.20812684366899
 20
413.79806008544318
 30
0.0
 11
847.47511271782378
 21
394.54675885643201
 31
0.0
  0
LINE
  5
132
  8
0
 10
852.40146368970045
 20
416.57703768237508
 30
0.0
 11
852.40146368970136
 21
373.78267454784191
 31
0.0
  0
LINE
  5
133
  8
0
 10
853.20812684366933
 20
375.1798561151079
 30
0.0
 11
853.20812684366911
 21
415.17985611510778
 31
0.0
  0
ARC
  5
134
  8
0
 10
833.03878394317132
 20
380.04032595381028
 30
0.0
 40
2.0
 50
332.31530510586077
 51
54.220217130878687
  0
ARC
  5
135
  8
0
 10
833.03878394317155
 20
395.14643774413241
 30
0.0
 40
2.0
 50
305.77978286918972
 51
50.66591028641632
  0
ARC
  5
136
  8
0
 10
850.5053551233766
 20
398.52389739608469
 30
0.0
 40
5.0
 50
232.69567241653931
 51
260.86349398087941
  0
ARC
  5
137
  8
0
 10
850.65410964171895
 20
378.10041288666901
 30
0.0
 40
5.0
 50
100.8674799025795
 51
152.3154986501599
  0
ARC
  5
138
  8
0
 10
849.90138268902365
 20
420.25941746602717
 30
0.0
 40
5.0
 50
234.81011497156231
 51
267.82265580432647
  0
LINE
  5
139
  8
2
 10
834.20812684366911
 20
396.77395186132492
 30
0.0
 11
834.20812684366911
 21
418.07985611510759
 31
0.0
  0
LINE
  5
13A
  8
0
 10
834.20812684366911
 20
377.96430570854852
 30
0.0
 11
834.20812684366911
 21
396.77395186132492
 31
0.0
  0
ARC
  5
13B
  8
2
 10
838.20812684366865
 20
379.1798561151079
 30
0.0
 40
40.0
 50
82.831728084674012
 51
89.999999999999346
  0
ARC
  5
13C
  8
0
 10
838.20812684366865
 20
411.17985611510778
 30
0.0
 40
40.0
 50
286.71326686918189
 51
290.78323549593671
  0
LINE
  5
13D
  8
0
 10
609.99868210770921
 20
460.1798561151079
 30
0.0
 11
609.99868210770921
 21
451.1798561151079
 31
0.0
  0
LINE
  5
13E
  8
0
 10
615.99868210770785
 20
460.1798561151079
 30
0.0
 11
615.99868210770785
 21
451.1798561151079
 31
0.0
  0
LINE
  5
13F
  8
0
 10
610.49868210770853
 20
451.1798561151079
 30
0.0
 11
610.49868210770853
 21
455.84972909618659
 31
0.0
  0
LINE
  5
140
  8
0
 10
615.49868210770853
 20
451.1798561151079
 30
0.0
 11
615.49868210770853
 21
455.84972909618568
 31
0.0
  0
ARC
  5
141
  8
0
 10
612.99868210770853
 20
460.1798561151079
 30
0.0
 40
5.0
 50
233.13010235416829
 51
306.86989764583819
  0
ARC
  5
142
  8
0
 10
612.99868210770853
 20
460.1798561151079
 30
0.0
 40
9.999999999999261
 50
295.84193276314971
 51
244.1580672368504
  0
ARC
  5
143
  8
0
 10
612.99868210770853
 20
460.1798561151079
 30
0.0
 40
3.0
 50
0.0
 51
180.0
  0
LINE
  5
144
  8
1
 10
637.9986821077074
 20
460.1798561151079
 30
0.0
 11
587.99868210771092
 21
460.1798561151079
 31
0.0
  0
LINE
  5
145
  8
0
 10
601.99868210770785
 20
424.17985611510778
 30
0.0
 11
623.99868210770921
 21
424.17985611510778
 31
0.0
  0
LINE
  5
146
  8
0
 10
623.99868210770921
 20
424.17985611510778
 30
0.0
 11
623.07854622898321
 21
446.26311720453219
 31
0.0
  0
ARC
  5
147
  8
0
 10
621.08028008279837
 20
446.1798561151079
 30
0.0
 40
2.0
 50
2.385944030388746
 51
90.0
  0
ARC
  5
148
  8
0
 10
604.91708413261847
 20
446.1798561151079
 30
0.0
 40
2.0
 50
90.0
 51
177.6140559696112
  0
LINE
  5
149
  8
0
 10
601.99868210770785
 20
424.17985611510778
 30
0.0
 11
602.91881798643385
 21
446.26311720453219
 31
0.0
  0
LINE
  5
14A
  8
0
 10
623.99868210770785
 20
424.17985611510778
 30
0.0
 11
623.99868210770785
 21
375.72208706904883
 31
0.0
  0
LINE
  5
14B
  8
0
 10
601.99868210770785
 20
424.17985611510778
 30
0.0
 11
601.99868210770785
 21
375.72208706904928
 31
0.0
  0
ARC
  5
14C
  8
0
 10
612.99868210770853
 20
414.1798561151079
 30
0.0
 40
40.0
 50
254.03798583715169
 51
285.96201416284617
  0
LINE
  5
14D
  8
0
 10
603.49868210770853
 20
451.1798561151079
 30
0.0
 11
622.49868210770853
 21
451.1798561151079
 31
0.0
  0
LINE
  5
14E
  8
0
 10
603.49868210770853
 20
451.1798561151079
 30
0.0
 11
603.49868210770853
 21
448.17985611510778
 31
0.0
  0
LINE
  5
14F
  8
0
 10
622.49868210770853
 20
451.1798561151079
 30
0.0
 11
622.49868210770853
 21
448.17985611510778
 31
0.0
  0
LINE
  5
150
  8
0
 10
603.49868210770853
 20
448.17985611510778
 30
0.0
 11
622.49868210770853
 21
448.17985611510778
 31
0.0
  0
LINE
  5
151
  8
0
 10
601.99868210770785
 20
375.72208706904883
 30
0.0
 11
623.99868210770921
 21
375.72208706904883
 31
0.0
  0
LINE
  5
152
  8
2
 10
829.70812684366433
 20
468.17985611510329
 30
0.0
 11
829.70812684366445
 21
452.17985611511239
 31
0.0
  0
ARC
  5
153
  8
0
 10
1015.5440954383949
 20
460.17985611510778
 30
0.0
 40
8.4999999999996572
 50
282.45370059424403
 51
257.54629940575597
  0
CIRCLE
  5
154
  8
0
 10
323.98842850603882
 20
460.17985611510778
 30
0.0
 40
11.0
  0
LINE
  5
155
  8
1
 10
349.98842850603847
 20
460.1798561151079
 30
0.0
 11
297.98842850603933
 21
460.1798561151079
 31
0.0
  0
LINE
  5
156
  8
0
 10
331.20715415534738
 20
451.87985611510788
 30
0.0
 11
336.4884285060416
 21
451.87985611510788
 31
0.0
  0
POLYLINE
  5
157
  8
2
 66
     1
 10
0.0
 20
0.0
 30
0.0
  0
VERTEX
  5
158
  8
2
 10
375.15752317115732
 20
356.73868351134729
 30
0.0
 42
-0.0776672982444522
  0
VERTEX
  5
159
  8
2
 10
377.88728457717542
 20
352.99769004487769
 30
0.0
 42
-0.0872964065721361
  0
VERTEX
  5
15A
  8
2
 10
379.11154831559691
 20
349.05673630554998
 30
0.0
 42
-0.1055848245869243
 70
     2
 50
277.27935668558962
  0
VERTEX
  5
15B
  8
2
 10
378.7795840562556
 20
345.082777050657
 30
0.0
 42
-0.1235394496148134
  0
VERTEX
  5
15C
  8
2
 10
377.02143709503008
 20
342.14684752611669
 30
0.0
 42
-0.1235394496148151
  0
SEQEND
  5
15D
  8
2
  0
POLYLINE
  5
15E
  8
2
 66
     1
 10
0.0
 20
0.0
 30
0.0
  0
VERTEX
  5
15F
  8
2
 10
377.02143709503008
 20
342.14684752611669
 30
0.0
 42
-0.1235394496148151
  0
VERTEX
  5
160
  8
2
 10
374.08550757048988
 20
340.38870056489122
 30
0.0
 42
-0.1055848245869267
  0
VERTEX
  5
161
  8
2
 10
370.11154831559691
 20
340.05673630554992
 30
0.0
 42
-0.0872964065721319
 70
     2
 50
172.72064331441089
  0
VERTEX
  5
162
  8
2
 10
365.77080387911809
 20
341.40519567930602
 30
0.0
 42
-0.0937574743961087
  0
VERTEX
  5
163
  8
2
 10
362.42960110979948
 20
344.01076144998927
 30
0.0
 42
-0.077667298244456
  0
SEQEND
  5
164
  8
2
  0
POLYLINE
  5
165
  8
2
 66
     1
 10
0.0
 20
0.0
 30
0.0
  0
VERTEX
  5
166
  8
2
 10
398.98842850603921
 20
395.1798561151079
 30
0.0
 42
-0.1235394496148151
  0
VERTEX
  5
167
  8
2
 10
398.15561046875598
 20
391.8606428006147
 30
0.0
 42
-0.1055848245869267
  0
VERTEX
  5
168
  8
2
 10
395.580331110354
 20
388.81589508442897
 30
0.0
 42
-0.0872964065721319
 70
     2
 50
217.72064331441101
  0
VERTEX
  5
169
  8
2
 10
391.55745651658452
 20
386.70003002533451
 30
0.0
 42
-0.0937574743961087
  0
VERTEX
  5
16A
  8
2
 10
387.35245615580232
 20
386.17985611510778
 30
0.0
 42
-0.077667298244456
  0
SEQEND
  5
16B
  8
2
  0
POLYLINE
  5
16C
  8
2
 66
     1
 10
0.0
 20
0.0
 30
0.0
  0
VERTEX
  5
16D
  8
2
 10
387.35245615580232
 20
404.1798561151079
 30
0.0
 42
-0.0776672982444522
  0
VERTEX
  5
16E
  8
2
 10
391.92797080553407
 20
403.46480706780932
 30
0.0
 42
-0.0872964065721361
  0
VERTEX
  5
16F
  8
2
 10
395.58033111035388
 20
401.54381714578682
 30
0.0
 42
-0.1055848245869243
 70
     2
 50
322.27935668558962
  0
VERTEX
  5
170
  8
2
 10
398.15561046875598
 20
398.49906942960132
 30
0.0
 42
-0.1235394496148134
  0
VERTEX
  5
171
  8
2
 10
398.98842850603921
 20
395.1798561151079
 30
0.0
 42
-0.1235394496148151
  0
SEQEND
  5
172
  8
2
  0
POLYLINE
  5
173
  8
2
 66
     1
 10
0.0
 20
0.0
 30
0.0
  0
VERTEX
  5
174
  8
2
 10
385.97330764042027
 20
379.2464083182216
 30
0.0
 42
-0.0776672982444522
  0
VERTEX
  5
175
  8
2
 10
389.92689455228361
 20
376.83481548768458
 30
0.0
 42
-0.0872964065721361
  0
VERTEX
  5
176
  8
2
 10
392.56610446636489
 20
373.66235443888519
 30
0.0
 42
-0.1055848245869243
 70
     2
 50
299.77935668558962
  0
VERTEX
  5
177
  8
2
 10
393.78017784937572
 20
369.86385759806848
 30
0.0
 42
-0.1235394496148134
  0
VERTEX
  5
178
  8
2
 10
393.27939344438562
 20
366.47859868772622
 30
0.0
 42
-0.1235394496148151
  0
SEQEND
  5
179
  8
2
  0
POLYLINE
  5
17A
  8
2
 66
     1
 10
0.0
 20
0.0
 30
0.0
  0
VERTEX
  5
17B
  8
2
 10
393.27939344438562
 20
366.47859868772622
 30
0.0
 42
-0.1235394496148151
  0
VERTEX
  5
17C
  8
2
 10
391.23976196149141
 20
363.73075110746993
 30
0.0
 42
-0.1055848245869267
  0
VERTEX
  5
17D
  8
2
 10
387.69533956504921
 20
361.90328775499768
 30
0.0
 42
-0.0872964065721319
 70
     2
 50
195.22064331441089
  0
VERTEX
  5
17E
  8
2
 10
383.16898156277028
 20
361.48797079086262
 30
0.0
 42
-0.0937574743961087
  0
VERTEX
  5
17F
  8
2
 10
379.08500585784873
 20
362.61657673301841
 30
0.0
 42
-0.077667298244456
  0
SEQEND
  5
180
  8
2
  0
POLYLINE
  5
181
  8
2
 66
     1
 10
0.0
 20
0.0
 30
0.0
  0
VERTEX
  5
182
  8
2
 10
347.87621369686048
 20
454.55471374590257
 30
0.0
 42
-0.0776672982444522
  0
VERTEX
  5
183
  8
2
 10
350.78322166163889
 20
458.159701144309
 30
0.0
 42
-0.0872964065721361
  0
VERTEX
  5
184
  8
2
 10
354.27302788693419
 20
460.3622429910456
 30
0.0
 42
-0.1055848245869243
 70
     2
 50
22.279356685589569
  0
VERTEX
  5
185
  8
2
 10
358.19749643646662
 20
461.0701264791706
 30
0.0
 42
-0.1235394496148134
  0
VERTEX
  5
186
  8
2
 10
361.48842850603899
 20
460.13176139894108
 30
0.0
 42
-0.1235394496148151
  0
SEQEND
  5
187
  8
2
  0
POLYLINE
  5
188
  8
2
 66
     1
 10
0.0
 20
0.0
 30
0.0
  0
VERTEX
  5
189
  8
2
 10
361.48842850603899
 20
460.13176139894108
 30
0.0
 42
-0.1235394496148151
  0
VERTEX
  5
18A
  8
2
 10
363.946542538328
 20
457.75091316467729
 30
0.0
 42
-0.1055848245869267
  0
VERTEX
  5
18B
  8
2
 10
365.29573172945862
 20
453.99828196036663
 30
0.0
 42
-0.0872964065721319
 70
     2
 50
277.72064331441089
  0
VERTEX
  5
18C
  8
2
 10
365.11668732472953
 20
449.4564378363761
 30
0.0
 42
-0.0937574743961087
  0
VERTEX
  5
18D
  8
2
 10
363.4646709649806
 20
445.55471374590257
 30
0.0
 42
-0.077667298244456
  0
SEQEND
  5
18E
  8
2
  0
POLYLINE
  5
18F
  8
2
 66
     1
 10
0.0
 20
0.0
 30
0.0
  0
VERTEX
  5
190
  8
2
 10
286.48842850603847
 20
460.13176139894108
 30
0.0
 42
0.1235394496148151
 50
300.0
  0
VERTEX
  5
191
  8
2
 10
284.0303144737494
 20
457.75091316467729
 30
0.0
 42
0.1055848245869267
 50
300.0
  0
VERTEX
  5
192
  8
2
 10
282.68112528261889
 20
453.99828196036663
 30
0.0
 42
0.0872964065721319
 70
     2
 50
262.27935668558899
  0
VERTEX
  5
193
  8
2
 10
282.86016968734799
 20
449.4564378363761
 30
0.0
 42
0.0937574743961087
 50
262.27935668558899
  0
VERTEX
  5
194
  8
2
 10
284.5121860470968
 20
445.55471374590257
 30
0.0
 42
0.077667298244456
 50
300.0
  0
SEQEND
  5
195
  8
2
  0
POLYLINE
  5
196
  8
2
 66
     1
 10
0.0
 20
0.0
 30
0.0
  0
VERTEX
  5
197
  8
2
 10
300.10064331521693
 20
454.55471374590257
 30
0.0
 42
0.0776672982444522
 50
300.0
  0
VERTEX
  5
198
  8
2
 10
297.19363535043851
 20
458.159701144309
 30
0.0
 42
0.0872964065721361
 50
300.0
  0
VERTEX
  5
199
  8
2
 10
293.70382912514327
 20
460.3622429910456
 30
0.0
 42
0.1055848245869243
 70
     2
 50
157.72064331441041
  0
VERTEX
  5
19A
  8
2
 10
289.77936057561089
 20
461.0701264791706
 30
0.0
 42
0.1235394496148134
 50
157.72064331441041
  0
VERTEX
  5
19B
  8
2
 10
286.48842850603847
 20
460.13176139894108
 30
0.0
 42
0.1235394496148151
 50
300.0
  0
SEQEND
  5
19C
  8
2
  0
POLYLINE
  5
19D
  8
2
 66
     1
 10
0.0
 20
0.0
 30
0.0
  0
VERTEX
  5
19E
  8
2
 10
270.95541991704738
 20
342.14684752611669
 30
0.0
 42
0.1235394496148151
 50
45.0
  0
VERTEX
  5
19F
  8
2
 10
273.89134944158758
 20
340.38870056489122
 30
0.0
 42
0.1055848245869267
 50
45.0
  0
VERTEX
  5
1A0
  8
2
 10
277.86530869648061
 20
340.05673630554992
 30
0.0
 42
0.0872964065721319
 70
     2
 50
7.279356685589021
  0
VERTEX
  5
1A1
  8
2
 10
282.20605313295943
 20
341.40519567930602
 30
0.0
 42
0.0937574743961087
 50
7.279356685589021
  0
VERTEX
  5
1A2
  8
2
 10
285.54725590227798
 20
344.01076144998927
 30
0.0
 42
0.077667298244456
 50
45.0
  0
SEQEND
  5
1A3
  8
2
  0
POLYLINE
  5
1A4
  8
2
 66
     1
 10
0.0
 20
0.0
 30
0.0
  0
VERTEX
  5
1A5
  8
2
 10
272.81933384092008
 20
356.73868351134729
 30
0.0
 42
0.0776672982444522
 50
45.0
  0
VERTEX
  5
1A6
  8
2
 10
270.08957243490198
 20
352.99769004487769
 30
0.0
 42
0.0872964065721361
 50
45.0
  0
VERTEX
  5
1A7
  8
2
 10
268.86530869648061
 20
349.05673630554998
 30
0.0
 42
0.1055848245869243
 70
     2
 50
262.72064331441038
  0
VERTEX
  5
1A8
  8
2
 10
269.1972729558218
 20
345.082777050657
 30
0.0
 42
0.1235394496148134
 50
262.72064331441038
  0
VERTEX
  5
1A9
  8
2
 10
270.95541991704738
 20
342.14684752611669
 30
0.0
 42
0.1235394496148151
 50
45.0
  0
SEQEND
  5
1AA
  8
2
  0
POLYLINE
  5
1AB
  8
2
 66
     1
 10
0.0
 20
0.0
 30
0.0
  0
VERTEX
  5
1AC
  8
2
 10
254.6974635676919
 20
366.47859868772622
 30
0.0
 42
0.1235394496148151
 50
22.5
  0
VERTEX
  5
1AD
  8
2
 10
256.73709505058628
 20
363.73075110746993
 30
0.0
 42
0.1055848245869267
 50
22.5
  0
VERTEX
  5
1AE
  8
2
 10
260.28151744702842
 20
361.90328775499768
 30
0.0
 42
0.0872964065721319
 70
     2
 50
344.77935668558911
  0
VERTEX
  5
1AF
  8
2
 10
264.80787544930718
 20
361.48797079086262
 30
0.0
 42
0.0937574743961087
 50
344.77935668558911
  0
VERTEX
  5
1B0
  8
2
 10
268.89185115422879
 20
362.61657673301841
 30
0.0
 42
0.077667298244456
 50
22.5
  0
SEQEND
  5
1B1
  8
2
  0
POLYLINE
  5
1B2
  8
2
 66
     1
 10
0.0
 20
0.0
 30
0.0
  0
VERTEX
  5
1B3
  8
2
 10
262.00354937165719
 20
379.2464083182216
 30
0.0
 42
0.0776672982444522
 50
22.5
  0
VERTEX
  5
1B4
  8
2
 10
258.04996245979402
 20
376.83481548768458
 30
0.0
 42
0.0872964065721361
 50
22.5
  0
VERTEX
  5
1B5
  8
2
 10
255.4107525457126
 20
373.66235443888519
 30
0.0
 42
0.1055848245869243
 70
     2
 50
240.22064331441049
  0
VERTEX
  5
1B6
  8
2
 10
254.19667916270191
 20
369.86385759806848
 30
0.0
 42
0.1235394496148134
 50
240.22064331441049
  0
VERTEX
  5
1B7
  8
2
 10
254.6974635676919
 20
366.47859868772622
 30
0.0
 42
0.1235394496148151
 50
22.5
  0
SEQEND
  5
1B8
  8
2
  0
POLYLINE
  5
1B9
  8
2
 66
     1
 10
0.0
 20
0.0
 30
0.0
  0
VERTEX
  5
1BA
  8
2
 10
260.62440085627532
 20
404.1798561151079
 30
0.0
 42
0.0776672982444522
  0
VERTEX
  5
1BB
  8
2
 10
256.04888620654327
 20
403.46480706780932
 30
0.0
 42
0.0872964065721361
  0
VERTEX
  5
1BC
  8
2
 10
252.39652590172361
 20
401.54381714578682
 30
0.0
 42
0.1055848245869243
 70
     2
 50
217.72064331441041
  0
VERTEX
  5
1BD
  8
2
 10
249.82124654332159
 20
398.49906942960132
 30
0.0
 42
0.1235394496148134
 50
217.72064331441041
  0
VERTEX
  5
1BE
  8
2
 10
248.98842850603839
 20
395.1798561151079
 30
0.0
 42
0.1235394496148151
  0
SEQEND
  5
1BF
  8
2
  0
POLYLINE
  5
1C0
  8
2
 66
     1
 10
0.0
 20
0.0
 30
0.0
  0
VERTEX
  5
1C1
  8
2
 10
248.98842850603839
 20
395.1798561151079
 30
0.0
 42
0.1235394496148151
  0
VERTEX
  5
1C2
  8
2
 10
249.82124654332159
 20
391.8606428006147
 30
0.0
 42
0.1055848245869267
  0
VERTEX
  5
1C3
  8
2
 10
252.39652590172361
 20
388.81589508442897
 30
0.0
 42
0.0872964065721319
 70
     2
 50
322.27935668558899
  0
VERTEX
  5
1C4
  8
2
 10
256.41940049549288
 20
386.70003002533451
 30
0.0
 42
0.0937574743961087
 50
322.27935668558899
  0
VERTEX
  5
1C5
  8
2
 10
260.6244008562752
 20
386.17985611510778
 30
0.0
 42
0.077667298244456
  0
SEQEND
  5
1C6
  8
2
  0
ARC
  5
1C7
  8
0
 10
323.98842850603882
 20
395.1798561151079
 30
0.0
 40
67.0
 50
109.6157603519836
 51
70.384239648016333
  0
ARC
  5
1C8
  8
0
 10
323.98842850603882
 20
395.1798561151079
 30
0.0
 40
64.0
 50
107.24253545552931
 51
129.85290418090841
  0
ARC
  5
1C9
  8
0
 10
306.50078087477118
 20
451.52861388201728
 30
0.0
 40
4.9999999999995337
 50
4.0282572898585087
 51
107.2541153277637
  0
ARC
  5
1CA
  8
0
 10
304.0168162047824
 20
451.22792849665501
 30
0.0
 40
7.4999999999996536
 50
4.9866532719833954
 51
109.641538259857
  0
ARC
  5
1CB
  8
0
 10
343.960040807295
 20
451.22792849665501
 30
0.0
 40
7.4999999999996536
 50
70.358461740142957
 51
175.01334672801659
  0
LINE
  5
1CC
  8
0
 10
311.48842850603938
 20
451.87985611510788
 30
0.0
 11
316.76970285673019
 21
451.87985611510788
 31
0.0
  0
ARC
  5
1CD
  8
0
 10
341.47607613730628
 20
451.52861388201728
 30
0.0
 40
4.9999999999995337
 50
72.745884672236244
 51
175.97174271014151
  0
ARC
  5
1CE
  8
0
 10
323.98842850603882
 20
395.1798561151079
 30
0.0
 40
24.0
 50
193.60718467390569
 51
198.42866960382301
  0
ARC
  5
1CF
  8
0
 10
323.98842850603882
 20
395.1798561151079
 30
0.0
 40
24.0
 50
341.57133039617702
 51
346.39281532609431
  0
ARC
  5
1D0
  8
0
 10
323.98842850603882
 20
395.1798561151079
 30
0.0
 40
64.0
 50
50.147095819091518
 51
72.757464544470665
  0
ARC
  5
1D1
  8
0
 10
323.98842850603882
 20
395.1798561151079
 30
0.0
 40
64.0
 50
302.3923654858429
 51
9.8529041809075384
  0
ARC
  5
1D2
  8
0
 10
323.98842850603882
 20
395.1798561151079
 30
0.0
 40
64.0
 50
170.1470958190925
 51
237.6076345141571
  0
ARC
  5
1D3
  8
0
 10
286.0830997328078
 20
386.00456044721278
 30
0.0
 40
15.00000000000029
 50
13.607184673905881
 51
58.567903815838129
  0
ARC
  5
1D4
  8
0
 10
268.81441085872558
 20
404.76253719370141
 30
0.0
 40
7.9999999999995568
 50
58.567903815836651
 51
170.14709581909241
  0
LINE
  5
1D5
  8
0
 10
293.90541516748277
 20
398.80344247809558
 30
0.0
 11
272.98631242388558
 21
411.58860761017149
 31
0.0
  0
ARC
  5
1D6
  8
0
 10
288.10257443195519
 20
438.17061648723461
 30
0.0
 40
7.9999999999998943
 50
129.8529041809085
 51
241.4320961841666
  0
LINE
  5
1D7
  8
0
 10
305.80880130645289
 20
419.42071817032092
 30
0.0
 11
284.2769748258508
 21
431.14460854148228
 31
0.0
  0
LINE
  5
1D8
  8
0
 10
342.16805570562451
 20
419.42071817032092
 30
0.0
 11
363.69988218622677
 21
431.14460854148251
 31
0.0
  0
ARC
  5
1D9
  8
0
 10
359.87428258012233
 20
438.17061648723461
 30
0.0
 40
7.9999999999998943
 50
298.5679038158334
 51
50.147095819091483
  0
LINE
  5
1DA
  8
0
 10
354.07144184459457
 20
398.80344247809558
 30
0.0
 11
374.99054181089957
 21
411.5886059127688
 31
0.0
  0
ARC
  5
1DB
  8
0
 10
379.16244615335188
 20
404.76253719370141
 30
0.0
 40
7.9999999999995568
 50
9.8529041809075881
 51
121.4320961841633
  0
ARC
  5
1DC
  8
0
 10
361.89375727926972
 20
386.00456044721278
 30
0.0
 40
15.00000000000029
 50
121.43209618416191
 51
166.39281532609411
  0
ARC
  5
1DD
  8
0
 10
293.9884285060387
 20
347.89349444496003
 30
0.0
 40
8.0000000000000853
 50
237.6076345141569
 51
359.99999999999989
  0
ARC
  5
1DE
  8
0
 10
286.98842850603819
 20
382.8510281091705
 30
0.0
 40
15.0000000000003
 50
359.99999999999989
 51
18.428669603823089
  0
LINE
  5
1DF
  8
0
 10
301.98842850603847
 20
382.8510281091705
 30
0.0
 11
301.9884285060387
 21
347.89349444496003
 31
0.0
  0
LINE
  5
1E0
  8
0
 10
345.98842850603899
 20
382.8510281091705
 30
0.0
 11
345.9884285060387
 21
347.89349444496003
 31
0.0
  0
ARC
  5
1E1
  8
0
 10
360.98842850603921
 20
382.8510281091705
 30
0.0
 40
15.0000000000003
 50
161.5713303961769
 51
180.00000000000011
  0
ARC
  5
1E2
  8
0
 10
353.98842850603887
 20
347.89349444496003
 30
0.0
 40
8.0000000000000853
 50
180.00000000000011
 51
302.39236548584302
  0
LINE
  5
1E3
  8
1
 10
323.98842850603882
 20
490.17985611510773
 30
0.0
 11
323.98842850603882
 21
300.17985611510778
 31
0.0
  0
LINE
  5
1E4
  8
1
 10
418.9884285060387
 20
395.1798561151079
 30
0.0
 11
228.9884285060389
 21
395.1798561151079
 31
0.0
  0
CIRCLE
  5
1E5
  8
0
 10
323.98842850603882
 20
395.1798561151079
 30
0.0
 40
80.0
  0
LINE
  5
1E6
  8
2
 10
80.399882878748372
 20
468.17985611510329
 30
0.0
 11
80.399882878748244
 21
452.17985611511239
 31
0.0
  0
ARC
  5
1E7
  8
0
 10
71.899882878744165
 20
411.17985611510778
 30
0.0
 40
40.0
 50
249.21676450406341
 51
253.28673313081819
  0
ARC
  5
1E8
  8
2
 10
71.899882878744165
 20
379.1798561151079
 30
0.0
 40
40.0
 50
90.000000000000668
 51
97.168271915326017
  0
LINE
  5
1E9
  8
0
 10
75.899882878743711
 20
377.96430570854852
 30
0.0
 11
75.899882878743711
 21
396.77395186132492
 31
0.0
  0
LINE
  5
1EA
  8
2
 10
75.899882878743711
 20
396.77395186132492
 30
0.0
 11
75.899882878743711
 21
418.07985611510759
 31
0.0
  0
ARC
  5
1EB
  8
0
 10
60.206627033389047
 20
420.25941746602717
 30
0.0
 40
5.0
 50
272.17734419567358
 51
305.1898850284378
  0
ARC
  5
1EC
  8
0
 10
59.45390008069387
 20
378.10041288666901
 30
0.0
 40
5.0
 50
27.68450134984009
 51
79.132520097420468
  0
ARC
  5
1ED
  8
0
 10
59.602654599036207
 20
398.52389739608469
 30
0.0
 40
5.0
 50
279.1365060191207
 51
307.30432758346069
  0
ARC
  5
1EE
  8
0
 10
77.069225779241378
 20
395.14643774413241
 30
0.0
 40
2.0
 50
129.33408971358369
 51
234.2202171308104
  0
ARC
  5
1EF
  8
0
 10
77.069225779241492
 20
380.04032595381028
 30
0.0
 40
2.0
 50
125.77978286912131
 51
207.6846948941392
  0
LINE
  5
1F0
  8
0
 10
56.899882878743597
 20
375.1798561151079
 30
0.0
 11
56.899882878743711
 21
415.17985611510778
 31
0.0
  0
LINE
  5
1F1
  8
0
 10
57.706546032712247
 20
416.57703768237508
 30
0.0
 11
57.706546032711458
 21
373.78267454784191
 31
0.0
  0
LINE
  5
1F2
  8
0
 10
87.899882878743696
 20
413.79806008544318
 30
0.0
 11
62.632897004588919
 21
394.54675885643201
 31
0.0
  0
ARC
  5
1F3
  8
0
 10
90.899882878743711
 20
472.1798561151079
 30
0.0
 40
3.0
 50
90.000000000000028
 51
180.0
  0
LINE
  5
1F4
  8
2
 10
83.899882878753488
 20
468.67985611509818
 30
0.0
 11
83.899882878753488
 21
465.67985611511762
 31
0.0
  0
LINE
  5
1F5
  8
2
 10
89.899882878738936
 20
468.67985611509818
 30
0.0
 11
89.899882878738936
 21
465.67985611511762
 31
0.0
  0
LINE
  5
1F6
  8
2
 10
83.899882878753488
 20
468.67985611509818
 30
0.0
 11
89.899882878738936
 21
468.67985611509818
 31
0.0
  0
LINE
  5
1F7
  8
2
 10
83.899882878753488
 20
465.67985611511762
 30
0.0
 11
89.899882878738936
 21
465.67985611511762
 31
0.0
  0
LINE
  5
1F8
  8
1
 10
78.899882878753488
 20
467.1798561151079
 30
0.0
 11
94.899882878736193
 21
467.1798561151079
 31
0.0
  0
ARC
  5
1F9
  8
2
 10
107.8998828787438
 20
452.67985611510733
 30
0.0
 40
1.5
 50
269.99999999999818
 51
311.81031489577788
  0
LINE
  5
1FA
  8
0
 10
87.399882878743824
 20
451.1798561151079
 30
0.0
 11
86.899882878743938
 21
451.6798561151079
 31
0.0
  0
LINE
  5
1FB
  8
2
 10
86.899882878743824
 20
451.87985611510788
 30
0.0
 11
86.899882878743824
 21
470.17985611510733
 31
0.0
  0
LINE
  5
1FC
  8
0
 10
87.899882878743924
 20
451.1798561151079
 30
0.0
 11
87.399882878743824
 21
451.1798561151079
 31
0.0
  0
LINE
  5
1FD
  8
2
 10
85.599882878748417
 20
463.50335611510781
 30
0.0
 11
94.476382878744516
 21
463.50335611510781
 31
0.0
  0
LINE
  5
1FE
  8
2
 10
85.599882878748417
 20
464.17985611510352
 30
0.0
 11
85.599882878748303
 21
456.1798561151125
 31
0.0
  0
LINE
  5
1FF
  8
2
 10
85.599882878748417
 20
456.85635611510793
 30
0.0
 11
94.476382878744516
 21
456.85635611510793
 31
0.0
  0
LINE
  5
200
  8
2
 10
94.999882878748394
 20
462.97985611510433
 30
0.0
 11
93.799882878748349
 21
464.17985611510431
 31
0.0
  0
LINE
  5
201
  8
2
 10
94.999882878748281
 20
457.37985611511158
 30
0.0
 11
93.799882878748349
 21
456.1798561151117
 31
0.0
  0
LINE
  5
202
  8
2
 10
93.799882878748463
 20
464.1798561151042
 30
0.0
 11
93.799882878748349
 21
456.17985611511182
 31
0.0
  0
LINE
  5
203
  8
2
 10
93.799882878748349
 20
464.17985611510431
 30
0.0
 11
84.399882878747576
 21
464.17985611510431
 31
0.0
  0
LINE
  5
204
  8
2
 10
93.799882878748349
 20
456.1798561151117
 30
0.0
 11
84.399882878747576
 21
456.1798561151117
 31
0.0
  0
LINE
  5
205
  8
2
 10
80.399882878748244
 20
468.17985611510352
 30
0.0
 11
84.399882878748485
 21
464.17985611510352
 31
0.0
  0
LINE
  5
206
  8
2
 10
79.999882878748394
 20
468.17985611510329
 30
0.0
 11
79.999882878748281
 21
452.17985611511239
 31
0.0
  0
LINE
  5
207
  8
2
 10
80.399882878748372
 20
468.17985611510329
 30
0.0
 11
79.999882878748394
 21
468.17985611510329
 31
0.0
  0
LINE
  5
208
  8
2
 10
80.399882878748244
 20
452.1798561151125
 30
0.0
 11
79.999882878748281
 21
452.1798561151125
 31
0.0
  0
LINE
  5
209
  8
2
 10
94.999882878748394
 20
462.97985611510433
 30
0.0
 11
94.999882878748281
 21
457.37985611511158
 31
0.0
  0
LINE
  5
20A
  8
2
 10
84.399882878748485
 20
464.17985611510352
 30
0.0
 11
84.399882878748386
 21
456.1798561151125
 31
0.0
  0
LINE
  5
20B
  8
1
 10
64.899882878743824
 20
460.1798561151079
 30
0.0
 11
201.3998828787438
 21
460.1798561151079
 31
0.0
  0
LINE
  5
20C
  8
0
 10
184.85765192480289
 20
471.17985611510858
 30
0.0
 11
184.85765192480289
 21
449.17985611510721
 31
0.0
  0
LINE
  5
20D
  8
0
 10
136.39988287874371
 20
471.17985611510858
 30
0.0
 11
136.39988287874371
 21
449.17985611510721
 31
0.0
  0
LINE
  5
20E
  8
0
 10
109.3998828787438
 20
450.67985611510733
 30
0.0
 11
109.3998828787424
 21
469.67985611510858
 31
0.0
  0
LINE
  5
20F
  8
0
 10
109.3998828787438
 20
469.67985611510733
 30
0.0
 11
109.3998828787438
 21
469.67985611510733
 31
0.0
  0
LINE
  5
210
  8
0
 10
108.8998828787438
 20
470.17985611510733
 30
0.0
 11
109.3998828787438
 21
469.67985611510733
 31
0.0
  0
ARC
  5
211
  8
0
 10
107.8998828787438
 20
452.67985611510733
 30
0.0
 40
1.5
 50
311.81031489577788
 51
0.0000000000000254
  0
LINE
  5
212
  8
0
 10
136.39988287874371
 20
449.17985611510721
 30
0.0
 11
114.3166217893194
 21
450.09999199383321
 31
0.0
  0
ARC
  5
213
  8
0
 10
114.3998828787438
 20
452.098258140018
 30
0.0
 40
2.0
 50
180.0
 51
267.61405596961129
  0
LINE
  5
214
  8
0
 10
109.3998828787438
 20
450.67985611510733
 30
0.0
 11
112.3998828787438
 21
450.67985611510733
 31
0.0
  0
LINE
  5
215
  8
0
 10
112.3998828787438
 20
450.67985611510733
 30
0.0
 11
112.3998828787438
 21
469.67985611510858
 31
0.0
  0
LINE
  5
216
  8
0
 10
109.3998828787438
 20
469.67985611510858
 30
0.0
 11
112.3998828787438
 21
469.67985611510858
 31
0.0
  0
ARC
  5
217
  8
0
 10
114.3998828787438
 20
468.2614540901979
 30
0.0
 40
2.0
 50
92.385944030388771
 51
180.0
  0
LINE
  5
218
  8
0
 10
136.39988287874371
 20
471.17985611510858
 30
0.0
 11
114.3166217893194
 21
470.25972023638258
 31
0.0
  0
LINE
  5
219
  8
0
 10
136.3998828787438
 20
449.17985611510858
 30
0.0
 11
184.85765192480289
 21
449.17985611510858
 31
0.0
  0
LINE
  5
21A
  8
0
 10
136.3998828787438
 20
471.17985611510858
 30
0.0
 11
184.85765192480241
 21
471.17985611510869
 31
0.0
  0
ARC
  5
21B
  8
0
 10
146.3998828787438
 20
460.1798561151079
 30
0.0
 40
40.0
 50
344.03798583715383
 51
15.962014162848289
  0
LINE
  5
21C
  8
2
 10
107.8998828787437
 20
451.17985611510733
 30
0.0
 11
87.899882878743924
 21
451.17985611510733
 31
0.0
  0
LINE
  5
21D
  8
2
 10
86.899882878743824
 20
470.17985611510733
 30
0.0
 11
108.8998828787438
 21
470.17985611510733
 31
0.0
  0
LINE
  5
21E
  8
0
 10
87.899882878743696
 20
334.64505792621333
 30
0.0
 11
63.8814967521132
 21
380.42342552443853
 31
0.0
  0
LINE
  5
21F
  8
0
 10
57.70654603271101
 20
373.7826745478427
 30
0.0
 11
56.899882878743711
 21
375.1798561151079
 31
0.0
  0
ARC
  5
220
  8
2
 10
71.899882878744165
 20
411.17985611510778
 30
0.0
 40
40.0
 50
253.28673313081819
 51
269.99999999999937
  0
ARC
  5
221
  8
2
 10
71.85117365804831
 20
379.17970782697051
 30
0.0
 40
8.0
 50
270.34885625162889
 51
300.40364624506969
  0
ARC
  5
222
  8
2
 10
71.85117365804831
 20
411.18000440324522
 30
0.0
 40
8.0
 50
59.596353754930341
 51
89.651143748371183
  0
LINE
  5
223
  8
0
 10
87.899882878743696
 20
433.66943559590032
 30
0.0
 11
63.088067277334858
 21
416.1731842224923
 31
0.0
  0
LINE
  5
224
  8
0
 10
87.899882878743597
 20
406.6077666956308
 30
0.0
 11
75.80154342285357
 21
396.6933641946473
 31
0.0
  0
ARC
  5
225
  8
0
 10
58.958679189715212
 20
368.08083933886269
 30
0.0
 40
5.0
 50
33.524524784639972
 51
73.286736035863683
  0
LINE
  5
226
  8
0
 10
87.899882878743696
 20
355.0926436292379
 30
0.0
 11
75.298184392355324
 21
379.11112607974081
 31
0.0
  0
LINE
  5
227
  8
0
 10
87.899882878743696
 20
333.44916723665477
 30
0.0
 11
63.12692666745329
 21
370.8423086876607
 31
0.0
  0
LINE
  5
228
  8
0
 10
87.899882878743696
 20
318.1798561151079
 30
0.0
 11
87.899882878743696
 21
472.1798561151079
 31
0.0
  0
LINE
  5
229
  8
0
 10
86.899882878743938
 20
451.6798561151079
 30
0.0
 11
86.899882878743824
 21
451.87985611510788
 31
0.0
  0
LINE
  5
22A
  8
2
 10
80.399882878748244
 20
452.1798561151125
 30
0.0
 11
84.399882878748386
 21
456.1798561151125
 31
0.0
  0
LINE
  5
22B
  8
2
 10
75.899882878743711
 20
372.27985611506659
 30
0.0
 11
75.899882878743711
 21
377.96430570854852
 31
0.0
  0
ARC
  5
22C
  8
0
 10
89.899882878743711
 20
472.1798561151079
 30
0.0
 40
3.0
 50
90.000000000000014
 51
126.6457778337459
  0
LINE
  5
22D
  8
0
 10
79.899882878743711
 20
468.47985611510802
 30
0.0
 11
88.109284534276625
 21
474.58687866772181
 31
0.0
  0
LINE
  5
22E
  8
0
 10
79.899882878743924
 20
451.87985611510783
 30
0.0
 11
79.899882878743711
 21
468.47985611510802
 31
0.0
  0
LINE
  5
22F
  8
0
 10
87.899882878743696
 20
451.87985611510788
 30
0.0
 11
79.899882878743711
 21
451.87985611510788
 31
0.0
  0
LINE
  5
230
  8
0
 10
105.8998828787437
 20
475.1798561151079
 30
0.0
 11
89.899882878743711
 21
475.1798561151079
 31
0.0
  0
ARC
  5
231
  8
0
 10
105.8998828787437
 20
472.1798561151079
 30
0.0
 40
3.0
 50
0.0
 51
89.999999999999957
  0
LINE
  5
232
  8
0
 10
57.70654603271101
 20
416.57703768237297
 30
0.0
 11
56.899882878743711
 21
415.17985611510778
 31
0.0
  0
ARC
  5
233
  8
0
 10
90.899882878743711
 20
318.1798561151079
 30
0.0
 40
3.0
 50
180.0
 51
270.00000000000011
  0
ARC
  5
234
  8
0
 10
105.8998828787437
 20
318.1798561151079
 30
0.0
 40
3.0
 50
270.00000000000011
 51
0.0000000000000254
  0
LINE
  5
235
  8
0
 10
105.8998828787437
 20
315.1798561151079
 30
0.0
 11
90.899882878743711
 21
315.1798561151079
 31
0.0
  0
LINE
  5
236
  8
0
 10
108.8998828787437
 20
472.1798561151079
 30
0.0
 11
108.8998828787437
 21
318.1798561151079
 31
0.0
  0
ARC
  5
237
  8
0
 10
45.399882878743711
 20
376.6798561151079
 30
0.0
 40
1.5
 50
180.0
 51
270.00000000000011
  0
ARC
  5
238
  8
0
 10
45.399882878743711
 20
413.6798561151079
 30
0.0
 40
1.5
 50
90.000000000000028
 51
180.0
  0
LINE
  5
239
  8
0
 10
45.399882878743711
 20
375.1798561151079
 30
0.0
 11
56.899882878743711
 21
375.1798561151079
 31
0.0
  0
LINE
  5
23A
  8
0
 10
43.899882878743711
 20
413.6798561151079
 30
0.0
 11
43.899882878743711
 21
376.6798561151079
 31
0.0
  0
LINE
  5
23B
  8
0
 10
56.899882878743711
 20
415.17985611510778
 30
0.0
 11
45.399882878743711
 21
415.17985611510778
 31
0.0
  0
ARC
  5
23C
  8
0
 10
71.899882878744165
 20
379.1798561151079
 30
0.0
 40
40.0
 50
97.168271915326017
 51
110.78323549593669
  0
LINE
  5
23D
  8
1
 10
123.8998828787437
 20
395.1798561151079
 30
0.0
 11
28.899882878743711
 21
395.1798561151079
 31
0.0
  0
CIRCLE
  5
23E
  8
0
 10
323.98842850603887
 20
395.1798561151079
 30
0.0
 40
22.92820323027513
  0
ARC
  5
23F
  8
0
 10
323.98842850603882
 20
395.1798561151079
 30
0.0
 40
24.0
 50
73.607196547239923
 51
106.39280345275979
  0
ARC
  5
240
  8
0
 10
312.98180325505348
 20
432.59448160547493
 30
0.0
 40
15.0
 50
241.4320844971086
 51
286.39283432343223
  0
ARC
  5
241
  8
0
 10
334.99505375702398
 20
432.59448160547493
 30
0.0
 40
15.0
 50
253.6071656765678
 51
298.56791550289142
  0
LINE
  5
242
  8
0
 10
801.20812684366911
 20
472.17986150990458
 30
0.0
 11
801.20812684366911
 21
318.1798561151079
 31
0.0
  0
ARC
  5
243
  8
2
 10
801.62652886857904
 20
446.1798561151075
 30
0.0
 40
2.0
 50
90.0
 51
102.0755336524453
  0
LINE
  5
244
  8
0
 10
800.20812684366911
 20
448.1798561151075
 30
0.0
 11
801.20812684366911
 21
448.1798561151075
 31
0.0
  0
LINE
  5
245
  8
0
 10
801.20812684366911
 20
424.17985611510761
 30
0.0
 11
798.70812684366842
 21
424.17985611510761
 31
0.0
  0
LINE
  5
246
  8
0
 10
801.20812684366911
 20
375.72208706904848
 30
0.0
 11
798.70812684366842
 21
375.72208706904888
 31
0.0
  0
ARC
  5
247
  8
0
 10
809.70812684366899
 20
414.1798561151075
 30
0.0
 40
40.0
 50
254.03798583715169
 51
257.73110100404278
  0
ARC
  5
248
  8
0
 10
1015.5440954383949
 20
395.17985611510773
 30
0.0
 40
64.0
 50
107.24253545552931
 51
129.85290418090841
  0
ARC
  5
249
  8
0
 10
1015.5440954383949
 20
395.17985611510773
 30
0.0
 40
64.0
 50
50.147095819091518
 51
72.757464544470665
  0
ARC
  5
24A
  8
0
 10
979.65824136431149
 20
438.17061648723433
 30
0.0
 40
7.9999999999998943
 50
129.8529041809085
 51
241.4320961841666
  0
LINE
  5
24B
  8
0
 10
997.36446823880908
 20
419.4207181703207
 30
0.0
 11
975.83264175820682
 21
431.14460854148223
 31
0.0
  0
LINE
  5
24C
  8
0
 10
1033.72372263798
 20
419.4207181703207
 30
0.0
 11
1055.2555491185831
 21
431.14460854148228
 31
0.0
  0
ARC
  5
24D
  8
0
 10
1051.429949512479
 20
438.17061648723433
 30
0.0
 40
7.9999999999998943
 50
298.5679038158334
 51
50.147095819091483
  0
ARC
  5
24E
  8
0
 10
1015.5440954383949
 20
395.17985611510773
 30
0.0
 40
24.0
 50
193.60718467390569
 51
198.42866960382301
  0
ARC
  5
24F
  8
0
 10
1015.5440954383949
 20
395.17985611510773
 30
0.0
 40
24.0
 50
341.57133039617702
 51
346.39281532609431
  0
ARC
  5
250
  8
0
 10
1015.5440954383949
 20
395.17985611510773
 30
0.0
 40
64.0
 50
302.3923654858429
 51
9.8529041809075384
  0
ARC
  5
251
  8
0
 10
1015.5440954383949
 20
395.17985611510773
 30
0.0
 40
64.0
 50
170.1470958190925
 51
237.6076345141571
  0
ARC
  5
252
  8
0
 10
977.63876666516421
 20
386.00456044721273
 30
0.0
 40
15.00000000000029
 50
13.607184673905881
 51
58.567903815838129
  0
ARC
  5
253
  8
0
 10
960.37007779108183
 20
404.76253719370118
 30
0.0
 40
7.9999999999995568
 50
58.567903815836651
 51
170.14709581909241
  0
LINE
  5
254
  8
0
 10
985.46108209983902
 20
398.80344247809541
 30
0.0
 11
964.54197935624165
 21
411.58860761017132
 31
0.0
  0
LINE
  5
255
  8
0
 10
1045.627108776951
 20
398.80344247809552
 30
0.0
 11
1066.5462087432561
 21
411.58860591276868
 31
0.0
  0
ARC
  5
256
  8
0
 10
1070.718113085708
 20
404.76253719370118
 30
0.0
 40
7.9999999999995568
 50
9.8529041809075881
 51
121.4320961841633
  0
ARC
  5
257
  8
0
 10
1053.4494242116259
 20
386.00456044721273
 30
0.0
 40
15.00000000000029
 50
121.43209618416191
 51
166.39281532609411
  0
ARC
  5
258
  8
0
 10
985.54409543839495
 20
347.8934944449598
 30
0.0
 40
8.0000000000000853
 50
237.6076345141569
 51
359.99999999999989
  0
ARC
  5
259
  8
0
 10
978.54409543839449
 20
382.85102810917039
 30
0.0
 40
15.0000000000003
 50
359.99999999999989
 51
18.428669603823089
  0
LINE
  5
25A
  8
0
 10
993.54409543839472
 20
382.85102810917027
 30
0.0
 11
993.54409543839495
 21
347.89349444495969
 31
0.0
  0
LINE
  5
25B
  8
0
 10
1037.5440954383951
 20
382.85102810917027
 30
0.0
 11
1037.5440954383951
 21
347.89349444495969
 31
0.0
  0
ARC
  5
25C
  8
0
 10
1052.5440954383951
 20
382.85102810917039
 30
0.0
 40
15.0000000000003
 50
161.5713303961769
 51
180.00000000000011
  0
ARC
  5
25D
  8
0
 10
1045.5440954383951
 20
347.8934944449598
 30
0.0
 40
8.0000000000000853
 50
180.00000000000011
 51
302.39236548584302
  0
ARC
  5
25E
  8
0
 10
1015.5440954383949
 20
395.17985611510773
 30
0.0
 40
24.0
 50
193.60718467390569
 51
198.42866960382301
  0
ARC
  5
25F
  8
0
 10
1015.5440954383949
 20
395.17985611510773
 30
0.0
 40
24.0
 50
341.57133039617702
 51
346.39281532609431
  0
ARC
  5
260
  8
0
 10
977.63876666516421
 20
386.00456044721273
 30
0.0
 40
15.00000000000029
 50
13.607184673905881
 51
58.567903815838129
  0
ARC
  5
261
  8
0
 10
1053.4494242116259
 20
386.00456044721273
 30
0.0
 40
15.00000000000029
 50
121.43209618416191
 51
166.39281532609411
  0
ARC
  5
262
  8
0
 10
978.54409543839449
 20
382.85102810917039
 30
0.0
 40
15.0000000000003
 50
359.99999999999989
 51
18.428669603823089
  0
ARC
  5
263
  8
0
 10
1052.5440954383951
 20
382.85102810917039
 30
0.0
 40
15.0000000000003
 50
161.5713303961769
 51
180.00000000000011
  0
ARC
  5
264
  8
0
 10
1015.5440954383949
 20
395.17985611510773
 30
0.0
 40
24.0
 50
73.607196547239923
 51
106.39280345275979
  0
ARC
  5
265
  8
0
 10
1004.537470187409
 20
432.5944816054747
 30
0.0
 40
15.0
 50
241.4320844971086
 51
286.39283432343223
  0
ARC
  5
266
  8
0
 10
1026.5507206893799
 20
432.5944816054747
 30
0.0
 40
15.0
 50
253.6071656765678
 51
298.56791550289142
  0
CIRCLE
  5
267
  8
0
 10
1015.5440954383949
 20
395.17985611510778
 30
0.0
 40
80.0
  0
LINE
  5
268
  8
1
 10
1110.5440954383951
 20
395.17985611510778
 30
0.0
 11
920.54409543839495
 21
395.17985611510778
 31
0.0
  0
LINE
  5
269
  8
1
 10
1015.5440954383949
 20
490.17985611510773
 30
0.0
 11
1015.5440954383949
 21
300.17985611510778
 31
0.0
  0
CIRCLE
  5
26B
  8
0
 10
1015.5440954383949
 20
395.17985611510778
 30
0.0
 40
19.999999999999879
  0
CIRCLE
  5
26C
  8
0
 10
1015.5440954383949
 20
395.17985611510778
 30
0.0
 40
21.39718156726553
  0
ARC
  5
26D
  8
0
 10
948.06726331804339
 20
381.70495779732158
 30
0.0
 40
4.809125540678024
 50
304.54499830520581
 51
77.943425605497666
  0
POLYLINE
  5
26E
  8
0
 66
     1
 10
0.0
 20
0.0
 30
0.0
  0
VERTEX
  5
26F
  8
0
 10
950.79429385002049
 20
377.74377199712887
 30
0.0
 42
0.0249606831385097
 50
22.500000000000011
  0
VERTEX
  5
270
  8
0
 10
949.60562939215015
 20
376.83481548768452
 30
0.0
 42
0.0872964065721361
 50
22.500000000000011
  0
VERTEX
  5
271
  8
0
 10
946.96641947806893
 20
373.66235443888507
 30
0.0
 42
0.1055848245869243
 70
     2
 50
240.22064331441049
  0
VERTEX
  5
272
  8
0
 10
945.75234609505799
 20
369.86385759806848
 30
0.0
 42
0.1235394496148134
 50
240.22064331441049
  0
VERTEX
  5
273
  8
0
 10
946.25313050004797
 20
366.47859868772599
 30
0.0
 42
0.1235394496148151
 50
22.500000000000011
  0
SEQEND
  5
274
  8
0
  0
POLYLINE
  5
275
  8
0
 66
     1
 10
0.0
 20
0.0
 30
0.0
  0
VERTEX
  5
276
  8
0
 10
940.54409543839461
 20
395.17985611510778
 30
0.0
 42
0.1235394496148151
  0
VERTEX
  5
277
  8
0
 10
941.37691347567784
 20
391.86064280061453
 30
0.0
 42
0.1055848245869267
  0
VERTEX
  5
278
  8
0
 10
943.95219283407971
 20
388.8158950844288
 30
0.0
 42
0.0872964065721319
 70
     2
 50
322.27935668558899
  0
VERTEX
  5
279
  8
0
 10
947.97506742784913
 20
386.7000300253344
 30
0.0
 42
0.0249102859568155
 50
322.27935668558899
  0
VERTEX
  5
27A
  8
0
 10
949.07178106063657
 20
386.4080028290789
 30
0.0
 42
0.077667298244456
  0
SEQEND
  5
27B
  8
0
  0
POLYLINE
  5
27C
  8
0
 66
     1
 10
0.0
 20
0.0
 30
0.0
  0
VERTEX
  5
27D
  8
0
 10
962.51108684940357
 20
342.14684752611652
 30
0.0
 42
0.1235394496148151
 50
45.0
  0
VERTEX
  5
27E
  8
0
 10
965.44701637394394
 20
340.38870056489111
 30
0.0
 42
0.1055848245869267
 50
45.0
  0
VERTEX
  5
27F
  8
0
 10
969.42097562883691
 20
340.05673630554958
 30
0.0
 42
0.0872964065721319
 70
     2
 50
7.2793566855890068
  0
VERTEX
  5
280
  8
0
 10
973.76172006531556
 20
341.40519567930568
 30
0.0
 42
0.0249102859568155
 50
7.2793566855890068
  0
VERTEX
  5
281
  8
0
 10
974.74370812284258
 20
341.97419491530621
 30
0.0
 42
0.077667298244456
 50
45.0
  0
SEQEND
  5
282
  8
0
  0
ARC
  5
283
  8
0
 10
977.35896184941396
 20
337.93833857351513
 30
0.0
 40
4.809125540678024
 50
56.293213676868611
 51
122.94342560549769
  0
ARC
  5
284
  8
0
 10
958.36025166272282
 20
356.9084076356952
 30
0.0
 40
4.809125540678024
 50
327.04499830520581
 51
100.44342560549759
  0
POLYLINE
  5
285
  8
0
 66
     1
 10
0.0
 20
0.0
 30
0.0
  0
VERTEX
  5
286
  8
0
 10
962.39557953401584
 20
354.29233855454601
 30
0.0
 42
0.0249606831383497
 50
45.0
  0
VERTEX
  5
287
  8
0
 10
961.64523936725845
 20
352.99769004487752
 30
0.0
 42
0.0872964065721361
 50
45.0
  0
VERTEX
  5
288
  8
0
 10
960.42097562883691
 20
349.05673630554969
 30
0.0
 42
0.1055848245869243
 70
     2
 50
262.72064331441038
  0
VERTEX
  5
289
  8
0
 10
960.75293988817816
 20
345.08277705065672
 30
0.0
 42
0.1235394496148134
 50
262.72064331441038
  0
VERTEX
  5
28A
  8
0
 10
962.51108684940357
 20
342.14684752611652
 30
0.0
 42
0.1235394496148151
 50
45.0
  0
SEQEND
  5
28B
  8
0
  0
POLYLINE
  5
28C
  8
0
 66
     1
 10
0.0
 20
0.0
 30
0.0
  0
VERTEX
  5
28D
  8
0
 10
946.25313050004797
 20
366.47859868772599
 30
0.0
 42
0.1235394496148151
 50
22.500000000000011
  0
VERTEX
  5
28E
  8
0
 10
948.29276198294247
 20
363.73075110746993
 30
0.0
 42
0.1055848245869267
 50
22.500000000000011
  0
VERTEX
  5
28F
  8
0
 10
951.83718437938455
 20
361.90328775499762
 30
0.0
 42
0.0872964065721319
 70
     2
 50
344.77935668558911
  0
VERTEX
  5
290
  8
0
 10
956.36354238166336
 20
361.48797079086239
 30
0.0
 42
0.0249102859565552
 50
344.77935668558911
  0
VERTEX
  5
291
  8
0
 10
957.48852762981403
 20
361.63786697864418
 30
0.0
 42
0.077667298244456
 50
22.500000000000011
  0
SEQEND
  5
292
  8
0
  0
ARC
  5
293
  8
0
 10
947.99235250294055
 20
408.7364416579901
 30
0.0
 40
5.0
 50
282.08843954129651
 51
342.20062819381531
  0
POLYLINE
  5
294
  8
0
 66
     1
 10
0.0
 20
0.0
 30
0.0
  0
VERTEX
  5
295
  8
0
 10
949.03945886895872
 20
403.84731410205723
 30
0.0
 42
0.0247710086153093
  0
VERTEX
  5
296
  8
0
 10
947.60455313889952
 20
403.4648070678092
 30
0.0
 42
0.0872964065721361
  0
VERTEX
  5
297
  8
0
 10
943.95219283407982
 20
401.5438171457867
 30
0.0
 42
0.1055848245869243
 70
     2
 50
217.72064331441041
  0
VERTEX
  5
298
  8
0
 10
941.37691347567784
 20
398.49906942960098
 30
0.0
 42
0.1235394496148134
 50
217.72064331441041
  0
VERTEX
  5
299
  8
0
 10
940.54409543839461
 20
395.17985611510778
 30
0.0
 42
0.1235394496148151
  0
SEQEND
  5
29A
  8
0
  0
ARC
  5
29B
  8
4
 10
969.95419786742627
 20
446.82113900385468
 30
0.0
 40
5.0
 50
318.28507017587702
 51
17.9402068656428
  0
LINE
  5
29C
  8
0
 10
974.71115710516312
 20
448.36157799210417
 30
0.0
 11
974.71115710516312
 21
448.36108573648369
 31
0.0
  0
ARC
  5
29D
  8
0
 10
993.43419883468539
 20
460.54156105135672
 30
0.0
 40
5.0
 50
222.40538551583529
 51
288.6891329996306
  0
ARC
  5
29E
  8
0
 10
969.95419786741422
 20
446.82113900384132
 30
0.0
 40
5.0
 50
318.2850536864733
 51
17.940227759364429
  0
POLYLINE
  5
29F
  8
0
 66
     1
 10
0.0
 20
0.0
 30
0.0
  0
VERTEX
  5
2A0
  8
0
 10
989.74223905303825
 20
457.1697020728688
 30
0.0
 42
0.0233872095755434
 50
300.0
  0
VERTEX
  5
2A1
  8
0
 10
988.74930228279482
 20
458.15970114430883
 30
0.0
 42
0.0872964065721361
 50
300.0
  0
VERTEX
  5
2A2
  8
0
 10
985.25949605749975
 20
460.36224299104549
 30
0.0
 42
0.1055848245869243
 70
     2
 50
157.72064331441041
  0
VERTEX
  5
2A3
  8
0
 10
981.3350275079672
 20
461.07012647917043
 30
0.0
 42
0.1235394496148134
 50
157.72064331441041
  0
VERTEX
  5
2A4
  8
0
 10
978.04409543839483
 20
460.13176139894091
 30
0.0
 42
0.1235394496148151
 50
300.0
  0
SEQEND
  5
2A5
  8
0
  0
POLYLINE
  5
2A6
  8
0
 66
     1
 10
0.0
 20
0.0
 30
0.0
  0
VERTEX
  5
2A7
  8
0
 10
978.04409543839483
 20
460.13176139894091
 30
0.0
 42
0.1235394496148151
 50
300.0
  0
VERTEX
  5
2A8
  8
0
 10
975.5859814061057
 20
457.75091316467717
 30
0.0
 42
0.1055848245869267
 50
300.0
  0
VERTEX
  5
2A9
  8
0
 10
974.23679221497514
 20
453.99828196036651
 30
0.0
 42
0.0872964065721319
 70
     2
 50
262.27935668558899
  0
VERTEX
  5
2AA
  8
0
 10
974.41583661970435
 20
449.45643783637598
 30
0.0
 42
0.0248959833359143
 50
262.27935668558899
  0
VERTEX
  5
2AB
  8
0
 10
974.71108972821855
 20
448.36126231860419
 30
0.0
 42
0.077667298244456
 50
300.0
  0
SEQEND
  5
2AC
  8
0
  0
POLYLINE
  5
2AD
  8
0
 66
     1
 10
0.0
 20
0.0
 30
0.0
  0
VERTEX
  5
2AE
  8
0
 10
1053.0440954383951
 20
460.13176139894091
 30
0.0
 42
-0.1235394496148151
  0
VERTEX
  5
2AF
  8
0
 10
1055.502209470684
 20
457.75091316467717
 30
0.0
 42
-0.1055848245869267
  0
VERTEX
  5
2B0
  8
0
 10
1056.851398661815
 20
453.99828196036651
 30
0.0
 42
-0.0872964065721319
 70
     2
 50
277.72064331441101
  0
VERTEX
  5
2B1
  8
0
 10
1056.6723542570851
 20
449.45643783637598
 30
0.0
 42
-0.0248959833359143
  0
VERTEX
  5
2B2
  8
0
 10
1056.377101148571
 20
448.36126231860419
 30
0.0
 42
-0.077667298244456
  0
SEQEND
  5
2B3
  8
0
  0
ARC
  5
2B4
  8
0
 10
1061.1339930093759
 20
446.82113900384132
 30
0.0
 40
5.0
 50
162.0597722406356
 51
221.7149463135267
  0
POLYLINE
  5
2B5
  8
0
 66
     1
 10
0.0
 20
0.0
 30
0.0
  0
VERTEX
  5
2B6
  8
0
 10
1041.3459518237521
 20
457.1697020728688
 30
0.0
 42
-0.0233872095755434
  0
VERTEX
  5
2B7
  8
0
 10
1042.3388885939951
 20
458.15970114430883
 30
0.0
 42
-0.0872964065721361
  0
VERTEX
  5
2B8
  8
0
 10
1045.8286948192899
 20
460.36224299104549
 30
0.0
 42
-0.1055848245869243
 70
     2
 50
22.27935668558959
  0
VERTEX
  5
2B9
  8
0
 10
1049.7531633688229
 20
461.07012647917043
 30
0.0
 42
-0.1235394496148134
  0
VERTEX
  5
2BA
  8
0
 10
1053.0440954383951
 20
460.13176139894091
 30
0.0
 42
-0.1235394496148151
  0
SEQEND
  5
2BB
  8
0
  0
ARC
  5
2BC
  8
0
 10
1037.6539920421051
 20
460.54156105135672
 30
0.0
 40
5.0
 50
251.31086700036951
 51
317.59461448416471
  0
ARC
  5
2BD
  8
0
 10
1083.0958383738489
 20
408.7364416579901
 30
0.0
 40
5.0
 50
197.79937180618469
 51
257.91156045870349
  0
POLYLINE
  5
2BE
  8
0
 66
     1
 10
0.0
 20
0.0
 30
0.0
  0
VERTEX
  5
2BF
  8
0
 10
1082.0487320078309
 20
403.84731410205723
 30
0.0
 42
-0.0247710086153093
  0
VERTEX
  5
2C0
  8
0
 10
1083.4836377378899
 20
403.4648070678092
 30
0.0
 42
-0.0872964065721361
  0
VERTEX
  5
2C1
  8
0
 10
1087.1359980427101
 20
401.5438171457867
 30
0.0
 42
-0.1055848245869243
 70
     2
 50
322.27935668558962
  0
VERTEX
  5
2C2
  8
0
 10
1089.7112774011121
 20
398.49906942960098
 30
0.0
 42
-0.1235394496148134
  0
VERTEX
  5
2C3
  8
0
 10
1090.5440954383951
 20
395.17985611510778
 30
0.0
 42
-0.1235394496148151
  0
SEQEND
  5
2C4
  8
0
  0
POLYLINE
  5
2C5
  8
0
 66
     1
 10
0.0
 20
0.0
 30
0.0
  0
VERTEX
  5
2C6
  8
0
 10
1090.5440954383951
 20
395.17985611510778
 30
0.0
 42
-0.1235394496148151
  0
VERTEX
  5
2C7
  8
0
 10
1089.7112774011121
 20
391.86064280061453
 30
0.0
 42
-0.1055848245869267
  0
VERTEX
  5
2C8
  8
0
 10
1087.1359980427101
 20
388.8158950844288
 30
0.0
 42
-0.0872964065721319
 70
     2
 50
217.72064331441101
  0
VERTEX
  5
2C9
  8
0
 10
1083.113123448941
 20
386.7000300253344
 30
0.0
 42
-0.0249102859568155
  0
VERTEX
  5
2CA
  8
0
 10
1082.0164098161531
 20
386.4080028290789
 30
0.0
 42
-0.077667298244456
  0
SEQEND
  5
2CB
  8
0
  0
ARC
  5
2CC
  8
0
 10
1083.020927558747
 20
381.70495779732158
 30
0.0
 40
4.809125540678024
 50
102.05657439450231
 51
235.45500169479419
  0
POLYLINE
  5
2CD
  8
0
 66
     1
 10
0.0
 20
0.0
 30
0.0
  0
VERTEX
  5
2CE
  8
0
 10
1080.2938970267689
 20
377.74377199712887
 30
0.0
 42
-0.0249606831385097
  0
VERTEX
  5
2CF
  8
0
 10
1081.48256148464
 20
376.83481548768452
 30
0.0
 42
-0.0872964065721361
  0
VERTEX
  5
2D0
  8
0
 10
1084.121771398721
 20
373.66235443888507
 30
0.0
 42
-0.1055848245869243
 70
     2
 50
299.77935668558962
  0
VERTEX
  5
2D1
  8
0
 10
1085.335844781732
 20
369.86385759806848
 30
0.0
 42
-0.1235394496148134
  0
VERTEX
  5
2D2
  8
0
 10
1084.8350603767419
 20
366.47859868772599
 30
0.0
 42
-0.1235394496148151
  0
SEQEND
  5
2D3
  8
0
  0
POLYLINE
  5
2D4
  8
0
 66
     1
 10
0.0
 20
0.0
 30
0.0
  0
VERTEX
  5
2D5
  8
0
 10
1084.8350603767419
 20
366.47859868772599
 30
0.0
 42
-0.1235394496148151
  0
VERTEX
  5
2D6
  8
0
 10
1082.795428893847
 20
363.73075110746993
 30
0.0
 42
-0.1055848245869267
  0
VERTEX
  5
2D7
  8
0
 10
1079.2510064974049
 20
361.90328775499762
 30
0.0
 42
-0.0872964065721319
 70
     2
 50
195.22064331441101
  0
VERTEX
  5
2D8
  8
0
 10
1074.7246484951261
 20
361.48797079086239
 30
0.0
 42
-0.0249102859565552
  0
VERTEX
  5
2D9
  8
0
 10
1073.599663246976
 20
361.63786697864418
 30
0.0
 42
-0.077667298244456
  0
SEQEND
  5
2DA
  8
0
  0
ARC
  5
2DB
  8
0
 10
1072.727939214067
 20
356.9084076356952
 30
0.0
 40
4.809125540678024
 50
79.556574394502334
 51
212.9550016947943
  0
POLYLINE
  5
2DC
  8
0
 66
     1
 10
0.0
 20
0.0
 30
0.0
  0
VERTEX
  5
2DD
  8
0
 10
1068.6926113427739
 20
354.29233855454601
 30
0.0
 42
-0.0249606831383497
  0
VERTEX
  5
2DE
  8
0
 10
1069.4429515095319
 20
352.99769004487752
 30
0.0
 42
-0.0872964065721361
  0
VERTEX
  5
2DF
  8
0
 10
1070.667215247953
 20
349.05673630554969
 30
0.0
 42
-0.1055848245869243
 70
     2
 50
277.27935668558962
  0
VERTEX
  5
2E0
  8
0
 10
1070.335250988612
 20
345.08277705065672
 30
0.0
 42
-0.1235394496148134
  0
VERTEX
  5
2E1
  8
0
 10
1068.577104027386
 20
342.14684752611652
 30
0.0
 42
-0.1235394496148151
  0
SEQEND
  5
2E2
  8
0
  0
POLYLINE
  5
2E3
  8
0
 66
     1
 10
0.0
 20
0.0
 30
0.0
  0
VERTEX
  5
2E4
  8
0
 10
1068.577104027386
 20
342.14684752611652
 30
0.0
 42
-0.1235394496148151
  0
VERTEX
  5
2E5
  8
0
 10
1065.6411745028461
 20
340.38870056489111
 30
0.0
 42
-0.1055848245869267
  0
VERTEX
  5
2E6
  8
0
 10
1061.667215247953
 20
340.05673630554958
 30
0.0
 42
-0.0872964065721319
 70
     2
 50
172.72064331441101
  0
VERTEX
  5
2E7
  8
0
 10
1057.3264708114741
 20
341.40519567930568
 30
0.0
 42
-0.0249102859568155
  0
VERTEX
  5
2E8
  8
0
 10
1056.344482753947
 20
341.97419491530621
 30
0.0
 42
-0.077667298244456
  0
SEQEND
  5
2E9
  8
0
  0
ARC
  5
2EA
  8
0
 10
1053.729229027376
 20
337.93833857351513
 30
0.0
 40
4.809125540678024
 50
57.056574394502341
 51
123.7067863231314
  0
LINE
  5
2EB
  8
0
 10
280.5602281094927
 20
157.49215262162909
 30
0.0
 11
300.15075066078168
 21
143.04754141578729
 31
0.0
  0
LINE
  5
2EC
  8
0
 10
367.41662890258482
 20
157.49215262162909
 30
0.0
 11
347.82610635129578
 21
143.04754141578729
 31
0.0
  0
LINE
  5
2ED
  8
1
 10
323.98842850603882
 20
265.99215262162909
 30
0.0
 11
323.98842850603882
 21
98.492152621629089
 31
0.0
  0
LINE
  5
2EE
  8
0
 10
305.48842850603882
 20
113.4921526216291
 30
0.0
 11
342.48842850603882
 21
113.4921526216291
 31
0.0
  0
LINE
  5
2EF
  8
0
 10
343.9884285060387
 20
114.9921526216291
 30
0.0
 11
343.9884285060387
 21
126.4921526216291
 31
0.0
  0
ARC
  5
2F0
  8
0
 10
342.48842850603882
 20
114.9921526216291
 30
0.0
 40
1.5
 50
270.0
 51
360.0
  0
LINE
  5
2F1
  8
0
 10
246.98842850603879
 20
178.49215262162909
 30
0.0
 11
400.9884285060387
 21
178.49215262162909
 31
0.0
  0
LINE
  5
2F2
  8
0
 10
403.9884285060387
 20
175.49215262162909
 30
0.0
 11
403.9884285060387
 21
160.49215262162909
 31
0.0
  0
ARC
  5
2F3
  8
0
 10
400.9884285060387
 20
175.49215262162909
 30
0.0
 40
3.0
 50
0.0000000000000877
 51
89.999999999999986
  0
ARC
  5
2F4
  8
0
 10
400.9884285060387
 20
160.49215262162909
 30
0.0
 40
3.0
 50
270.0
 51
360.0
  0
LINE
  5
2F5
  8
0
 10
346.88842850608
 20
145.49215262162909
 30
0.0
 11
345.98842850603887
 21
145.49215262162909
 31
0.0
  0
LINE
  5
2F6
  8
0
 10
400.9884285060387
 20
157.49215262162909
 30
0.0
 11
246.98842850603879
 21
157.49215262162909
 31
0.0
  0
ARC
  5
2F7
  8
0
 10
339.9885767941762
 20
141.44344340093369
 30
0.0
 40
8.0
 50
0.3488562516288666
 51
30.40364624506973
  0
LINE
  5
2F8
  8
0
 10
345.38561007330401
 20
127.2988157755964
 30
0.0
 11
343.9884285060387
 21
126.4921526216291
 31
0.0
  0
ARC
  5
2F9
  8
0
 10
323.98842850603882
 20
215.9921526216292
 30
0.0
 40
40.0
 50
74.037985837153812
 51
105.96201416284821
  0
LINE
  5
2FA
  8
0
 10
312.98842850603808
 20
205.9921526216292
 30
0.0
 11
312.98842850603802
 21
254.44992166768779
 31
0.0
  0
LINE
  5
2FB
  8
0
 10
334.98842850603808
 20
205.9921526216292
 30
0.0
 11
334.98842850603808
 21
254.4499216676883
 31
0.0
  0
LINE
  5
2FC
  8
0
 10
312.98842850603808
 20
205.99215262162909
 30
0.0
 11
313.90856438476408
 21
183.90889153220479
 31
0.0
  0
ARC
  5
2FD
  8
0
 10
315.90683053094881
 20
183.9921526216292
 30
0.0
 40
2.0
 50
182.38594403038871
 51
270.0
  0
LINE
  5
2FE
  8
0
 10
314.48842850603791
 20
178.9921526216292
 30
0.0
 11
314.48842850603791
 21
181.9921526216292
 31
0.0
  0
LINE
  5
2FF
  8
0
 10
333.4884285060395
 20
181.9921526216292
 30
0.0
 11
314.48842850603791
 21
181.9921526216292
 31
0.0
  0
LINE
  5
300
  8
0
 10
333.4884285060395
 20
178.9921526216292
 30
0.0
 11
333.4884285060395
 21
181.9921526216292
 31
0.0
  0
ARC
  5
301
  8
0
 10
332.07002648112871
 20
183.9921526216292
 30
0.0
 40
2.0
 50
270.0
 51
357.61405596961129
  0
LINE
  5
302
  8
0
 10
334.98842850603938
 20
205.99215262162909
 30
0.0
 11
334.06829262731338
 21
183.90889153220479
 31
0.0
  0
LINE
  5
303
  8
0
 10
333.4884285060395
 20
178.9921526216292
 30
0.0
 11
314.48842850603791
 21
178.99215262162781
 31
0.0
  0
LINE
  5
304
  8
0
 10
312.98842850603808
 20
205.99215262162909
 30
0.0
 11
334.98842850603938
 21
205.99215262162909
 31
0.0
  0
LINE
  5
305
  8
0
 10
312.98842850603808
 20
254.4499216676883
 30
0.0
 11
334.98842850603938
 21
254.4499216676883
 31
0.0
  0
LINE
  5
306
  8
0
 10
302.59124693877152
 20
127.2988157755976
 30
0.0
 11
345.3856100733048
 21
127.29881577559679
 31
0.0
  0
LINE
  5
307
  8
0
 10
343.9884285060387
 20
126.492152621629
 30
0.0
 11
303.9884285060387
 21
126.4921526216291
 31
0.0
  0
ARC
  5
308
  8
0
 10
307.98842850603882
 20
141.49215262162949
 30
0.0
 40
40.0
 50
339.21676450406329
 51
0.000000000000444
  0
LINE
  5
309
  8
0
 10
345.98842850603887
 20
151.1473439872282
 30
0.0
 11
345.98842850603887
 21
132.71919889420499
 31
0.0
  0
LINE
  5
30A
  8
2
 10
345.98842850603887
 20
145.49215262162909
 30
0.0
 11
301.9884285060387
 21
145.49215262162889
 31
0.0
  0
POLYLINE
  5
30B
  8
0
 66
     1
 10
0.0
 20
0.0
 30
0.0
  0
VERTEX
  5
30C
  8
0
 10
345.98842850603887
 20
151.14734398722831
 30
0.0
 42
-0.0916213718818915
 50
360.0
  0
VERTEX
  5
30D
  8
0
 10
346.60659446158053
 20
154.4925066048898
 30
0.0
 42
-0.0953753144441082
 50
360.0
  0
VERTEX
  5
30E
  8
0
 10
348.33157425654662
 20
157.27073051822501
 30
0.0
 42
-0.0087667676747916
 70
     2
 50
47.267896710302459
  0
VERTEX
  5
30F
  8
0
 10
348.54344114509797
 20
157.49215262162909
 30
0.0
 42
-0.1247948845774807
 50
360.0
  0
SEQEND
  5
310
  8
0
  0
POLYLINE
  5
311
  8
0
 66
     1
 10
0.0
 20
0.0
 30
0.0
  0
VERTEX
  5
312
  8
0
 10
346.16017398504101
 20
130.99471601711659
 30
0.0
 42
-0.0293950503562921
 70
     2
 50
105.7343640489516
  0
VERTEX
  5
313
  8
0
 10
346.05367068127498
 20
131.59727069613129
 30
0.0
 42
-0.0290513742786188
 50
360.0
  0
VERTEX
  5
314
  8
0
 10
345.98842850603887
 20
132.71919889420499
 30
0.0
 42
-0.0290513742786576
 50
360.0
  0
SEQEND
  5
315
  8
0
  0
POLYLINE
  5
316
  8
0
 66
     1
 10
0.0
 20
0.0
 30
0.0
  0
VERTEX
  5
317
  8
0
 10
301.81668302703662
 20
130.99471601711659
 30
0.0
 42
0.0293950503562921
 70
     2
 50
74.265635951048338
  0
VERTEX
  5
318
  8
0
 10
301.92318633080248
 20
131.59727069613129
 30
0.0
 42
0.0290513742786188
  0
VERTEX
  5
319
  8
0
 10
301.9884285060387
 20
132.71919889420499
 30
0.0
 42
0.0290513742786576
  0
SEQEND
  5
31A
  8
0
  0
POLYLINE
  5
31B
  8
0
 66
     1
 10
0.0
 20
0.0
 30
0.0
  0
VERTEX
  5
31C
  8
0
 10
301.9884285060387
 20
151.14734398722831
 30
0.0
 42
0.0916213718818915
  0
VERTEX
  5
31D
  8
0
 10
301.37026255049699
 20
154.4925066048898
 30
0.0
 42
0.0953753144441082
  0
VERTEX
  5
31E
  8
0
 10
299.64528275553101
 20
157.27073051822501
 30
0.0
 42
0.0087667676747916
 70
     2
 50
132.73210328969751
  0
VERTEX
  5
31F
  8
0
 10
299.43341586697949
 20
157.49215262162909
 30
0.0
 42
0.1247948845774807
  0
SEQEND
  5
320
  8
0
  0
LINE
  5
321
  8
0
 10
301.9884285060387
 20
151.1473439872282
 30
0.0
 11
301.9884285060387
 21
132.71919889420499
 31
0.0
  0
ARC
  5
322
  8
0
 10
339.98842850603882
 20
141.49215262162949
 30
0.0
 40
40.0
 50
179.9999999999996
 51
200.78323549593659
  0
LINE
  5
323
  8
0
 10
302.59124693877362
 20
127.2988157755964
 30
0.0
 11
303.9884285060387
 21
126.4921526216291
 31
0.0
  0
ARC
  5
324
  8
0
 10
307.98828021790132
 20
141.44344340093369
 30
0.0
 40
8.0
 50
149.59635375493031
 51
179.65114374837111
  0
LINE
  5
325
  8
0
 10
301.08842850599751
 20
145.49215262162909
 30
0.0
 11
301.9884285060387
 21
145.49215262162909
 31
0.0
  0
ARC
  5
326
  8
0
 10
246.98842850603879
 20
160.49215262162909
 30
0.0
 40
3.0
 50
180.0
 51
270.0
  0
ARC
  5
327
  8
0
 10
246.98842850603879
 20
175.49215262162909
 30
0.0
 40
3.0
 50
90.000000000000014
 51
179.99999999999989
  0
LINE
  5
328
  8
0
 10
243.9884285060387
 20
175.49215262162909
 30
0.0
 11
243.9884285060387
 21
160.49215262162909
 31
0.0
  0
ARC
  5
329
  8
0
 10
305.48842850603882
 20
114.9921526216291
 30
0.0
 40
1.5
 50
180.0
 51
270.0
  0
LINE
  5
32A
  8
0
 10
303.9884285060387
 20
114.9921526216291
 30
0.0
 11
303.9884285060387
 21
126.4921526216291
 31
0.0
  0
LINE
  5
32B
  8
0
 10
376.77370945492652
 20
157.49215262162909
 30
0.0
 11
347.93283007361953
 21
132.69724881469281
 31
0.0
  0
LINE
  5
32C
  8
0
 10
355.904124372311
 20
157.49215262162909
 30
0.0
 11
345.98842850603887
 21
150.38909788313291
 31
0.0
  0
LINE
  5
32D
  8
0
 10
292.07273263976651
 20
157.49215262162909
 30
0.0
 11
301.9884285060387
 21
150.38909788313299
 31
0.0
  0
LINE
  5
32E
  8
0
 10
271.20314755715088
 20
157.49215262162909
 30
0.0
 11
300.04402693845788
 21
132.69724881469281
 31
0.0
  0
ARC
  5
32F
  8
0
 10
351.19240273600383
 20
128.90578655605989
 30
0.0
 40
5.0
 50
130.68610542551309
 51
163.75787702696721
  0
ARC
  5
330
  8
0
 10
296.78445427607357
 20
128.90578655605989
 30
0.0
 40
5.0
 50
16.242122973032789
 51
49.31389457448681
  0
POLYLINE
  5
331
  8
0
 66
     1
 10
0.0
 20
0.0
 30
0.0
  0
VERTEX
  5
332
  8
0
 10
345.98842850603887
 20
639.2123682429874
 30
0.0
 42
0.0916213718818915
  0
VERTEX
  5
333
  8
0
 10
346.60659446158053
 20
635.86720562532582
 30
0.0
 42
0.0953753144441082
  0
VERTEX
  5
334
  8
0
 10
348.33157425654662
 20
633.08898171199064
 30
0.0
 42
0.0087667676747916
 70
     2
 50
312.73210328969742
  0
VERTEX
  5
335
  8
0
 10
348.54344114509797
 20
632.86755960858648
 30
0.0
 42
0.1247948845774807
  0
SEQEND
  5
336
  8
0
  0
LINE
  5
337
  8
0
 10
339.15240912078838
 20
644.86755960858648
 30
0.0
 11
301.08842850599751
 21
644.86755960858648
 31
0.0
  0
LINE
  5
338
  8
0
 10
345.98842850603887
 20
639.21236824298751
 30
0.0
 11
345.98842850603887
 21
639.9706143470828
 31
0.0
  0
ARC
  5
339
  8
0
 10
307.98842850603882
 20
648.86755960858613
 30
0.0
 40
40.0
 50
16.242122973033009
 51
20.783235495936601
  0
LINE
  5
33A
  8
0
 10
343.9884285060387
 20
663.86755960858659
 30
0.0
 11
303.9884285060387
 21
663.86755960858659
 31
0.0
  0
LINE
  5
33B
  8
0
 10
302.59124693877152
 20
663.06089645461805
 30
0.0
 11
345.3856100733048
 21
663.06089645461884
 31
0.0
  0
LINE
  5
33C
  8
0
 10
312.98842850603808
 20
535.90979056252741
 30
0.0
 11
334.98842850603938
 21
535.90979056252741
 31
0.0
  0
LINE
  5
33D
  8
0
 10
312.98842850603808
 20
584.36755960858659
 30
0.0
 11
334.98842850603938
 21
584.36755960858659
 31
0.0
  0
LINE
  5
33E
  8
0
 10
333.4884285060395
 20
611.36755960858636
 30
0.0
 11
314.48842850603802
 21
611.36755960858784
 31
0.0
  0
LINE
  5
33F
  8
0
 10
334.98842850603938
 20
584.36755960858659
 30
0.0
 11
334.06829262731338
 21
606.45082069801083
 31
0.0
  0
ARC
  5
340
  8
0
 10
332.07002648112871
 20
606.36755960858648
 30
0.0
 40
2.0
 50
2.3859440303887092
 51
89.999999999999957
  0
LINE
  5
341
  8
0
 10
333.4884285060395
 20
611.36755960858636
 30
0.0
 11
333.4884285060395
 21
608.36755960858636
 31
0.0
  0
LINE
  5
342
  8
0
 10
333.4884285060395
 20
608.36755960858636
 30
0.0
 11
314.48842850603802
 21
608.36755960858636
 31
0.0
  0
LINE
  5
343
  8
0
 10
314.48842850603802
 20
611.36755960858636
 30
0.0
 11
314.48842850603802
 21
608.36755960858636
 31
0.0
  0
ARC
  5
344
  8
0
 10
315.90683053094881
 20
606.36755960858648
 30
0.0
 40
2.0
 50
89.999999999999957
 51
177.6140559696112
  0
LINE
  5
345
  8
0
 10
312.98842850603808
 20
584.36755960858659
 30
0.0
 11
313.90856438476408
 21
606.45082069801083
 31
0.0
  0
LINE
  5
346
  8
0
 10
334.98842850603808
 20
584.36755960858648
 30
0.0
 11
334.98842850603808
 21
535.90979056252741
 31
0.0
  0
LINE
  5
347
  8
0
 10
312.98842850603808
 20
584.36755960858648
 30
0.0
 11
312.98842850603802
 21
535.90979056252775
 31
0.0
  0
ARC
  5
348
  8
0
 10
323.98842850603882
 20
574.36755960858636
 30
0.0
 40
40.0
 50
254.03798583715169
 51
285.96201416284617
  0
LINE
  5
349
  8
0
 10
345.38561007330401
 20
663.06089645461918
 30
0.0
 11
343.9884285060387
 21
663.86755960858659
 31
0.0
  0
ARC
  5
34A
  8
2
 10
339.9885767941762
 20
648.91626882928199
 30
0.0
 40
8.0
 50
329.59635375493019
 51
359.65114374837111
  0
LINE
  5
34B
  8
0
 10
400.9884285060387
 20
632.86755960858648
 30
0.0
 11
246.98842850603879
 21
632.86755960858648
 31
0.0
  0
ARC
  5
34C
  8
0
 10
400.9884285060387
 20
629.86755960858659
 30
0.0
 40
3.0
 50
360.0
 51
89.999999999999957
  0
ARC
  5
34D
  8
0
 10
400.9884285060387
 20
614.86755960858648
 30
0.0
 40
3.0
 50
270.0
 51
360.0
  0
LINE
  5
34E
  8
0
 10
403.9884285060387
 20
614.86755960858648
 30
0.0
 11
403.9884285060387
 21
629.86755960858659
 31
0.0
  0
LINE
  5
34F
  8
0
 10
246.98842850603879
 20
611.86755960858648
 30
0.0
 11
400.9884285060387
 21
611.86755960858648
 31
0.0
  0
ARC
  5
350
  8
0
 10
342.48842850603882
 20
675.36755960858659
 30
0.0
 40
1.5
 50
360.0
 51
89.999999999999957
  0
LINE
  5
351
  8
0
 10
343.9884285060387
 20
675.36755960858659
 30
0.0
 11
343.9884285060387
 21
663.86755960858659
 31
0.0
  0
LINE
  5
352
  8
0
 10
305.48842850603882
 20
676.86755960858648
 30
0.0
 11
342.48842850603882
 21
676.86755960858648
 31
0.0
  0
LINE
  5
353
  8
1
 10
323.98842850603882
 20
524.36755960858636
 30
0.0
 11
323.98842850603882
 21
691.86755960858659
 31
0.0
  0
LINE
  5
354
  8
0
 10
355.904124372311
 20
632.86755960858648
 30
0.0
 11
337.88956597218629
 21
645.77219042135346
 31
0.0
  0
LINE
  5
355
  8
2
 10
339.15240912078838
 20
644.86755960858648
 30
0.0
 11
346.88842850607392
 21
644.86755960857704
 31
0.0
  0
ARC
  5
356
  8
2
 10
307.98842850603882
 20
648.86755960858613
 30
0.0
 40
40.0
 50
359.9999999999996
 51
16.242122973033009
  0
ARC
  5
357
  8
0
 10
336.72487412027112
 20
644.14630823309915
 30
0.0
 40
2.0
 50
54.38428770298372
 51
158.86137338372521
  0
LINE
  5
358
  8
0
 10
376.77370945492652
 20
632.86755960858648
 30
0.0
 11
347.93283007361953
 21
657.66246341552289
 31
0.0
  0
ARC
  5
359
  8
0
 10
351.19240273600383
 20
661.4539256741557
 30
0.0
 40
5.0
 50
196.24212297303279
 51
229.3138945744868
  0
LINE
  5
35A
  8
0
 10
336.73292127966039
 20
659.71692221030082
 30
0.0
 11
370.24080200893792
 21
632.86755960858648
 31
0.0
  0
ARC
  5
35B
  8
0
 10
339.85945286667709
 20
663.61881921501345
 30
0.0
 40
5.0
 50
200.1456737044555
 51
231.29532613073761
  0
ARC
  5
35C
  8
0
 10
308.11740414540043
 20
663.61881921501345
 30
0.0
 40
5.0
 50
308.70467386926242
 51
339.85432629554452
  0
LINE
  5
35D
  8
0
 10
311.24393573241713
 20
659.71692221030082
 30
0.0
 11
277.7360550031396
 21
632.86755960858648
 31
0.0
  0
ARC
  5
35E
  8
0
 10
296.78445427607369
 20
661.4539256741557
 30
0.0
 40
5.0
 50
310.68610542551318
 51
343.75787702696721
  0
LINE
  5
35F
  8
0
 10
271.203147557151
 20
632.86755960858648
 30
0.0
 11
300.04402693845799
 21
657.66246341552289
 31
0.0
  0
ARC
  5
360
  8
0
 10
311.25198289180639
 20
644.14630823309915
 30
0.0
 40
2.0
 50
21.138626616274841
 51
125.6157122970163
  0
ARC
  5
361
  8
2
 10
339.98842850603882
 20
648.86755960858613
 30
0.0
 40
40.0
 50
163.75787702696701
 51
180.00000000000051
  0
LINE
  5
362
  8
2
 10
308.82444789128908
 20
644.86755960858648
 30
0.0
 11
301.08842850600359
 21
644.86755960857704
 31
0.0
  0
LINE
  5
363
  8
0
 10
292.07273263976651
 20
632.86755960858648
 30
0.0
 11
310.08729103989123
 21
645.77219042135346
 31
0.0
  0
LINE
  5
364
  8
0
 10
303.9884285060387
 20
675.36755960858659
 30
0.0
 11
303.9884285060387
 21
663.86755960858659
 31
0.0
  0
ARC
  5
365
  8
0
 10
305.48842850603882
 20
675.36755960858659
 30
0.0
 40
1.5
 50
90.000000000000057
 51
180.00000000000011
  0
ARC
  5
366
  8
0
 10
246.98842850603879
 20
629.86755960858659
 30
0.0
 40
3.0
 50
90.000000000000057
 51
180.00000000000011
  0
ARC
  5
367
  8
2
 10
307.98828021790132
 20
648.91626882928199
 30
0.0
 40
8.0
 50
180.34885625162889
 51
210.40364624506969
  0
LINE
  5
368
  8
0
 10
302.59124693877362
 20
663.06089645461918
 30
0.0
 11
303.9884285060387
 21
663.86755960858659
 31
0.0
  0
ARC
  5
369
  8
0
 10
339.98842850603882
 20
648.86755960858613
 30
0.0
 40
40.0
 50
159.21676450406341
 51
163.75787702696701
  0
LINE
  5
36A
  8
0
 10
301.9884285060387
 20
639.21236824298751
 30
0.0
 11
301.9884285060387
 21
639.9706143470828
 31
0.0
  0
POLYLINE
  5
36B
  8
0
 66
     1
 10
0.0
 20
0.0
 30
0.0
  0
VERTEX
  5
36C
  8
0
 10
301.9884285060387
 20
639.2123682429874
 30
0.0
 42
-0.0916213718818915
  0
VERTEX
  5
36D
  8
0
 10
301.37026255049699
 20
635.86720562532582
 30
0.0
 42
-0.0953753144441082
  0
VERTEX
  5
36E
  8
0
 10
299.64528275553101
 20
633.08898171199064
 30
0.0
 42
-0.0087667676747916
 70
     2
 50
227.26789671030261
  0
VERTEX
  5
36F
  8
0
 10
299.43341586697949
 20
632.86755960858648
 30
0.0
 42
-0.1247948845774807
  0
SEQEND
  5
370
  8
0
  0
LINE
  5
371
  8
0
 10
243.9884285060387
 20
614.86755960858648
 30
0.0
 11
243.9884285060387
 21
629.86755960858659
 31
0.0
  0
ARC
  5
372
  8
0
 10
246.98842850603879
 20
614.86755960858648
 30
0.0
 40
3.0
 50
180.00000000000011
 51
270.00000000000011
  0
LINE
  5
373
  8
0
 10
313.98842850603938
 20
178.4921526216292
 30
0.0
 11
314.4884285060395
 21
178.9921526216292
 31
0.0
  0
LINE
  5
374
  8
0
 10
333.98842850603808
 20
178.4921526216292
 30
0.0
 11
333.48842850603808
 21
178.9921526216292
 31
0.0
  0
LINE
  5
375
  8
0
 10
313.98842850603938
 20
611.86755960858648
 30
0.0
 11
314.4884285060395
 21
611.36755960858648
 31
0.0
  0
LINE
  5
376
  8
0
 10
333.98842850603808
 20
611.86755960858648
 30
0.0
 11
333.48842850603808
 21
611.36755960858648
 31
0.0
  0
ARC
  5
377
  8
0
 10
585.79470787774335
 20
128.90578655605989
 30
0.0
 40
5.0
 50
16.242122973032789
 51
49.31389457448681
  0
ARC
  5
378
  8
0
 10
640.2026563376736
 20
128.90578655605989
 30
0.0
 40
5.0
 50
130.68610542551309
 51
163.75787702696721
  0
LINE
  5
379
  8
0
 10
560.21340115882072
 20
157.49215262162909
 30
0.0
 11
589.05428054012771
 21
132.69724881469281
 31
0.0
  0
LINE
  5
37A
  8
0
 10
581.08298624143617
 20
157.49215262162909
 30
0.0
 11
590.99868210770842
 21
150.38909788313299
 31
0.0
  0
LINE
  5
37B
  8
0
 10
644.91437797398078
 20
157.49215262162909
 30
0.0
 11
634.99868210770865
 21
150.38909788313291
 31
0.0
  0
LINE
  5
37C
  8
0
 10
665.78396305659624
 20
157.49215262162909
 30
0.0
 11
636.94308367528924
 21
132.69724881469281
 31
0.0
  0
LINE
  5
37D
  8
0
 10
592.99868210770853
 20
114.9921526216291
 30
0.0
 11
592.99868210770853
 21
126.4921526216291
 31
0.0
  0
ARC
  5
37E
  8
0
 10
594.49868210770853
 20
114.9921526216291
 30
0.0
 40
1.5
 50
180.0
 51
270.0
  0
LINE
  5
37F
  8
0
 10
532.99868210770853
 20
175.49215262162909
 30
0.0
 11
532.99868210770853
 21
160.49215262162909
 31
0.0
  0
ARC
  5
380
  8
0
 10
535.99868210770853
 20
175.49215262162909
 30
0.0
 40
3.0
 50
90.000000000000014
 51
179.99999999999989
  0
ARC
  5
381
  8
0
 10
535.99868210770853
 20
160.49215262162909
 30
0.0
 40
3.0
 50
180.0
 51
270.0
  0
LINE
  5
382
  8
0
 10
590.09868210766717
 20
145.49215262162909
 30
0.0
 11
590.99868210770842
 21
145.49215262162909
 31
0.0
  0
ARC
  5
383
  8
0
 10
596.99853381957098
 20
141.44344340093369
 30
0.0
 40
8.0
 50
149.59635375493031
 51
179.65114374837111
  0
LINE
  5
384
  8
0
 10
591.60150054044334
 20
127.2988157755964
 30
0.0
 11
592.99868210770853
 21
126.4921526216291
 31
0.0
  0
ARC
  5
385
  8
0
 10
628.99868210770853
 20
141.49215262162949
 30
0.0
 40
40.0
 50
179.9999999999996
 51
200.78323549593659
  0
LINE
  5
386
  8
0
 10
590.99868210770842
 20
151.1473439872282
 30
0.0
 11
590.99868210770842
 21
132.71919889420499
 31
0.0
  0
POLYLINE
  5
387
  8
0
 66
     1
 10
0.0
 20
0.0
 30
0.0
  0
VERTEX
  5
388
  8
0
 10
590.99868210770842
 20
151.14734398722831
 30
0.0
 42
0.0916213718818915
  0
VERTEX
  5
389
  8
0
 10
590.38051615216682
 20
154.4925066048898
 30
0.0
 42
0.0953753144441082
  0
VERTEX
  5
38A
  8
0
 10
588.65553635720073
 20
157.27073051822501
 30
0.0
 42
0.0087667676747916
 70
     2
 50
132.73210328969751
  0
VERTEX
  5
38B
  8
0
 10
588.44366946864932
 20
157.49215262162909
 30
0.0
 42
0.1247948845774807
  0
SEQEND
  5
38C
  8
0
  0
POLYLINE
  5
38D
  8
0
 66
     1
 10
0.0
 20
0.0
 30
0.0
  0
VERTEX
  5
38E
  8
0
 10
590.82693662870633
 20
130.99471601711659
 30
0.0
 42
0.0293950503562921
 70
     2
 50
74.265635951048338
  0
VERTEX
  5
38F
  8
0
 10
590.9334399324722
 20
131.59727069613129
 30
0.0
 42
0.0290513742786188
  0
VERTEX
  5
390
  8
0
 10
590.99868210770842
 20
132.71919889420499
 30
0.0
 42
0.0290513742786576
  0
SEQEND
  5
391
  8
0
  0
POLYLINE
  5
392
  8
0
 66
     1
 10
0.0
 20
0.0
 30
0.0
  0
VERTEX
  5
393
  8
0
 10
635.17042758671073
 20
130.99471601711659
 30
0.0
 42
-0.0293950503562921
 70
     2
 50
105.7343640489516
  0
VERTEX
  5
394
  8
0
 10
635.06392428294475
 20
131.59727069613129
 30
0.0
 42
-0.0290513742786188
 50
360.0
  0
VERTEX
  5
395
  8
0
 10
634.99868210770865
 20
132.71919889420499
 30
0.0
 42
-0.0290513742786576
 50
360.0
  0
SEQEND
  5
396
  8
0
  0
POLYLINE
  5
397
  8
0
 66
     1
 10
0.0
 20
0.0
 30
0.0
  0
VERTEX
  5
398
  8
0
 10
634.99868210770865
 20
151.14734398722831
 30
0.0
 42
-0.0916213718818915
 50
360.0
  0
VERTEX
  5
399
  8
0
 10
635.61684806325025
 20
154.4925066048898
 30
0.0
 42
-0.0953753144441082
 50
360.0
  0
VERTEX
  5
39A
  8
0
 10
637.34182785821633
 20
157.27073051822501
 30
0.0
 42
-0.0087667676747916
 70
     2
 50
47.267896710302459
  0
VERTEX
  5
39B
  8
0
 10
637.55369474676775
 20
157.49215262162909
 30
0.0
 42
-0.1247948845774807
 50
360.0
  0
SEQEND
  5
39C
  8
0
  0
LINE
  5
39D
  8
2
 10
634.99868210770865
 20
145.49215262162909
 30
0.0
 11
590.99868210770842
 21
145.49215262162889
 31
0.0
  0
LINE
  5
39E
  8
0
 10
634.99868210770865
 20
151.1473439872282
 30
0.0
 11
634.99868210770865
 21
132.71919889420499
 31
0.0
  0
ARC
  5
39F
  8
0
 10
596.99868210770853
 20
141.49215262162949
 30
0.0
 40
40.0
 50
339.21676450406329
 51
0.000000000000444
  0
LINE
  5
3A0
  8
0
 10
632.99868210770853
 20
126.492152621629
 30
0.0
 11
592.99868210770853
 21
126.4921526216291
 31
0.0
  0
LINE
  5
3A1
  8
0
 10
591.60150054044118
 20
127.2988157755976
 30
0.0
 11
634.39586367497452
 21
127.29881577559679
 31
0.0
  0
LINE
  5
3A2
  8
0
 10
634.39586367497373
 20
127.2988157755964
 30
0.0
 11
632.99868210770853
 21
126.4921526216291
 31
0.0
  0
ARC
  5
3A3
  8
0
 10
628.99883039584586
 20
141.44344340093369
 30
0.0
 40
8.0
 50
0.3488562516288666
 51
30.40364624506973
  0
LINE
  5
3A4
  8
0
 10
689.99868210770853
 20
157.49215262162909
 30
0.0
 11
535.99868210770853
 21
157.49215262162909
 31
0.0
  0
LINE
  5
3A5
  8
0
 10
635.89868210774978
 20
145.49215262162909
 30
0.0
 11
634.99868210770865
 21
145.49215262162909
 31
0.0
  0
ARC
  5
3A6
  8
0
 10
689.99868210770853
 20
160.49215262162909
 30
0.0
 40
3.0
 50
270.0
 51
360.0
  0
ARC
  5
3A7
  8
0
 10
689.99868210770853
 20
175.49215262162909
 30
0.0
 40
3.0
 50
0.0000000000000877
 51
89.999999999999986
  0
LINE
  5
3A8
  8
0
 10
692.99868210770853
 20
175.49215262162909
 30
0.0
 11
692.99868210770853
 21
160.49215262162909
 31
0.0
  0
LINE
  5
3A9
  8
0
 10
535.99868210770853
 20
178.49215262162909
 30
0.0
 11
689.99868210770853
 21
178.49215262162909
 31
0.0
  0
ARC
  5
3AA
  8
0
 10
631.49868210770853
 20
114.9921526216291
 30
0.0
 40
1.5
 50
270.0
 51
360.0
  0
LINE
  5
3AB
  8
0
 10
632.99868210770853
 20
114.9921526216291
 30
0.0
 11
632.99868210770853
 21
126.4921526216291
 31
0.0
  0
LINE
  5
3AC
  8
0
 10
594.49868210770853
 20
113.4921526216291
 30
0.0
 11
631.49868210770853
 21
113.4921526216291
 31
0.0
  0
LINE
  5
3AD
  8
0
 10
656.42688250425454
 20
157.49215262162909
 30
0.0
 11
636.83635995296561
 21
143.04754141578729
 31
0.0
  0
LINE
  5
3AE
  8
0
 10
569.57048171116253
 20
157.49215262162909
 30
0.0
 11
589.16100426245146
 21
143.04754141578729
 31
0.0
  0
LINE
  5
3AF
  8
0
 10
622.99868210770785
 20
611.86755960858648
 30
0.0
 11
622.49868210770785
 21
611.36755960858648
 31
0.0
  0
LINE
  5
3B0
  8
0
 10
602.99868210770921
 20
611.86755960858648
 30
0.0
 11
603.49868210770921
 21
611.36755960858648
 31
0.0
  0
ARC
  5
3B1
  8
0
 10
535.99868210770853
 20
614.86755960858648
 30
0.0
 40
3.0
 50
180.00000000000011
 51
270.00000000000011
  0
LINE
  5
3B2
  8
0
 10
532.99868210770853
 20
614.86755960858648
 30
0.0
 11
532.99868210770853
 21
629.86755960858659
 31
0.0
  0
POLYLINE
  5
3B3
  8
0
 66
     1
 10
0.0
 20
0.0
 30
0.0
  0
VERTEX
  5
3B4
  8
0
 10
590.99868210770842
 20
639.2123682429874
 30
0.0
 42
-0.0916213718818915
  0
VERTEX
  5
3B5
  8
0
 10
590.38051615216682
 20
635.86720562532582
 30
0.0
 42
-0.0953753144441082
  0
VERTEX
  5
3B6
  8
0
 10
588.65553635720073
 20
633.08898171199064
 30
0.0
 42
-0.0087667676747916
 70
     2
 50
227.26789671030261
  0
VERTEX
  5
3B7
  8
0
 10
588.44366946864932
 20
632.86755960858648
 30
0.0
 42
-0.1247948845774807
  0
SEQEND
  5
3B8
  8
0
  0
LINE
  5
3B9
  8
0
 10
590.99868210770842
 20
639.21236824298751
 30
0.0
 11
590.99868210770842
 21
639.9706143470828
 31
0.0
  0
ARC
  5
3BA
  8
0
 10
628.99868210770853
 20
648.86755960858613
 30
0.0
 40
40.0
 50
159.21676450406341
 51
163.75787702696701
  0
LINE
  5
3BB
  8
0
 10
591.60150054044334
 20
663.06089645461918
 30
0.0
 11
592.99868210770853
 21
663.86755960858659
 31
0.0
  0
ARC
  5
3BC
  8
2
 10
596.99853381957098
 20
648.91626882928199
 30
0.0
 40
8.0
 50
180.34885625162889
 51
210.40364624506969
  0
ARC
  5
3BD
  8
0
 10
535.99868210770853
 20
629.86755960858659
 30
0.0
 40
3.0
 50
90.000000000000057
 51
180.00000000000011
  0
ARC
  5
3BE
  8
0
 10
594.49868210770853
 20
675.36755960858659
 30
0.0
 40
1.5
 50
90.000000000000057
 51
180.00000000000011
  0
LINE
  5
3BF
  8
0
 10
592.99868210770853
 20
675.36755960858659
 30
0.0
 11
592.99868210770853
 21
663.86755960858659
 31
0.0
  0
LINE
  5
3C0
  8
0
 10
581.08298624143629
 20
632.86755960858648
 30
0.0
 11
599.09754464156094
 21
645.77219042135346
 31
0.0
  0
LINE
  5
3C1
  8
2
 10
597.83470149295886
 20
644.86755960858648
 30
0.0
 11
590.09868210767331
 21
644.86755960857704
 31
0.0
  0
ARC
  5
3C2
  8
2
 10
628.99868210770853
 20
648.86755960858613
 30
0.0
 40
40.0
 50
163.75787702696701
 51
180.00000000000051
  0
ARC
  5
3C3
  8
0
 10
600.26223649347617
 20
644.14630823309915
 30
0.0
 40
2.0
 50
21.138626616274841
 51
125.6157122970163
  0
LINE
  5
3C4
  8
0
 10
560.21340115882072
 20
632.86755960858648
 30
0.0
 11
589.05428054012782
 21
657.66246341552289
 31
0.0
  0
ARC
  5
3C5
  8
0
 10
585.79470787774335
 20
661.4539256741557
 30
0.0
 40
5.0
 50
310.68610542551318
 51
343.75787702696721
  0
LINE
  5
3C6
  8
0
 10
600.25418933408685
 20
659.71692221030082
 30
0.0
 11
566.74630860480943
 21
632.86755960858648
 31
0.0
  0
ARC
  5
3C7
  8
0
 10
597.12765774707009
 20
663.61881921501345
 30
0.0
 40
5.0
 50
308.70467386926242
 51
339.85432629554452
  0
ARC
  5
3C8
  8
0
 10
628.86970646834698
 20
663.61881921501345
 30
0.0
 40
5.0
 50
200.1456737044555
 51
231.29532613073761
  0
LINE
  5
3C9
  8
0
 10
625.74317488133011
 20
659.71692221030082
 30
0.0
 11
659.25105561060764
 21
632.86755960858648
 31
0.0
  0
ARC
  5
3CA
  8
0
 10
640.2026563376736
 20
661.4539256741557
 30
0.0
 40
5.0
 50
196.24212297303279
 51
229.3138945744868
  0
LINE
  5
3CB
  8
0
 10
665.78396305659635
 20
632.86755960858648
 30
0.0
 11
636.94308367528924
 21
657.66246341552289
 31
0.0
  0
ARC
  5
3CC
  8
0
 10
625.7351277219409
 20
644.14630823309915
 30
0.0
 40
2.0
 50
54.38428770298372
 51
158.86137338372521
  0
ARC
  5
3CD
  8
2
 10
596.99868210770853
 20
648.86755960858613
 30
0.0
 40
40.0
 50
359.9999999999996
 51
16.242122973033009
  0
LINE
  5
3CE
  8
2
 10
628.16266272245821
 20
644.86755960858648
 30
0.0
 11
635.89868210774375
 21
644.86755960857704
 31
0.0
  0
LINE
  5
3CF
  8
0
 10
644.91437797398078
 20
632.86755960858648
 30
0.0
 11
626.89981957385612
 21
645.77219042135346
 31
0.0
  0
LINE
  5
3D0
  8
0
 10
594.49868210770853
 20
676.86755960858648
 30
0.0
 11
631.49868210770853
 21
676.86755960858648
 31
0.0
  0
LINE
  5
3D1
  8
0
 10
632.99868210770853
 20
675.36755960858659
 30
0.0
 11
632.99868210770853
 21
663.86755960858659
 31
0.0
  0
ARC
  5
3D2
  8
0
 10
631.49868210770853
 20
675.36755960858659
 30
0.0
 40
1.5
 50
360.0
 51
89.999999999999957
  0
LINE
  5
3D3
  8
0
 10
535.99868210770853
 20
611.86755960858648
 30
0.0
 11
689.99868210770853
 21
611.86755960858648
 31
0.0
  0
LINE
  5
3D4
  8
0
 10
692.99868210770853
 20
614.86755960858648
 30
0.0
 11
692.99868210770853
 21
629.86755960858659
 31
0.0
  0
ARC
  5
3D5
  8
0
 10
689.99868210770853
 20
614.86755960858648
 30
0.0
 40
3.0
 50
270.0
 51
360.0
  0
ARC
  5
3D6
  8
0
 10
689.99868210770853
 20
629.86755960858659
 30
0.0
 40
3.0
 50
360.0
 51
89.999999999999957
  0
LINE
  5
3D7
  8
0
 10
689.99868210770853
 20
632.86755960858648
 30
0.0
 11
535.99868210770853
 21
632.86755960858648
 31
0.0
  0
ARC
  5
3D8
  8
2
 10
628.99883039584586
 20
648.91626882928199
 30
0.0
 40
8.0
 50
329.59635375493019
 51
359.65114374837111
  0
LINE
  5
3D9
  8
0
 10
634.39586367497373
 20
663.06089645461918
 30
0.0
 11
632.99868210770853
 21
663.86755960858659
 31
0.0
  0
LINE
  5
3DA
  8
0
 10
622.49868210770921
 20
611.36755960858636
 30
0.0
 11
603.49868210770774
 21
611.36755960858784
 31
0.0
  0
LINE
  5
3DB
  8
0
 10
591.60150054044118
 20
663.06089645461805
 30
0.0
 11
634.39586367497452
 21
663.06089645461884
 31
0.0
  0
LINE
  5
3DC
  8
0
 10
632.99868210770853
 20
663.86755960858659
 30
0.0
 11
592.99868210770853
 21
663.86755960858659
 31
0.0
  0
ARC
  5
3DD
  8
0
 10
596.99868210770853
 20
648.86755960858613
 30
0.0
 40
40.0
 50
16.242122973033009
 51
20.783235495936601
  0
LINE
  5
3DE
  8
0
 10
634.99868210770865
 20
639.21236824298751
 30
0.0
 11
634.99868210770865
 21
639.9706143470828
 31
0.0
  0
LINE
  5
3DF
  8
0
 10
628.16266272245821
 20
644.86755960858648
 30
0.0
 11
590.09868210766717
 21
644.86755960858648
 31
0.0
  0
POLYLINE
  5
3E0
  8
0
 66
     1
 10
0.0
 20
0.0
 30
0.0
  0
VERTEX
  5
3E1
  8
0
 10
634.99868210770865
 20
639.2123682429874
 30
0.0
 42
0.0916213718818915
  0
VERTEX
  5
3E2
  8
0
 10
635.61684806325025
 20
635.86720562532582
 30
0.0
 42
0.0953753144441082
  0
VERTEX
  5
3E3
  8
0
 10
637.34182785821633
 20
633.08898171199064
 30
0.0
 42
0.0087667676747916
 70
     2
 50
312.73210328969742
  0
VERTEX
  5
3E4
  8
0
 10
637.55369474676775
 20
632.86755960858648
 30
0.0
 42
0.1247948845774807
  0
SEQEND
  5
3E5
  8
0
  0
LINE
  5
3E6
  8
1
 10
633.99868210770853
 20
169.99215262162909
 30
0.0
 11
591.99868210770853
 21
169.99215262162909
 31
0.0
  0
ARC
  5
3E7
  8
0
 10
612.99868210770853
 20
169.99215262162909
 30
0.0
 40
10.99999999999932
 50
50.599431246262093
 51
129.4005687537379
  0
ARC
  5
3E8
  8
2
 10
612.99868210770853
 20
169.99215262162909
 30
0.0
 40
10.99999999999932
 50
129.4005687537379
 51
50.599431246262093
  0
LINE
  5
3E9
  8
1
 10
612.99868210770853
 20
103.4921526216291
 30
0.0
 11
612.99868210770853
 21
188.492152621629
 31
0.0
  0
ARC
  5
3EA
  8
2
 10
612.99868210770853
 20
620.3675596085867
 30
0.0
 40
10.99999999999932
 50
305.0968012275228
 51
234.9031987724687
  0
LINE
  5
3EB
  8
1
 10
612.99868210770853
 20
686.8675596085867
 30
0.0
 11
612.99868210770853
 21
601.86755960858659
 31
0.0
  0
LINE
  5
3EC
  8
1
 10
633.99868210770853
 20
620.3675596085867
 30
0.0
 11
591.99868210770853
 21
620.36755960858648
 31
0.0
  0
ARC
  5
3ED
  8
0
 10
612.99868210770853
 20
620.3675596085867
 30
0.0
 40
11.0
 50
234.9031987724687
 51
305.0968012275228
  0
LINE
  5
3EE
  8
0
 10
622.49868210770921
 20
178.99215262162929
 30
0.0
 11
619.32323742803987
 21
178.99215262162909
 31
0.0
  0
LINE
  5
3EF
  8
0
 10
602.99868210770921
 20
178.4921526216292
 30
0.0
 11
603.49868210770921
 21
178.9921526216292
 31
0.0
  0
LINE
  5
3F0
  8
0
 10
622.99868210770785
 20
178.4921526216292
 30
0.0
 11
622.49868210770785
 21
178.9921526216292
 31
0.0
  0
LINE
  5
3F1
  8
0
 10
606.67412678737571
 20
178.99215262162809
 30
0.0
 11
603.49868210770774
 21
178.99215262162789
 31
0.0
  0
ARC
  5
3F2
  8
0
 10
612.99868210770853
 20
620.3675596085867
 30
0.0
 40
9.5
 50
251.3282819361514
 51
288.67171806384061
  0
LINE
  5
3FC
  8
0
 10
621.33593918318729
 20
640.86755960858648
 30
0.0
 11
604.66142503222966
 21
640.86755960858648
 31
0.0
  0
LINE
  5
3FD
  8
0
 10
623.87993409520254
 20
639.45755642859615
 30
0.0
 11
626.52992879521832
 21
635.21756490857058
 31
0.0
  0
LINE
  5
3FE
  8
0
 10
602.11743012021452
 20
639.45755642859615
 30
0.0
 11
599.46743542019863
 21
635.21756490857047
 31
0.0
  0
ARC
  5
3FF
  8
0
 10
604.66142503222966
 20
637.86755960858659
 30
0.0
 40
3.0
 50
90.0
 51
147.9946167919164
  0
ARC
  5
400
  8
0
 10
621.33593918318729
 20
637.86755960858659
 30
0.0
 40
3.0
 50
32.005383208083522
 51
90.0
  0
ARC
  5
401
  8
0
 10
630.76992031524378
 20
637.86755960858659
 30
0.0
 40
5.0
 50
212.0053832080836
 51
269.99999999999989
  0
ARC
  5
402
  8
0
 10
595.22744390017306
 20
637.86755960858636
 30
0.0
 40
5.0
 50
270.0
 51
327.99461679191643
  0
ARC
  5
403
  8
0
 10
306.2171902985034
 20
637.86755960858636
 30
0.0
 40
5.0
 50
270.0
 51
327.99461679191643
  0
LINE
  5
404
  8
0
 10
313.10717651854469
 20
639.45755642859615
 30
0.0
 11
310.4571818185288
 21
635.21756490857047
 31
0.0
  0
ARC
  5
405
  8
0
 10
315.65117143056
 20
637.86755960858659
 30
0.0
 40
3.0
 50
90.0
 51
147.9946167919164
  0
LINE
  5
406
  8
0
 10
332.32568558151752
 20
640.86755960858648
 30
0.0
 11
315.65117143056
 21
640.86755960858648
 31
0.0
  0
ARC
  5
407
  8
0
 10
341.75966671357401
 20
637.86755960858659
 30
0.0
 40
5.0
 50
212.0053832080836
 51
269.99999999999989
  0
ARC
  5
408
  8
0
 10
332.32568558151752
 20
637.86755960858659
 30
0.0
 40
3.0
 50
32.005383208083522
 51
90.0
  0
LINE
  5
409
  8
0
 10
334.86968049353283
 20
639.45755642859615
 30
0.0
 11
337.51967519354861
 21
635.21756490857058
 31
0.0
  0
TEXT
  5
491
  8
0
 10
1011.536165858231
 20
345.40362988291452
 30
0.0
 40
7.4998922305139679
  1
1
 50
270.56609785244279
 41
0.7560217267967135
 51
0.1666526811784319
  7
K90
 72
     1
 11
1011.558841038028
 21
343.10870892435452
 31
0.0
  0
TEXT
  5
492
  8
0
 10
1011.590586289743
 20
339.89581958237233
 30
0.0
 40
7.4998922305139679
  1
6
 50
270.56609785244291
 41
0.7560217267966566
 51
0.1666526811784319
  7
K90
 72
     1
 11
1011.618596805963
 21
337.06091722179838
 31
0.0
  0
TEXT
  5
493
  8
0
 10
1011.651675891783
 20
333.71303252931227
 30
0.0
 40
7.4998922305139679
  1
0
 50
270.56609785244279
 41
0.7560217267967135
 51
0.1666526811784319
  7
K90
 72
     1
 11
1011.678352573897
 21
331.01312551924173
 31
0.0
  0
TEXT
  5
494
  8
0
 10
1010.97861318374
 20
355.03539517274152
 30
0.0
 40
7.9998850458815483
  1
Y
 50
270.56609785243432
 41
0.7560217267966573
 51
0.1666526811698787
  7
K90
 72
     1
 11
1011.004222798568
 21
352.44348444307388
 31
0.0
  0
TEXT
  5
495
  8
0
 10
1010.915741551667
 20
361.39853881417582
 30
0.0
 40
7.9998850458815438
  1
S
 50
270.56609785244291
 41
0.7560217267966588
 51
0.1666526811785918
  7
K90
 72
     1
 11
1010.944196679255
 21
358.51863800343398
 31
0.0
  0
LINE
  5
496
  8
0
 10
1015.331630485739
 20
346.1280072961099
 30
0.0
 11
1015.2984328368869
 21
349.48789157531661
 31
0.0
  0
TEXT
  5
544
  8
0
 62
     3
 10
0.0
 20
0.0
 30
0.0
 40
10.0
  1
SY160
  7
STANDARD1
  0
ENDSEC
  0
EOF
