  0
SECTION
  2
HEADER
  9
$ACADVER
  1
AC1009
  9
$INSBASE
 10
0.0
 20
0.0
 30
0.0
  9
$EXTMIN
 10
0.0
 20
-2.960436562073669
 30
0.0
  9
$EXTMAX
 10
297.55412903486121
 20
304.0
 30
0.0
  9
$LIMMIN
 10
0.0
 20
0.0
  9
$LIMMAX
 10
375.0
 20
278.0
  9
$ORTHOMODE
 70
     1
  9
$REGENMODE
 70
     1
  9
$FILLMODE
 70
     1
  9
$QTEXTMODE
 70
     0
  9
$MIRRTEXT
 70
     0
  9
$DRAGMODE
 70
     2
  9
$LTSCALE
 40
5.0
  9
$OSMODE
 70
    37
  9
$ATTMODE
 70
     1
  9
$TEXTSIZE
 40
0.2
  9
$TRACEWID
 40
0.05
  9
$TEXTSTYLE
  7
STANDARD
  9
$CLAYER
  8
0
  9
$CELTYPE
  6
BYLAYER
  9
$CECOLOR
 62
   256
  9
$DIMSCALE
 40
1.0
  9
$DIMASZ
 40
3.0
  9
$DIMEXO
 40
1.0
  9
$DIMDLI
 40
6.0
  9
$DIMRND
 40
0.0
  9
$DIMDLE
 40
0.0
  9
$DIMEXE
 40
1.0
  9
$DIMTP
 40
495.0
  9
$DIMTM
 40
0.0
  9
$DIMTXT
 40
3.0
  9
$DIMCEN
 40
0.0
  9
$DIMTSZ
 40
0.0
  9
$DIMTOL
 70
     0
  9
$DIMLIM
 70
     0
  9
$DIMTIH
 70
     0
  9
$DIMTOH
 70
     0
  9
$DIMSE1
 70
     0
  9
$DIMSE2
 70
     0
  9
$DIMTAD
 70
     1
  9
$DIMZIN
 70
     0
  9
$DIMBLK
  1

  9
$DIMASO
 70
     1
  9
$DIMSHO
 70
     0
  9
$DIMPOST
  1

  9
$DIMAPOST
  1

  9
$DIMALT
 70
     0
  9
$DIMALTD
 70
     2
  9
$DIMALTF
 40
25.399999999999999
  9
$DIMLFAC
 40
1.0
  9
$DIMTOFL
 70
     1
  9
$DIMTVP
 40
0.0
  9
$DIMTIX
 70
     1
  9
$DIMSOXD
 70
     0
  9
$DIMSAH
 70
     0
  9
$DIMBLK1
  1

  9
$DIMBLK2
  1

  9
$DIMSTYLE
  2
STANDARD
  9
$DIMCLRD
 70
     0
  9
$DIMCLRE
 70
     0
  9
$DIMCLRT
 70
     4
  9
$DIMTFAC
 40
1.0
  9
$DIMGAP
 40
1.0
  9
$LUNITS
 70
     2
  9
$LUPREC
 70
     4
  9
$SKETCHINC
 40
0.1
  9
$FILLETRAD
 40
0.0
  9
$AUNITS
 70
     0
  9
$AUPREC
 70
     0
  9
$MENU
  1
C:\R13\WIN\SUPPORT\ACAD-I
  9
$ELEVATION
 40
0.0
  9
$PELEVATION
 40
0.0
  9
$THICKNESS
 40
0.0
  9
$LIMCHECK
 70
     0
  9
$BLIPMODE
 70
     0
  9
$CHAMFERA
 40
0.0
  9
$CHAMFERB
 40
0.0
  9
$SKPOLY
 70
     0
  9
$TDCREATE
 40
2450834.4199027321
  9
$TDUPDATE
 40
2456806.5450952309
  9
$TDINDWG
 40
0.587438125
  9
$TDUSRTIMER
 40
2456693.5249944669
  9
$USRTIMER
 70
     1
  9
$ANGBASE
 50
0.0
  9
$ANGDIR
 70
     0
  9
$PDMODE
 70
     0
  9
$PDSIZE
 40
0.0
  9
$PLINEWID
 40
0.0
  9
$COORDS
 70
     1
  9
$SPLFRAME
 70
     0
  9
$SPLINETYPE
 70
     6
  9
$SPLINESEGS
 70
     8
  9
$ATTDIA
 70
     0
  9
$ATTREQ
 70
     1
  9
$HANDLING
 70
     1
  9
$HANDSEED
  5
139C8
  9
$SURFTAB1
 70
     6
  9
$SURFTAB2
 70
     6
  9
$SURFTYPE
 70
     6
  9
$SURFU
 70
     6
  9
$SURFV
 70
     6
  9
$UCSNAME
  2

  9
$UCSORG
 10
0.0
 20
0.0
 30
0.0
  9
$UCSXDIR
 10
1.0
 20
0.0
 30
0.0
  9
$UCSYDIR
 10
0.0
 20
1.0
 30
0.0
  9
$PUCSNAME
  2

  9
$PUCSORG
 10
0.0
 20
0.0
 30
0.0
  9
$PUCSXDIR
 10
1.0
 20
0.0
 30
0.0
  9
$PUCSYDIR
 10
0.0
 20
1.0
 30
0.0
  9
$USERI1
 70
     4
  9
$USERI2
 70
     1
  9
$USERI3
 70
     1
  9
$USERI4
 70
     0
  9
$USERI5
 70
     0
  9
$USERR1
 40
1.0
  9
$USERR2
 40
3.0
  9
$USERR3
 40
3.0
  9
$USERR4
 40
3.0
  9
$USERR5
 40
10.0
  9
$WORLDVIEW
 70
     1
  9
$SHADEDGE
 70
     3
  9
$SHADEDIF
 70
    70
  9
$TILEMODE
 70
     1
  9
$MAXACTVP
 70
    16
  9
$PLIMCHECK
 70
     0
  9
$PEXTMIN
 10
1.0000000000000000E+020
 20
1.0000000000000000E+020
 30
1.0000000000000000E+020
  9
$PEXTMAX
 10
-1.0000000000000000E+020
 20
-1.0000000000000000E+020
 30
-1.0000000000000000E+020
  9
$PLIMMIN
 10
0.0
 20
0.0
  9
$PLIMMAX
 10
0.0
 20
0.0
  9
$UNITMODE
 70
     0
  9
$VISRETAIN
 70
     0
  9
$PLINEGEN
 70
     0
  9
$PSLTSCALE
 70
     0
  0
ENDSEC
  0
SECTION
  2
TABLES
  0
TABLE
  2
VPORT
 70
     1
  0
VPORT
  2
*ACTIVE
 70
     0
 10
0.0
 20
0.0
 11
1.0
 21
1.0
 12
336.97700470636562
 22
150.5197845779077
 13
0.0
 23
0.0
 14
10.0
 24
10.0
 15
10.0
 25
10.0
 16
0.0
 26
0.0
 36
1.0
 17
0.0
 27
0.0
 37
0.0
 40
309.5610675612225
 41
2.6019575856443709
 42
50.0
 43
0.0
 44
0.0
 50
0.0
 51
0.0
 71
    16
 72
   100
 73
     1
 74
     0
 75
     0
 76
     0
 77
     0
 78
     0
  0
ENDTAB
  0
TABLE
  2
LTYPE
 70
     4
  0
LTYPE
  2
CONTINUOUS
 70
     0
  3
Solid Line
 72
    65
 73
     0
 40
0.0
  0
LTYPE
  2
CENTER
 70
     0
  3
____ _ ____ _ ____ _ ____ _ ____ _ ____ _ ____
 72
    65
 73
     4
 40
2.0
 49
1.25
 49
-0.25
 49
0.25
 49
-0.25
  0
LTYPE
  2
HIDDEN
 70
     0
  3
__ __ __ __ __ __ __ __ __ __ __ __ __ __ __ __
 72
    65
 73
     2
 40
0.375
 49
0.25
 49
-0.125
  0
LTYPE
  2
PHANTOM2
 70
     0
  3
___ _ _ ___ _ _ ___ _ _ ___ _ _
 72
    65
 73
     6
 40
1.25
 49
0.625
 49
-0.125
 49
0.125
 49
-0.125
 49
0.125
 49
-0.125
  0
ENDTAB
  0
TABLE
  2
LAYER
 70
     4
  0
LAYER
  2
0
 70
     0
 62
     7
  6
CONTINUOUS
  0
LAYER
  2
1
 70
     0
 62
     1
  6
CENTER
  0
LAYER
  2
3
 70
     0
 62
     3
  6
CONTINUOUS
  0
LAYER
  2
2
 70
     0
 62
     2
  6
HIDDEN
  0
ENDTAB
  0
TABLE
  2
STYLE
 70
     2
  0
STYLE
  2
STANDARD
 70
     0
 40
0.0
 41
1.0
 50
0.0
 71
     0
 42
0.2
  3
SIMPLEX
  4
BIGFONT
  0
STYLE
  2
STANDARD1
 70
     0
 40
0.0
 41
1.0
 50
0.0
 71
     0
 42
3.0
  3
txt
  4

  0
ENDTAB
  0
TABLE
  2
VIEW
 70
     0
  0
ENDTAB
  0
TABLE
  2
UCS
 70
     0
  0
ENDTAB
  0
TABLE
  2
APPID
 70
    40
  0
APPID
  2
ACAD
 70
     0
  0
APPID
  2
GENIUS_GENOBJ_13
 70
     0
  0
APPID
  2
GENIUS_GENODEF_13
 70
     0
  0
APPID
  2
GENIUS_GENOENT_13
 70
     0
  0
APPID
  2
GENIUS_GENOLIS_13
 70
     0
  0
APPID
  2
GENIUS_GENOREF_13
 70
     0
  0
APPID
  2
GENIUS_GENOBJ-N-TIT_13
 70
     0
  0
APPID
  2
GENIUS_GENTITLE_13
 70
     0
  0
APPID
  2
GENIUS_GENZVEED_13
 70
     0
  0
APPID
  2
GENIUS_GENOBJ-N-FIL_13
 70
     0
  0
APPID
  2
GENIUS_GENOBJ-N-CRS_13
 70
     0
  0
APPID
  2
GENIUS_GEFINERT_13
 70
     0
  0
APPID
  2
GENIUS_GENOBJ-F-INER_13
 70
     0
  0
APPID
  2
GENIUS_GENOBJ-N-ZOO_13
 70
     0
  0
APPID
  2
GENIUS_GENZOO_13
 70
     0
  0
APPID
  2
GENIUS_GENOBJ-F-TOL_13
 70
     0
  0
APPID
  2
GENIUS_GENOBJ-N-RSSYM_13
 70
     0
  0
APPID
  2
GENIUS_GENSYMENT_13
 70
     0
  0
APPID
  2
GENIUS_GENBH_13
 70
     0
  0
APPID
  2
GENIUS_GENOBJ-NBEHI-BHF_13
 70
     0
  0
APPID
  2
GENIUS_GENOBJ-NBEHI-BHB_13
 70
     0
  0
APPID
  2
GENIUS_GENOBJ-F-PART_13
 70
     0
  0
APPID
  2
GENIUS_GEFSTDP_13
 70
     0
  0
APPID
  2
GENIUS_GENOBJ-N-LEADER_13
 70
     0
  0
APPID
  2
GENIUS_GENOBJ-N-REV_13
 70
     0
  0
APPID
  2
GENIUS_GENCFG_13
 70
     0
  0
APPID
  2
GENIUS_GENCFG0_13
 70
     0
  0
APPID
  2
GENIUS_GENCFG1_13
 70
     0
  0
APPID
  2
GENIUS_GENCFG2_13
 70
     0
  0
APPID
  2
GENIUS_GENCFG3_13
 70
     0
  0
APPID
  2
GENIUS_GEVCFG0_13
 70
     0
  0
APPID
  2
GENIUS_GENCFG4_13
 70
     0
  0
APPID
  2
GENIUS_GENOBJ-N-REC_13
 70
     0
  0
APPID
  2
GENIUS_GENFIL_13
 70
     0
  0
APPID
  2
GENIUS_GENOBJ-N-CHA_13
 70
     0
  0
APPID
  2
GENIUS_GENREC_13
 70
     0
  0
APPID
  2
ACAD_EXEMPT_FROM_CAD_STAND
 70
     0
  0
APPID
  2
ACAD_MLEADERVER
 70
     0
  0
APPID
  2
ACAD_NAV_VCDISPLAY
 70
     0
  0
APPID
  2
ACAD_EXEMPT_FROM_CAD_STANDARDS
 70
     0
  0
ENDTAB
  0
TABLE
  2
DIMSTYLE
 70
     1
  0
DIMSTYLE
  2
STANDARD
 70
     0
  3

  4

  5

  6

  7

 40
1.0
 41
0.18
 42
0.0625
 43
0.38
 44
0.18
 45
0.0
 46
0.0
 47
0.0
 48
0.0
140
0.18
141
0.09
142
0.0
143
25.399999999999999
144
1.0
145
0.0
146
1.0
147
0.09
 71
     0
 72
     0
 73
     1
 74
     1
 75
     0
 76
     0
 77
     0
 78
     0
170
     0
171
     2
172
     0
173
     0
174
     0
175
     0
176
     0
177
     0
178
     0
  0
ENDTAB
  0
ENDSEC
  0
SECTION
  2
BLOCKS
  0
BLOCK
  8
0
  2
$MODEL_SPACE
 70
     0
 10
0.0
 20
0.0
 30
0.0
  3
$MODEL_SPACE
  1

  0
ENDBLK
  5
104BC
  8
0
  0
BLOCK
 67
     1
  8
0
  2
$PAPER_SPACE
 70
     0
 10
0.0
 20
0.0
 30
0.0
  3
$PAPER_SPACE
  1

  0
ENDBLK
  5
104BA
 67
     1
  8
0
  0
ENDSEC
  0
SECTION
  2
ENTITIES
  0
TEXT
  5
107A1
  8
0
 62
     3
 10
0.0
 20
0.0
 30
0.0
 40
10.0
  1
SWEFH110-13CA
  7
STANDARD1
  0
LINE
  5
133EF
  8
0
 10
77.769999999999413
 20
125.0
 30
0.0
 11
77.769999999999413
 21
136.09999999999999
 31
0.0
  0
LINE
  5
133F0
  8
0
 10
77.769999999999754
 20
223.90000000000001
 30
0.0
 11
77.769999999999754
 21
235.0
 31
0.0
  0
LINE
  5
133F1
  8
0
 10
74.0
 20
244.9265
 30
0.0
 11
74.0
 21
235.0
 31
0.0
  0
LINE
  5
133F2
  8
0
 10
86.0
 20
235.0
 30
0.0
 11
86.0
 21
244.9265
 31
0.0
  0
LINE
  5
133F3
  8
0
 10
86.0
 20
244.9265
 30
0.0
 11
84.926500000000019
 21
246.0
 31
0.0
  0
LINE
  5
133F4
  8
0
 10
75.073500000000081
 20
246.0
 30
0.0
 11
74.0
 21
244.9265
 31
0.0
  0
LINE
  5
133F6
  8
0
 10
89.999999999999545
 20
125.0
 30
0.0
 11
64.999999999999659
 21
125.0000000000001
 31
0.0
  0
LINE
  5
133FD
  8
0
 10
90.0
 20
235.0
 30
0.0
 11
65.000000000000114
 21
235.00000000000011
 31
0.0
  0
LINE
  5
13401
  8
0
 10
67.999999999999773
 20
146.80000000000001
 30
0.0
 11
68.0
 21
213.2000000000001
 31
0.0
  0
LINE
  5
13402
  8
0
 10
89.999999999999758
 20
146.80000000000001
 30
0.0
 11
67.999999999999773
 21
146.80000000000001
 31
0.0
  0
LINE
  5
13404
  8
0
 10
64.999999999999773
 20
125.0000000000001
 30
0.0
 11
65.000000000000114
 21
235.00000000000011
 31
0.0
  0
LINE
  5
13405
  8
0
 10
69.934447330403145
 20
213.2000000000001
 30
0.0
 11
69.934447330403145
 21
146.80000000000001
 31
0.0
  0
LINE
  5
13406
  8
0
 10
77.0
 20
213.2000000000001
 30
0.0
 11
77.000000000000227
 21
235.0
 31
0.0
  0
LINE
  5
13408
  8
0
 10
76.999999999999545
 20
125.0
 30
0.0
 11
76.999999999999773
 21
146.80000000000001
 31
0.0
  0
LINE
  5
1340A
  8
0
 10
77.648074179742935
 20
223.90000000000001
 30
0.0
 11
77.648074179743048
 21
235.0
 31
0.0
  0
LINE
  5
1340C
  8
0
 10
79.170200571089936
 20
213.2000000000001
 30
0.0
 11
79.170200571089936
 21
223.90000000000001
 31
0.0
  0
LINE
  5
1340F
  8
0
 10
79.170200571089694
 20
136.09999999999999
 30
0.0
 11
79.170200571089694
 21
146.80000000000001
 31
0.0
  0
LINE
  5
13411
  8
0
 10
77.648074179742707
 20
136.09999999999999
 30
0.0
 11
77.648074179742594
 21
125.0
 31
0.0
  0
LINE
  5
13416
  8
0
 10
83.462658968006963
 20
213.19999999999999
 30
0.0
 11
83.462658968006963
 21
223.90000000000001
 31
0.0
  0
LINE
  5
13417
  8
0
 10
89.999999999999886
 20
223.90000000000001
 30
0.0
 11
77.648074179742821
 21
223.90000000000001
 31
0.0
  0
LINE
  5
13419
  8
0
 10
83.462658968006622
 20
136.09999999999999
 30
0.0
 11
83.462658968006735
 21
146.80000000000001
 31
0.0
  0
LINE
  5
13428
  8
0
 10
89.999999999999659
 20
136.09999999999999
 30
0.0
 11
89.999999999999659
 21
146.80000000000001
 31
0.0
  0
LINE
  5
13429
  8
0
 10
89.999999999999659
 20
136.09999999999999
 30
0.0
 11
77.648074179742707
 21
136.09999999999999
 31
0.0
  0
LINE
  5
1342B
  8
0
 10
89.999999999999886
 20
213.19999999999999
 30
0.0
 11
90.0
 21
223.90000000000001
 31
0.0
  0
LINE
  5
1342D
  8
0
 10
89.999999999999886
 20
213.19999999999999
 30
0.0
 11
68.000000000000114
 21
213.19999999999999
 31
0.0
  0
LINE
  5
1342E
  8
0
 10
75.685082442242674
 20
147.0
 30
0.0
 11
75.685082442242901
 21
213.00000000000011
 31
0.0
  0
LINE
  5
13432
  8
0
 10
83.462658968006735
 20
147.0
 30
0.0
 11
83.462658968006963
 21
213.0
 31
0.0
  0
LINE
  5
13435
  8
0
 10
83.462658968006622
 20
125.0
 30
0.0
 11
83.462658968006622
 21
136.0
 31
0.0
  0
LINE
  5
13437
  8
0
 10
89.999999999999659
 20
136.0
 30
0.0
 11
77.769999999999413
 21
136.0
 31
0.0
  0
LINE
  5
13438
  8
0
 10
83.462658968006963
 20
224.0
 30
0.0
 11
83.462658968007077
 21
235.0
 31
0.0
  0
LINE
  5
13439
  8
0
 10
90.0
 20
224.0
 30
0.0
 11
77.769999999999754
 21
224.0
 31
0.0
  0
LINE
  5
13450
  8
0
 10
80.0
 20
244.9265
 30
0.0
 11
86.0
 21
244.9265
 31
0.0
  0
LINE
  5
13451
  8
0
 10
74.0
 20
244.9265
 30
0.0
 11
80.0
 21
244.9265
 31
0.0
  0
LINE
  5
13452
  8
0
 10
75.073500000000081
 20
246.0
 30
0.0
 11
84.926500000000019
 21
246.0
 31
0.0
  0
LINE
  5
13454
  8
0
 10
90.0
 20
224.0
 30
0.0
 11
90.0
 21
235.0
 31
0.0
  0
LINE
  5
13457
  8
0
 10
89.999999999999659
 20
147.0
 30
0.0
 11
89.999999999999886
 21
213.0
 31
0.0
  0
LINE
  5
1345A
  8
0
 10
89.999999999999545
 20
125.0
 30
0.0
 11
89.999999999999659
 21
136.0
 31
0.0
  0
LINE
  5
1345D
  8
0
 10
69.934447330403259
 20
147.0
 30
0.0
 11
89.999999999999758
 21
147.0
 31
0.0
  0
LINE
  5
1345E
  8
0
 10
69.934447330403486
 20
213.00000000000011
 30
0.0
 11
90.0
 21
213.00000000000011
 31
0.0
  0
LINE
  5
13461
  8
0
 10
80.027835592169936
 20
213.0
 30
0.0
 11
80.027835592169936
 21
213.2000000000001
 31
0.0
  0
LINE
  5
13462
  8
0
 10
80.027835592170064
 20
223.90000000000001
 30
0.0
 11
80.027835592170064
 21
224.0
 31
0.0
  0
LINE
  5
13463
  8
0
 10
80.027835592169694
 20
147.0
 30
0.0
 11
80.027835592169694
 21
146.80000000000001
 31
0.0
  0
LINE
  5
13464
  8
0
 10
80.027835592169694
 20
136.09999999999999
 30
0.0
 11
80.027835592169694
 21
136.0
 31
0.0
  0
LINE
  5
13465
  8
2
 10
69.999999999999659
 20
137.75
 30
0.0
 11
69.999999999999659
 21
131.25
 31
0.0
  0
LINE
  5
13466
  8
2
 10
72.749999999999773
 20
140.5
 30
0.0
 11
72.749999999999659
 21
128.5
 31
0.0
  0
LINE
  5
13467
  8
2
 10
70.0
 20
228.75
 30
0.0
 11
70.0
 21
222.25000000000011
 31
0.0
  0
LINE
  5
13468
  8
2
 10
72.75
 20
231.5
 30
0.0
 11
72.75
 21
219.50000000000011
 31
0.0
  0
LINE
  5
134ED
  8
2
 10
72.749999999999773
 20
140.5
 30
0.0
 11
69.999999999999659
 21
137.75
 31
0.0
  0
LINE
  5
134EE
  8
2
 10
69.999999999999659
 20
131.25
 30
0.0
 11
72.749999999999659
 21
128.5
 31
0.0
  0
LINE
  5
134EF
  8
2
 10
72.75
 20
231.5
 30
0.0
 11
70.0
 21
228.75
 31
0.0
  0
LINE
  5
134F0
  8
2
 10
70.0
 20
222.25000000000011
 30
0.0
 11
72.75
 21
219.50000000000011
 31
0.0
  0
LINE
  5
134F1
  8
2
 10
77.0
 20
231.5
 30
0.0
 11
72.75
 21
231.5
 31
0.0
  0
LINE
  5
134F2
  8
2
 10
72.75
 20
219.50000000000011
 30
0.0
 11
77.0
 21
219.5
 31
0.0
  0
LINE
  5
134F3
  8
2
 10
76.999999999999659
 20
140.5
 30
0.0
 11
72.749999999999773
 21
140.5
 31
0.0
  0
LINE
  5
134F4
  8
2
 10
72.749999999999659
 20
128.5
 30
0.0
 11
76.999999999999659
 21
128.5
 31
0.0
  0
LINE
  5
134F9
  8
2
 10
69.999999999999659
 20
137.75
 30
0.0
 11
64.999999999999659
 21
137.75000000000011
 31
0.0
  0
LINE
  5
134FA
  8
2
 10
64.999999999999659
 20
131.25000000000011
 30
0.0
 11
69.999999999999659
 21
131.25
 31
0.0
  0
LINE
  5
134FB
  8
2
 10
70.0
 20
228.75
 30
0.0
 11
65.0
 21
228.75
 31
0.0
  0
LINE
  5
134FC
  8
2
 10
65.0
 20
222.25000000000011
 30
0.0
 11
70.0
 21
222.25000000000011
 31
0.0
  0
LINE
  5
134FF
  8
0
 10
285.55412903486081
 20
244.9265
 30
0.0
 11
284.48062903486073
 21
246.0
 31
0.0
  0
LINE
  5
13500
  8
0
 10
274.62762903486089
 20
246.0
 30
0.0
 11
273.55412903486081
 21
244.9265
 31
0.0
  0
LINE
  5
13501
  8
0
 10
273.55412903486081
 20
244.9265
 30
0.0
 11
273.55412903486092
 21
235.0
 31
0.0
  0
LINE
  5
13502
  8
0
 10
285.55412903486081
 20
235.0
 30
0.0
 11
285.55412903486081
 21
244.9265
 31
0.0
  0
LINE
  5
13503
  8
0
 10
276.32059946140322
 20
136.09999999999999
 30
0.0
 11
276.32059946140299
 21
146.80000000000001
 31
0.0
  0
LINE
  5
13504
  8
0
 10
279.5262934426911
 20
146.80000000000001
 30
0.0
 11
269.55412903486109
 21
146.7999999999999
 31
0.0
  0
LINE
  5
13505
  8
0
 10
279.5262934426911
 20
136.09999999999999
 30
0.0
 11
269.55412903486109
 21
136.09999999999999
 31
0.0
  0
LINE
  5
13506
  8
0
 10
276.32059946140288
 20
213.19999999999999
 30
0.0
 11
276.32059946140282
 21
223.90000000000001
 31
0.0
  0
LINE
  5
13507
  8
0
 10
279.5262934426907
 20
223.90000000000001
 30
0.0
 11
269.55412903486092
 21
223.90000000000009
 31
0.0
  0
LINE
  5
13508
  8
0
 10
279.52629344269093
 20
213.2000000000001
 30
0.0
 11
269.55412903486092
 21
213.19999999999999
 31
0.0
  0
LINE
  5
13515
  8
0
 10
269.55412903486109
 20
136.09999999999999
 30
0.0
 11
269.55412903486109
 21
146.80000000000001
 31
0.0
  0
LINE
  5
13518
  8
0
 10
269.55412903486092
 20
213.19999999999999
 30
0.0
 11
269.55412903486092
 21
223.90000000000001
 31
0.0
  0
LINE
  5
1351C
  8
0
 10
269.55412903486092
 20
234.99999999999989
 30
0.0
 11
294.55412903486069
 21
235.00000000000011
 31
0.0
  0
LINE
  5
13520
  8
0
 10
269.55412903486132
 20
125.0
 30
0.0
 11
294.55412903486109
 21
125.0000000000001
 31
0.0
  0
LINE
  5
13524
  8
0
 10
294.55412903486109
 20
235.0
 30
0.0
 11
294.55412903486109
 21
125.0000000000001
 31
0.0
  0
LINE
  5
13527
  8
0
 10
276.30790660594408
 20
147.5
 30
0.0
 11
276.30790660594391
 21
212.5
 31
0.0
  0
LINE
  5
13528
  8
0
 10
282.55412903486081
 20
212.5
 30
0.0
 11
270.05412903486081
 21
212.5
 31
0.0
  0
LINE
  5
1352B
  8
0
 10
282.55412903486081
 20
212.5
 30
0.0
 11
282.55412903486069
 21
235.0
 31
0.0
  0
LINE
  5
1352C
  8
0
 10
282.55412903486121
 20
125.0
 30
0.0
 11
282.55412903486098
 21
147.5
 31
0.0
  0
LINE
  5
13530
  8
0
 10
270.05412903486121
 20
147.5
 30
0.0
 11
270.05412903486092
 21
212.5
 31
0.0
  0
LINE
  5
13531
  8
0
 10
282.55412903486098
 20
147.50000000000011
 30
0.0
 11
270.05412903486121
 21
147.5
 31
0.0
  0
LINE
  5
13535
  8
0
 10
279.5262934426911
 20
147.0
 30
0.0
 11
279.5262934426911
 21
136.0
 31
0.0
  0
LINE
  5
13536
  8
0
 10
269.55412903486109
 20
146.99999999999989
 30
0.0
 11
279.5262934426911
 21
147.0
 31
0.0
  0
LINE
  5
1353A
  8
0
 10
269.55412903486081
 20
212.99999999999989
 30
0.0
 11
279.52629344269093
 21
213.0
 31
0.0
  0
LINE
  5
1353B
  8
0
 10
279.52629344269093
 20
213.0
 30
0.0
 11
279.5262934426907
 21
224.0
 31
0.0
  0
LINE
  5
1353C
  8
0
 10
269.55412903486092
 20
224.0
 30
0.0
 11
279.5262934426907
 21
224.0
 31
0.0
  0
LINE
  5
1353F
  8
0
 10
276.09147006685419
 20
125.0
 30
0.0
 11
276.09147006685419
 21
136.0
 31
0.0
  0
LINE
  5
13542
  8
0
 10
276.09147006685419
 20
147.0
 30
0.0
 11
276.09147006685419
 21
147.5
 31
0.0
  0
LINE
  5
13544
  8
0
 10
276.09147006685401
 20
212.5
 30
0.0
 11
276.09147006685401
 21
213.0
 31
0.0
  0
LINE
  5
13546
  8
0
 10
276.09147006685379
 20
224.0
 30
0.0
 11
276.09147006685367
 21
235.0
 31
0.0
  0
LINE
  5
1355D
  8
0
 10
273.55412903486081
 20
244.9265
 30
0.0
 11
285.55412903486081
 21
244.9265
 31
0.0
  0
LINE
  5
1355E
  8
0
 10
274.62762903486089
 20
246.0
 30
0.0
 11
284.48062903486073
 21
246.0
 31
0.0
  0
LINE
  5
1355F
  8
0
 10
269.55412903486092
 20
224.0
 30
0.0
 11
269.55412903486081
 21
235.0
 31
0.0
  0
LINE
  5
13562
  8
0
 10
269.55412903486132
 20
125.0
 30
0.0
 11
269.55412903486109
 21
136.0
 31
0.0
  0
LINE
  5
13563
  8
0
 10
279.5262934426911
 20
135.99999999999989
 30
0.0
 11
269.55412903486109
 21
136.0
 31
0.0
  0
LINE
  5
13565
  8
0
 10
269.55412903486109
 20
147.0
 30
0.0
 11
269.55412903486092
 21
213.0
 31
0.0
  0
LINE
  5
1358E
  8
2
 10
289.55412903486081
 20
222.25000000000011
 30
0.0
 11
289.55412903486069
 21
228.75
 31
0.0
  0
LINE
  5
1358F
  8
2
 10
286.80412903486092
 20
219.50000000000011
 30
0.0
 11
286.80412903486081
 21
231.5
 31
0.0
  0
LINE
  5
13590
  8
2
 10
289.55412903486121
 20
131.25
 30
0.0
 11
289.55412903486121
 21
137.75
 31
0.0
  0
LINE
  5
13591
  8
2
 10
286.80412903486121
 20
128.5
 30
0.0
 11
286.80412903486121
 21
140.5
 31
0.0
  0
LINE
  5
135E1
  8
2
 10
286.80412903486092
 20
219.50000000000011
 30
0.0
 11
289.55412903486081
 21
222.25000000000011
 31
0.0
  0
LINE
  5
135E2
  8
2
 10
289.55412903486069
 20
228.75
 30
0.0
 11
286.80412903486081
 21
231.5
 31
0.0
  0
LINE
  5
135E3
  8
2
 10
286.80412903486121
 20
128.5
 30
0.0
 11
289.55412903486121
 21
131.25
 31
0.0
  0
LINE
  5
135E4
  8
2
 10
289.55412903486121
 20
137.75
 30
0.0
 11
286.80412903486121
 21
140.5
 31
0.0
  0
LINE
  5
135E5
  8
2
 10
286.80412903486069
 20
231.5
 30
0.0
 11
282.55412903486069
 21
231.5
 31
0.0
  0
LINE
  5
135E6
  8
2
 10
282.55412903486081
 20
219.5
 30
0.0
 11
286.80412903486092
 21
219.5
 31
0.0
  0
LINE
  5
135E7
  8
2
 10
286.80412903486121
 20
140.5
 30
0.0
 11
282.55412903486121
 21
140.5
 31
0.0
  0
LINE
  5
135E8
  8
2
 10
282.55412903486121
 20
128.5
 30
0.0
 11
286.80412903486098
 21
128.5
 31
0.0
  0
LINE
  5
135ED
  8
2
 10
289.55412903486121
 20
131.25
 30
0.0
 11
294.55412903486109
 21
131.25000000000011
 31
0.0
  0
LINE
  5
135EE
  8
2
 10
294.55412903486109
 20
137.75000000000011
 30
0.0
 11
289.55412903486121
 21
137.75
 31
0.0
  0
LINE
  5
135EF
  8
2
 10
289.55412903486081
 20
222.25000000000011
 30
0.0
 11
294.55412903486081
 21
222.25000000000011
 31
0.0
  0
LINE
  5
135F0
  8
2
 10
294.55412903486069
 20
228.75
 30
0.0
 11
289.55412903486069
 21
228.75
 31
0.0
  0
LINE
  5
135F6
  8
0
 10
150.0
 20
81.000000000001549
 30
0.0
 11
150.0
 21
70.000000000000014
 31
0.0
  0
ARC
  5
135F7
  8
0
 10
150.99999999999909
 20
81.000000000000881
 30
0.0
 40
0.999999999999126
 50
89.999999999947889
 51
179.99999999996089
  0
ARC
  5
135F8
  8
0
 10
179.99999999999761
 20
84.99999999999747
 30
0.0
 40
10.80999999999654
 50
194.2990106499781
 51
238.21529918120129
  0
ARC
  5
135F9
  8
0
 10
170.0200000000001
 20
67.920000000000286
 30
0.0
 40
8.9799999999997091
 50
13.39281037460306
 51
61.491464578583418
  0
ARC
  5
135FA
  8
0
 10
165.4458647492628
 20
87.90000000000002
 30
0.0
 40
5.9000000000002721
 50
270.0
 51
297.10702816293212
  0
ARC
  5
135FB
  8
0
 10
168.63999999999999
 20
81.659999999998348
 30
0.0
 40
1.110000000001486
 50
37.136294870203777
 51
117.10702816291
  0
LINE
  5
135FC
  8
0
 10
165.4458647492628
 20
82.000000000000014
 30
0.0
 11
150.99999999999909
 21
82.000000000000014
 31
0.0
  0
LINE
  5
135FD
  8
0
 10
150.0
 20
70.0
 30
0.0
 11
179.00399463629651
 21
70.000000000000028
 31
0.0
  0
LINE
  5
135FE
  8
0
 10
189.47730235663241
 20
89.57794414242602
 30
0.0
 11
189.39980706826239
 21
89.655439430796037
 31
0.0
  0
ARC
  5
135FF
  8
0
 10
188.06308879425939
 20
88.163730580052359
 30
0.0
 40
2.000000000000369
 50
2.0000000000183151
 51
45.000000000010019
  0
LINE
  5
13600
  8
0
 10
179.00399463629651
 20
70.000000000000014
 30
0.0
 11
179.72029474229399
 21
70.716300105997661
 31
0.0
  0
LINE
  5
13601
  8
0
 10
190.1201440479891
 20
86.564792012988249
 30
0.0
 11
190.06187044829801
 21
88.233529573458014
 31
0.0
  0
ARC
  5
13602
  8
0
 10
165.4458647492628
 20
87.90000000000002
 30
0.0
 40
5.9000000000002721
 50
297.10702816293212
 51
320.55350973166799
  0
ARC
  5
13606
  8
0
 10
208.6152619912927
 20
81.000000000000924
 30
0.0
 40
0.9999999999990937
 50
1.999999999977579
 51
90.000000000006494
  0
LINE
  5
13607
  8
0
 10
209.61465281831099
 20
81.034899496702664
 30
0.0
 11
210.0
 21
69.999999999999986
 31
0.0
  0
ARC
  5
13609
  8
0
 10
172.15128709934481
 20
88.39285997460351
 30
0.0
 40
1.9999999999962601
 50
134.9999999999545
 51
178.00000000003871
  0
LINE
  5
1360A
  8
0
 10
175.344213562373
 20
94.414213562373021
 30
0.0
 11
170.7370735369754
 21
89.807073536975025
 31
0.0
  0
ARC
  5
1360B
  8
0
 10
176.75842712474409
 20
93.000000000005258
 30
0.0
 40
1.999999999994756
 50
89.99999999994138
 51
135.0000000000648
  0
LINE
  5
1360C
  8
0
 10
183.24157287525591
 20
95.0
 30
0.0
 11
176.75842712474611
 21
95.0
 31
0.0
  0
ARC
  5
1360D
  8
0
 10
183.24157287525591
 20
93.000000000005258
 30
0.0
 40
1.999999999994756
 50
44.999999999935177
 51
90.0
  0
LINE
  5
1360E
  8
0
 10
189.2629264630244
 20
89.807073536975025
 30
0.0
 11
184.6557864376268
 21
94.414213562373021
 31
0.0
  0
ARC
  5
1360F
  8
0
 10
187.8487129006551
 20
88.39285997460351
 30
0.0
 40
1.999999999996267
 50
1.999999999961285
 51
45.000000000044558
  0
LINE
  5
13610
  8
0
 10
189.85781946518031
 20
88.166992216071051
 30
0.0
 11
189.84749455468949
 21
88.462658968007005
 31
0.0
  0
ARC
  5
13611
  8
0
 10
196.24392684983161
 20
88.389999999999219
 30
0.0
 40
6.3899999999992039
 50
181.9999999999938
 51
270.0
  0
ARC
  5
13612
  8
0
 10
175.37799385677999
 20
83.085502370106809
 30
0.0
 40
2.9999999999981042
 50
180.0
 51
225.000000000017
  0
LINE
  5
13613
  8
0
 10
173.2566735132221
 20
80.964182026548016
 30
0.0
 11
175.9641820265476
 21
78.256673513222211
 31
0.0
  0
ARC
  5
13614
  8
0
 10
178.08550237010709
 20
80.377993856781387
 30
0.0
 40
2.9999999999994809
 50
224.9999999999994
 51
270.0
  0
LINE
  5
13615
  8
0
 10
178.08550237010709
 20
77.377993856781913
 30
0.0
 11
181.91449762989271
 21
77.377993856781913
 31
0.0
  0
ARC
  5
13616
  8
0
 10
181.91449762989291
 20
80.377993856781387
 30
0.0
 40
2.9999999999994809
 50
269.99999999999352
 51
315.00000000000063
  0
LINE
  5
13617
  8
0
 10
184.0358179734522
 20
78.256673513222211
 30
0.0
 11
186.7433264867777
 21
80.964182026548016
 31
0.0
  0
ARC
  5
13618
  8
0
 10
184.62200614322001
 20
83.085502370106809
 30
0.0
 40
2.9999999999980651
 50
314.99999999999
 51
0.0
  0
LINE
  5
13619
  8
0
 10
186.7433264867777
 20
89.035817973452026
 30
0.0
 11
184.0358179734522
 21
91.743326486778017
 31
0.0
  0
LINE
  5
1361A
  8
0
 10
181.91449762989299
 20
92.622006143218016
 30
0.0
 11
178.08550237010729
 21
92.622006143218016
 31
0.0
  0
LINE
  5
1361B
  8
0
 10
175.9641820265476
 20
91.743326486778017
 30
0.0
 11
173.2566735132221
 21
89.035817973452026
 31
0.0
  0
ARC
  5
1361C
  8
0
 10
175.37799385677999
 20
86.914497629893205
 30
0.0
 40
2.999999999998114
 50
134.99999999998991
 51
180.0
  0
LINE
  5
1361D
  8
0
 10
172.3779938567819
 20
86.914497629893205
 30
0.0
 11
172.3779938567819
 21
83.085502370106809
 31
0.0
  0
ARC
  5
1361E
  8
0
 10
181.91449762989299
 20
89.622006143218215
 30
0.0
 40
2.9999999999998028
 50
45.00000000000886
 51
90.0
  0
LINE
  5
1361F
  8
0
 10
170.15250544531031
 20
88.462658968007005
 30
0.0
 11
169.9327293486329
 21
82.169094998021009
 31
0.0
  0
ARC
  5
13620
  8
0
 10
181.0009945067647
 20
71.5
 30
0.0
 40
1.499999999999992
 50
213.92795069208481
 51
270.0
  0
ARC
  5
13621
  8
0
 10
155.0599999999975
 20
54.049999999998057
 30
0.0
 40
29.764000000003051
 50
33.927950692084821
 51
45.20619970059473
  0
LINE
  5
13622
  8
0
 10
170.51729744029791
 20
80.685082442243015
 30
0.0
 11
176.03044724543281
 21
75.171932637107801
 31
0.0
  0
ARC
  5
13623
  8
0
 10
171.931511002669
 20
82.099296004615169
 30
0.0
 40
1.9999999999979321
 50
177.99999999997351
 51
225.00000000001921
  0
ARC
  5
13624
  8
0
 10
178.08550237010681
 20
89.622006143218215
 30
0.0
 40
2.9999999999998028
 50
89.999999999993491
 51
134.9999999999911
  0
ARC
  5
13625
  8
0
 10
184.62200614322001
 20
86.914497629893205
 30
0.0
 40
2.999999999998094
 50
359.99999999999682
 51
45.000000000016918
  0
LINE
  5
13626
  8
0
 10
187.62200614321799
 20
83.085502370106809
 30
0.0
 11
187.62200614321799
 21
86.91449762989302
 31
0.0
  0
LINE
  5
13627
  8
0
 10
208.6152619912927
 20
82.000000000000014
 30
0.0
 11
196.24392684983189
 21
82.000000000000014
 31
0.0
  0
LINE
  5
13628
  8
0
 10
181.0009945067647
 20
70.000000000000014
 30
0.0
 11
210.0
 21
70.000000000000014
 31
0.0
  0
LINE
  5
13629
  8
0
 10
187.6999999999999
 20
94.500000000000014
 30
0.0
 11
184.56444853078619
 21
94.500000000000014
 31
0.0
  0
ARC
  5
1362A
  8
0
 10
207.8637416319352
 20
88.193873183862308
 30
0.0
 40
1.5000000000011251
 50
2.0000000000346101
 51
66.737194942887172
  0
ARC
  5
1362B
  8
0
 10
183.9693157853977
 20
32.612343756666462
 30
0.0
 40
62.000000000016968
 50
66.737194942901439
 51
86.550295805679028
  0
LINE
  5
1362C
  8
0
 10
209.6146528183109
 20
81.034899496703034
 30
0.0
 11
209.36282787246489
 21
88.246222428917008
 31
0.0
  0
LINE
  5
1362E
  8
2
 10
155.75
 20
75.000000000000014
 30
0.0
 11
162.2499999999998
 21
75.000000000000014
 31
0.0
  0
LINE
  5
13630
  8
2
 10
153.0
 20
77.75
 30
0.0
 11
164.99999999999989
 21
77.75
 31
0.0
  0
LINE
  5
1363E
  8
2
 10
197.75
 20
75.000000000000014
 30
0.0
 11
204.24999999999989
 21
75.000000000000014
 31
0.0
  0
LINE
  5
13640
  8
2
 10
194.99999999999969
 20
77.75
 30
0.0
 11
206.99999999999989
 21
77.75
 31
0.0
  0
LINE
  5
13647
  8
2
 10
153.0
 20
77.75
 30
0.0
 11
155.75
 21
75.000000000000014
 31
0.0
  0
LINE
  5
13648
  8
2
 10
162.24999999999989
 20
75.000000000000014
 30
0.0
 11
164.99999999999989
 21
77.75
 31
0.0
  0
LINE
  5
13649
  8
2
 10
153.0
 20
82.000000000000014
 30
0.0
 11
153.0
 21
77.749999999999986
 31
0.0
  0
LINE
  5
1364A
  8
2
 10
164.99999999999989
 20
77.749999999999986
 30
0.0
 11
164.99999999999989
 21
82.000000000000014
 31
0.0
  0
LINE
  5
1364D
  8
2
 10
155.75
 20
75.000000000000014
 30
0.0
 11
155.75
 21
70.000000000000014
 31
0.0
  0
LINE
  5
1364E
  8
2
 10
162.24999999999989
 20
70.000000000000014
 30
0.0
 11
162.24999999999989
 21
75.000000000000014
 31
0.0
  0
LINE
  5
1364F
  8
2
 10
206.99999999999989
 20
77.75
 30
0.0
 11
206.99999999999989
 21
82.000000000000014
 31
0.0
  0
LINE
  5
13650
  8
2
 10
195.0
 20
82.120817615989495
 30
0.0
 11
195.0
 21
77.750000000000014
 31
0.0
  0
LINE
  5
13651
  8
2
 10
194.99999999999989
 20
77.75
 30
0.0
 11
197.75
 21
75.000000000000014
 31
0.0
  0
LINE
  5
13652
  8
2
 10
204.24999999999989
 20
75.000000000000014
 30
0.0
 11
206.99999999999989
 21
77.75
 31
0.0
  0
LINE
  5
13655
  8
2
 10
197.75
 20
75.000000000000014
 30
0.0
 11
197.75
 21
70.000000000000014
 31
0.0
  0
LINE
  5
13656
  8
2
 10
204.24999999999989
 20
70.000000000000014
 30
0.0
 11
204.24999999999989
 21
75.000000000000014
 31
0.0
  0
ARC
  5
13659
  8
0
 10
150.99999999999091
 20
289.99999999999102
 30
0.0
 40
0.9999999999909618
 50
179.99999999957171
 51
270.00000000052108
  0
LINE
  5
1365A
  8
0
 10
150.0
 20
289.99999999999852
 30
0.0
 11
150.0
 21
301.00000000000011
 31
0.0
  0
ARC
  5
1365D
  8
0
 10
170.0200000000001
 20
303.0799999999997
 30
0.0
 40
8.9799999999997215
 50
298.50853542141658
 51
346.60718962539841
  0
ARC
  5
1365E
  8
0
 10
179.99999999999761
 20
286.00000000000261
 30
0.0
 40
10.80999999999654
 50
121.7847008187986
 51
165.7009893500219
  0
ARC
  5
1365F
  8
0
 10
168.63999999999999
 20
289.34000000000168
 30
0.0
 40
1.110000000001494
 50
242.89297183708999
 51
322.86370512979619
  0
ARC
  5
13660
  8
0
 10
165.4458647492628
 20
283.10000000000002
 30
0.0
 40
5.9000000000002464
 50
62.892971837067861
 51
90.0
  0
LINE
  5
13661
  8
0
 10
165.4458647492628
 20
289.0
 30
0.0
 11
150.99999999999091
 21
289.0
 31
0.0
  0
LINE
  5
13662
  8
0
 10
150.0
 20
300.99999999999989
 30
0.0
 11
179.0039946362966
 21
301.0
 31
0.0
  0
LINE
  5
13663
  8
0
 10
190.1201440479891
 20
284.43520798701201
 30
0.0
 11
190.06187044829801
 21
282.76647042654213
 31
0.0
  0
ARC
  5
13664
  8
0
 10
188.06308879425939
 20
282.83626941994771
 30
0.0
 40
2.0000000000003681
 50
314.99999999999028
 51
357.99999999998329
  0
LINE
  5
13665
  8
0
 10
189.47730235663241
 20
281.42205585757409
 30
0.0
 11
189.39980706826279
 21
281.34456056920442
 31
0.0
  0
LINE
  5
13666
  8
0
 10
179.00399463629651
 20
301.00000000000011
 30
0.0
 11
179.72029474229399
 21
300.2836998940025
 31
0.0
  0
ARC
  5
13667
  8
0
 10
165.4458647492628
 20
283.10000000000008
 30
0.0
 40
5.9000000000002721
 50
39.446490268332063
 51
62.892971837067861
  0
CIRCLE
  5
1366A
  8
0
 10
180.0
 20
285.99999999999989
 30
0.0
 40
6.0000000000000284
  0
LINE
  5
1366D
  8
0
 10
210.0
 20
301.00000000000011
 30
0.0
 11
209.61465281831099
 21
289.96510050329738
 31
0.0
  0
ARC
  5
1366E
  8
0
 10
208.61526199129261
 20
289.99999999999932
 30
0.0
 40
0.9999999999992326
 50
270.0
 51
358.00000000001432
  0
ARC
  5
13670
  8
0
 10
175.37799385677999
 20
284.08550237010689
 30
0.0
 40
2.9999999999980949
 50
180.0
 51
225.000000000017
  0
LINE
  5
13671
  8
0
 10
175.9641820265476
 20
279.25667351322198
 30
0.0
 11
173.2566735132221
 21
281.96418202654797
 31
0.0
  0
ARC
  5
13672
  8
0
 10
178.08550237010681
 20
281.37799385678181
 30
0.0
 40
2.999999999999829
 50
225.0000000000089
 51
270.00000000000648
  0
LINE
  5
13673
  8
0
 10
181.91449762989299
 20
278.37799385678198
 30
0.0
 11
178.08550237010729
 21
278.37799385678198
 31
0.0
  0
ARC
  5
13674
  8
0
 10
181.91449762989299
 20
281.37799385678181
 30
0.0
 40
2.999999999999829
 50
270.0
 51
314.99999999999142
  0
LINE
  5
13675
  8
0
 10
186.7433264867777
 20
281.96418202654797
 30
0.0
 11
184.0358179734522
 21
279.25667351322198
 31
0.0
  0
ARC
  5
13676
  8
0
 10
184.62200614322001
 20
284.08550237010689
 30
0.0
 40
2.999999999998074
 50
314.99999999999
 51
0.0000000000032569
  0
LINE
  5
13677
  8
0
 10
187.62200614321799
 20
287.91449762989322
 30
0.0
 11
187.62200614321799
 21
284.08550237010701
 31
0.0
  0
ARC
  5
13678
  8
0
 10
184.62200614322001
 20
287.91449762989322
 30
0.0
 40
2.999999999998074
 50
0.0
 51
45.000000000016918
  0
LINE
  5
13679
  8
0
 10
184.0358179734522
 20
292.74332648677779
 30
0.0
 11
186.7433264867777
 21
290.03581797345203
 31
0.0
  0
ARC
  5
1367A
  8
0
 10
181.91449762989291
 20
290.62200614321858
 30
0.0
 40
2.9999999999995208
 50
44.999999999999361
 51
90.0
  0
LINE
  5
1367B
  8
0
 10
178.08550237010709
 20
293.62200614321807
 30
0.0
 11
181.91449762989271
 21
293.62200614321807
 31
0.0
  0
ARC
  5
1367C
  8
0
 10
178.08550237010709
 20
290.62200614321858
 30
0.0
 40
2.9999999999995208
 50
90.0
 51
135.0000000000006
  0
LINE
  5
1367D
  8
0
 10
173.2566735132221
 20
290.03581797345203
 30
0.0
 11
175.9641820265476
 21
292.74332648677779
 31
0.0
  0
ARC
  5
1367E
  8
0
 10
175.37799385677999
 20
287.91449762989322
 30
0.0
 40
2.999999999998114
 50
134.99999999998991
 51
180.0
  0
LINE
  5
1367F
  8
0
 10
172.3779938567819
 20
284.08550237010689
 30
0.0
 11
172.3779938567819
 21
287.91449762989322
 31
0.0
  0
LINE
  5
13680
  8
0
 10
208.61526199129261
 20
289.0
 30
0.0
 11
196.24392684983189
 21
289.0
 31
0.0
  0
ARC
  5
13681
  8
0
 10
196.24392684983161
 20
282.61000000000081
 30
0.0
 40
6.3899999999991879
 50
89.999999999993491
 51
178.0000000000077
  0
LINE
  5
13682
  8
0
 10
189.85781946518031
 20
282.83300778392891
 30
0.0
 11
189.84749455468949
 21
282.53734103199298
 31
0.0
  0
ARC
  5
13683
  8
0
 10
187.8487129006551
 20
282.60714002539652
 30
0.0
 40
1.9999999999962781
 50
314.99999999995538
 51
358.00000000003871
  0
LINE
  5
13684
  8
0
 10
189.2629264630244
 20
281.192926463025
 30
0.0
 11
184.6557864376268
 21
276.58578643762701
 31
0.0
  0
ARC
  5
13685
  8
0
 10
183.24157287525591
 20
277.99999999999483
 30
0.0
 40
1.99999999999475
 50
270.0
 51
315.00000000006509
  0
LINE
  5
13686
  8
0
 10
183.24157287525591
 20
276.0
 30
0.0
 11
176.75842712474611
 21
276.0
 31
0.0
  0
ARC
  5
13687
  8
0
 10
176.75842712474409
 20
277.99999999999483
 30
0.0
 40
1.99999999999475
 50
224.9999999999352
 51
270.00000000005861
  0
LINE
  5
13688
  8
0
 10
175.344213562373
 20
276.58578643762701
 30
0.0
 11
170.7370735369754
 21
281.192926463025
 31
0.0
  0
ARC
  5
13689
  8
0
 10
172.15128709934481
 20
282.60714002539652
 30
0.0
 40
1.9999999999962601
 50
181.99999999996291
 51
225.00000000004539
  0
LINE
  5
1368A
  8
0
 10
170.15250544531031
 20
282.53734103199298
 30
0.0
 11
169.9327293486329
 21
288.83090500197898
 31
0.0
  0
ARC
  5
1368B
  8
0
 10
171.931511002669
 20
288.9007039953849
 30
0.0
 40
1.9999999999979461
 50
134.9999999999807
 51
182.0000000000264
  0
LINE
  5
1368C
  8
0
 10
170.51729744029791
 20
290.3149175577571
 30
0.0
 11
176.03044724543281
 21
295.82806736289223
 31
0.0
  0
ARC
  5
1368D
  8
0
 10
155.0599999999975
 20
316.95000000000198
 30
0.0
 40
29.76400000000304
 50
314.79380029940529
 51
326.07204930791522
  0
ARC
  5
1368E
  8
0
 10
181.0009945067647
 20
299.5
 30
0.0
 40
1.500000000000006
 50
90.0
 51
146.07204930791519
  0
LINE
  5
1368F
  8
0
 10
181.0009945067647
 20
301.0
 30
0.0
 11
210.00000000000011
 21
301.0
 31
0.0
  0
ARC
  5
13690
  8
0
 10
207.8637416319352
 20
282.80612681613792
 30
0.0
 40
1.5000000000010989
 50
293.26280505711281
 51
357.99999999996697
  0
ARC
  5
13691
  8
0
 10
183.9693157853977
 20
338.38765624333382
 30
0.0
 40
62.000000000016989
 50
273.44970419432099
 51
293.2628050570986
  0
LINE
  5
13692
  8
0
 10
187.6999999999999
 20
276.50000000000023
 30
0.0
 11
184.56444853078619
 21
276.50000000000023
 31
0.0
  0
LINE
  5
13693
  8
0
 10
209.6146528183109
 20
289.96510050329721
 30
0.0
 11
209.36282787246489
 21
282.75377757108322
 31
0.0
  0
LINE
  5
13694
  8
2
 10
162.24999999999989
 20
296.0
 30
0.0
 11
155.75
 21
296.0
 31
0.0
  0
LINE
  5
13695
  8
2
 10
164.99999999999989
 20
293.25000000000011
 30
0.0
 11
153.0
 21
293.25000000000011
 31
0.0
  0
LINE
  5
136A2
  8
2
 10
204.24999999999989
 20
296.0
 30
0.0
 11
197.75
 21
296.0
 31
0.0
  0
LINE
  5
136A3
  8
2
 10
206.99999999999989
 20
293.25000000000011
 30
0.0
 11
194.99999999999989
 21
293.25000000000011
 31
0.0
  0
LINE
  5
136A8
  8
2
 10
164.99999999999989
 20
293.25000000000011
 30
0.0
 11
162.24999999999989
 21
296.0
 31
0.0
  0
LINE
  5
136A9
  8
2
 10
155.75
 20
296.0
 30
0.0
 11
153.0
 21
293.25000000000011
 31
0.0
  0
LINE
  5
136AA
  8
2
 10
164.99999999999989
 20
289.00000000000011
 30
0.0
 11
164.99999999999969
 21
293.25000000000011
 31
0.0
  0
LINE
  5
136AB
  8
2
 10
153.0
 20
293.25000000000011
 30
0.0
 11
153.0
 21
289.00000000000011
 31
0.0
  0
LINE
  5
136AE
  8
2
 10
162.24999999999989
 20
296.0
 30
0.0
 11
162.24999999999989
 21
301.00000000000011
 31
0.0
  0
LINE
  5
136AF
  8
2
 10
155.75
 20
301.00000000000011
 30
0.0
 11
155.75
 21
296.0
 31
0.0
  0
LINE
  5
136B0
  8
2
 10
206.99999999999989
 20
293.25000000000011
 30
0.0
 11
204.24999999999989
 21
296.0
 31
0.0
  0
LINE
  5
136B1
  8
2
 10
197.75
 20
296.0
 30
0.0
 11
194.99999999999989
 21
293.25000000000011
 31
0.0
  0
LINE
  5
136B2
  8
2
 10
195.0
 20
293.25000000000011
 30
0.0
 11
195.0
 21
288.87841374646081
 31
0.0
  0
LINE
  5
136B3
  8
2
 10
206.99999999999989
 20
289.00000000000011
 30
0.0
 11
207.0
 21
293.25000000000011
 31
0.0
  0
LINE
  5
136B6
  8
2
 10
204.24999999999989
 20
296.0
 30
0.0
 11
204.24999999999989
 21
301.00000000000011
 31
0.0
  0
LINE
  5
136B7
  8
2
 10
197.75
 20
301.00000000000011
 30
0.0
 11
197.75
 21
296.0
 31
0.0
  0
CIRCLE
  5
136CF
  8
3
 10
180.0
 20
285.99999999999989
 30
0.0
 40
5.052999999999999
  0
LINE
  5
136D2
  8
3
 10
85.052999999999997
 20
235.0
 30
0.0
 11
85.052999999999997
 21
245.87350000000001
 31
0.0
  0
LINE
  5
136D3
  8
3
 10
74.947000000000003
 20
235.0
 30
0.0
 11
74.947000000000003
 21
245.87350000000001
 31
0.0
  0
LINE
  5
136D4
  8
3
 10
284.6071290348608
 20
235.0
 30
0.0
 11
284.60712903486092
 21
245.87349999999989
 31
0.0
  0
LINE
  5
136D5
  8
3
 10
274.50112903486081
 20
235.0
 30
0.0
 11
274.50112903486081
 21
245.87350000000001
 31
0.0
  0
LINE
  5
136E0
  8
1
 10
279.55412903486109
 20
225.50000000000011
 30
0.0
 11
297.55412903486121
 21
225.50000000000011
 31
0.0
  0
LINE
  5
136E1
  8
1
 10
297.55412903486121
 20
134.50000000000011
 30
0.0
 11
279.55412903486109
 21
134.50000000000011
 31
0.0
  0
LINE
  5
136E2
  8
1
 10
61.999999999999659
 20
225.5000000000002
 30
0.0
 11
79.999999999999659
 21
225.5000000000002
 31
0.0
  0
LINE
  5
136E3
  8
1
 10
79.999999999999659
 20
134.50000000000011
 30
0.0
 11
61.999999999999659
 21
134.50000000000011
 31
0.0
  0
LINE
  5
136E4
  8
1
 10
159.0
 20
85.0
 30
0.0
 11
159.0
 21
67.0
 31
0.0
  0
LINE
  5
136E5
  8
1
 10
201.0
 20
85.0
 30
0.0
 11
201.0
 21
67.0
 31
0.0
  0
LINE
  5
136E8
  8
1
 10
158.99999999999949
 20
304.0
 30
0.0
 11
158.99999999999949
 21
286.0
 31
0.0
  0
LINE
  5
136E9
  8
1
 10
200.99999999999949
 20
304.0
 30
0.0
 11
200.99999999999949
 21
286.0
 31
0.0
  0
LINE
  5
136EC
  8
1
 10
172.5
 20
285.99999999999989
 30
0.0
 11
187.5
 21
285.99999999999989
 31
0.0
  0
LINE
  5
136ED
  8
1
 10
180.0
 20
278.5
 30
0.0
 11
180.0
 21
293.5
 31
0.0
  0
LINE
  5
1370A
  8
1
 10
80.000000000000114
 20
230.0
 30
0.0
 11
80.000000000000114
 21
251.0
 31
0.0
  0
LINE
  5
1370B
  8
1
 10
279.55412903486092
 20
230.0
 30
0.0
 11
279.55412903486092
 21
251.0
 31
0.0
  0
CIRCLE
  5
1371C
  8
2
 10
159.0
 20
225.5
 30
0.0
 40
3.2499999999999991
  0
CIRCLE
  5
1371D
  8
2
 10
159.0
 20
134.5
 30
0.0
 40
3.2499999999999991
  0
CIRCLE
  5
1371E
  8
2
 10
201.0
 20
225.5
 30
0.0
 40
3.2499999999999991
  0
CIRCLE
  5
1371F
  8
2
 10
201.0
 20
134.5
 30
0.0
 40
3.2499999999999991
  0
LINE
  5
13720
  8
1
 10
151.5
 20
225.5
 30
0.0
 11
166.5
 21
225.5
 31
0.0
  0
LINE
  5
13721
  8
1
 10
159.0
 20
218.0
 30
0.0
 11
159.0
 21
233.0
 31
0.0
  0
LINE
  5
13722
  8
1
 10
151.5
 20
134.5
 30
0.0
 11
166.5
 21
134.5
 31
0.0
  0
LINE
  5
13723
  8
1
 10
159.0
 20
127.0
 30
0.0
 11
159.0
 21
142.0
 31
0.0
  0
LINE
  5
13724
  8
1
 10
179.99999999999989
 20
120.0
 30
0.0
 11
180.0
 21
251.0
 31
0.0
  0
LINE
  5
13725
  8
1
 10
193.5
 20
225.5
 30
0.0
 11
208.5
 21
225.5
 31
0.0
  0
LINE
  5
13726
  8
1
 10
201.0
 20
218.0
 30
0.0
 11
201.0
 21
233.0
 31
0.0
  0
LINE
  5
13727
  8
1
 10
193.5
 20
134.5
 30
0.0
 11
208.5
 21
134.5
 31
0.0
  0
LINE
  5
13728
  8
1
 10
201.0
 20
127.0
 30
0.0
 11
201.0
 21
142.0
 31
0.0
  0
LINE
  5
13729
  8
0
 10
178.75578845897721
 20
213.0
 30
0.0
 11
178.75578845897721
 21
213.19999999999999
 31
0.0
  0
LINE
  5
1372A
  8
0
 10
178.75578845897721
 20
146.80000000000001
 30
0.0
 11
178.75578845897721
 21
147.0
 31
0.0
  0
LINE
  5
1372B
  8
0
 10
178.75578845897721
 20
223.90000000000001
 30
0.0
 11
178.75578845897721
 21
224.0
 31
0.0
  0
LINE
  5
1372C
  8
0
 10
178.75578845897721
 20
136.09999999999999
 30
0.0
 11
178.75578845897721
 21
136.0
 31
0.0
  0
POLYLINE
  5
1372D
  8
0
 66
     1
 10
0.0
 20
0.0
 30
0.0
  0
VERTEX
  5
13998
  8
0
 10
151.0
 20
231.60555127546399
 30
0.0
  0
VERTEX
  5
13999
  8
0
 10
150.67287373334389
 20
230.9945739606479
 30
0.0
  0
VERTEX
  5
1399A
  8
0
 10
150.40544240361791
 20
230.3477244531673
 30
0.0
  0
VERTEX
  5
1399B
  8
0
 10
150.23058581047121
 20
229.78186181580011
 30
0.0
  0
VERTEX
  5
1399C
  8
0
 10
150.1046644426967
 20
229.20596332953761
 30
0.0
  0
VERTEX
  5
1399D
  8
0
 10
150.02693893028311
 20
228.6135302095245
 30
0.0
  0
VERTEX
  5
1399E
  8
0
 10
150.00001750003821
 20
228.01565248317951
 30
0.0
  0
VERTEX
  5
1399F
  8
0
 10
150.0
 20
228.0
 30
0.0
  0
SEQEND
  5
139A0
  8
0
  0
LINE
  5
1372E
  8
0
 10
150.0
 20
132.0
 30
0.0
 11
150.0
 21
228.0
 31
0.0
  0
CIRCLE
  5
1372F
  8
0
 10
159.0
 20
225.5
 30
0.0
 40
6.0
  0
ARC
  5
13730
  8
0
 10
157.0
 20
228.0
 30
0.0
 40
7.0
 50
90.0
 51
148.9972808661293
  0
ARC
  5
13731
  8
0
 10
157.0
 20
132.0
 30
0.0
 40
6.9999999999999849
 50
211.0027191338707
 51
270.0
  0
CIRCLE
  5
13732
  8
0
 10
159.0
 20
134.5
 30
0.0
 40
6.0
  0
POLYLINE
  5
13733
  8
0
 66
     1
 10
0.0
 20
0.0
 30
0.0
  0
VERTEX
  5
139A1
  8
0
 10
150.0
 20
132.0
 30
0.0
  0
VERTEX
  5
139A2
  8
0
 10
150.00001750003821
 20
131.98434751682029
 30
0.0
  0
VERTEX
  5
139A3
  8
0
 10
150.02510628446549
 20
131.40766761273929
 30
0.0
  0
VERTEX
  5
139A4
  8
0
 10
150.0986864612691
 20
130.82873084215001
 30
0.0
  0
VERTEX
  5
139A5
  8
0
 10
150.22474645916441
 20
130.2404718082978
 30
0.0
  0
VERTEX
  5
139A6
  8
0
 10
150.40544240361791
 20
129.65227554683261
 30
0.0
  0
VERTEX
  5
139A7
  8
0
 10
150.6656231882823
 20
129.02079366153089
 30
0.0
  0
VERTEX
  5
139A8
  8
0
 10
151.0
 20
128.39444872453601
 30
0.0
  0
SEQEND
  5
139A9
  8
0
  0
LINE
  5
13734
  8
0
 10
190.27486351616611
 20
213.19999999999999
 30
0.0
 11
190.27486351616611
 21
223.90000000000001
 31
0.0
  0
LINE
  5
13735
  8
0
 10
190.27486351616611
 20
136.09999999999999
 30
0.0
 11
190.27486351616611
 21
146.80000000000001
 31
0.0
  0
LINE
  5
13736
  8
0
 10
168.13422394745811
 20
223.90000000000001
 30
0.0
 11
168.13422394745811
 21
235.0
 31
0.0
  0
LINE
  5
13737
  8
0
 10
168.13422394745811
 20
136.09999999999999
 30
0.0
 11
168.13422394745811
 21
125.0
 31
0.0
  0
LINE
  5
13738
  8
0
 10
170.0173629960199
 20
213.19999999999999
 30
0.0
 11
170.0173629960199
 21
223.90000000000001
 31
0.0
  0
LINE
  5
13739
  8
0
 10
170.0173629960199
 20
136.09999999999999
 30
0.0
 11
170.0173629960199
 21
146.80000000000001
 31
0.0
  0
LINE
  5
1373A
  8
0
 10
190.27486351616611
 20
223.90000000000001
 30
0.0
 11
168.13422394745811
 21
223.90000000000001
 31
0.0
  0
LINE
  5
1373B
  8
0
 10
190.27486351616611
 20
213.19999999999999
 30
0.0
 11
150.0
 21
213.19999999999999
 31
0.0
  0
LINE
  5
1373C
  8
0
 10
183.2268193743127
 20
213.19999999999999
 30
0.0
 11
183.2268193743127
 21
223.90000000000001
 31
0.0
  0
LINE
  5
1373D
  8
0
 10
176.77318062568719
 20
213.19999999999999
 30
0.0
 11
176.77318062568719
 21
223.90000000000001
 31
0.0
  0
LINE
  5
1373E
  8
0
 10
183.2268193743127
 20
136.09999999999999
 30
0.0
 11
183.2268193743127
 21
146.80000000000001
 31
0.0
  0
LINE
  5
1373F
  8
0
 10
190.27486351616611
 20
146.80000000000001
 30
0.0
 11
150.0
 21
146.80000000000001
 31
0.0
  0
LINE
  5
13740
  8
0
 10
190.27486351616611
 20
136.09999999999999
 30
0.0
 11
168.13422394745811
 21
136.09999999999999
 31
0.0
  0
LINE
  5
13741
  8
0
 10
176.77318062568719
 20
136.09999999999999
 30
0.0
 11
176.77318062568719
 21
146.80000000000001
 31
0.0
  0
LINE
  5
13742
  8
0
 10
181.24421154102271
 20
223.90000000000001
 30
0.0
 11
181.24421154102271
 21
224.0
 31
0.0
  0
LINE
  5
13743
  8
0
 10
181.24421154102271
 20
213.0
 30
0.0
 11
181.24421154102271
 21
213.19999999999999
 31
0.0
  0
LINE
  5
13744
  8
0
 10
181.24421154102271
 20
136.09999999999999
 30
0.0
 11
181.24421154102271
 21
136.0
 31
0.0
  0
LINE
  5
13745
  8
0
 10
181.24421154102271
 20
147.0
 30
0.0
 11
181.24421154102271
 21
146.80000000000001
 31
0.0
  0
ARC
  5
13746
  8
0
 10
203.0
 20
228.0
 30
0.0
 40
7.0000000000000222
 50
36.661188516563989
 51
90.0
  0
POLYLINE
  5
13747
  8
0
 66
     1
 10
0.0
 20
0.0
 30
0.0
  0
VERTEX
  5
139AA
  8
0
 10
209.61465281831099
 20
230.29049516332381
 30
0.0
  0
VERTEX
  5
139AB
  8
0
 10
209.60032087941781
 20
230.3314725580029
 30
0.0
  0
VERTEX
  5
139AC
  8
0
 10
209.55826470211699
 20
230.44727687378591
 30
0.0
  0
VERTEX
  5
139AD
  8
0
 10
209.43018906984241
 20
230.7663456989464
 30
0.0
  0
VERTEX
  5
139AE
  8
0
 10
209.24082845085599
 20
231.17002177890041
 30
0.0
  0
VERTEX
  5
139AF
  8
0
 10
209.0138486382267
 20
231.58240485658709
 30
0.0
  0
VERTEX
  5
139B0
  8
0
 10
208.82336522540851
 20
231.8842818674392
 30
0.0
  0
VERTEX
  5
139B1
  8
0
 10
208.6152619912919
 20
232.17957327596389
 30
0.0
  0
SEQEND
  5
139B2
  8
0
  0
ARC
  5
13748
  8
0
 10
203.0
 20
132.0
 30
0.0
 40
7.0000000000000213
 50
270.0
 51
323.33881148343602
  0
POLYLINE
  5
13749
  8
0
 66
     1
 10
0.0
 20
0.0
 30
0.0
  0
VERTEX
  5
139B3
  8
0
 10
208.6152619912919
 20
127.8204267240361
 30
0.0
  0
VERTEX
  5
139B4
  8
0
 10
208.8913951003355
 20
128.21990162699359
 30
0.0
  0
VERTEX
  5
139B5
  8
0
 10
209.13475375295889
 20
128.62882863227679
 30
0.0
  0
VERTEX
  5
139B6
  8
0
 10
209.3168701192856
 20
128.98424245634331
 30
0.0
  0
VERTEX
  5
139B7
  8
0
 10
209.46969255673679
 20
129.3273462212056
 30
0.0
  0
VERTEX
  5
139B8
  8
0
 10
209.5451450936383
 20
129.5178485736719
 30
0.0
  0
VERTEX
  5
139B9
  8
0
 10
209.6009969353679
 20
129.67044221808871
 30
0.0
  0
VERTEX
  5
139BA
  8
0
 10
209.61465281831099
 20
129.70950483667619
 30
0.0
  0
SEQEND
  5
139BB
  8
0
  0
LINE
  5
1374A
  8
0
 10
169.93151100267099
 20
235.0
 30
0.0
 11
169.93151100267099
 21
224.0
 31
0.0
  0
LINE
  5
1374B
  8
0
 10
169.93151100267099
 20
213.0
 30
0.0
 11
169.93151100267099
 21
147.0
 31
0.0
  0
LINE
  5
1374C
  8
0
 10
169.93151100267099
 20
136.0
 30
0.0
 11
169.93151100267099
 21
125.0
 31
0.0
  0
LINE
  5
1374D
  8
0
 10
190.8099641618189
 20
213.0
 30
0.0
 11
190.8099641618189
 21
224.0
 31
0.0
  0
LINE
  5
1374E
  8
0
 10
190.8099641618189
 20
147.0
 30
0.0
 11
190.8099641618189
 21
136.0
 31
0.0
  0
LINE
  5
1374F
  8
0
 10
210.0
 20
132.0
 30
0.0
 11
210.0
 21
228.0
 31
0.0
  0
POLYLINE
  5
13750
  8
0
 66
     1
 10
0.0
 20
0.0
 30
0.0
  0
VERTEX
  5
139BC
  8
0
 10
210.0
 20
227.9999998524861
 30
0.0
  0
VERTEX
  5
139BD
  8
0
 10
209.97336289949891
 20
228.6100900522809
 30
0.0
  0
VERTEX
  5
139BE
  8
0
 10
209.89365429670099
 20
229.2155370983956
 30
0.0
  0
VERTEX
  5
139BF
  8
0
 10
209.76148082220291
 20
229.8117331732301
 30
0.0
  0
VERTEX
  5
139C0
  8
0
 10
209.61465281831099
 20
230.29049516332381
 30
0.0
  0
SEQEND
  5
139C1
  8
0
  0
POLYLINE
  5
13751
  8
0
 66
     1
 10
0.0
 20
0.0
 30
0.0
  0
VERTEX
  5
139C2
  8
0
 10
209.61465281831099
 20
129.70950483667619
 30
0.0
  0
VERTEX
  5
139C3
  8
0
 10
209.78911187453861
 20
130.2947258416898
 30
0.0
  0
VERTEX
  5
139C4
  8
0
 10
209.91190169002289
 20
130.89292501272089
 30
0.0
  0
VERTEX
  5
139C5
  8
0
 10
209.98208776012581
 20
131.49954969287529
 30
0.0
  0
VERTEX
  5
139C6
  8
0
 10
210.0
 20
132.0
 30
0.0
  0
SEQEND
  5
139C7
  8
0
  0
LINE
  5
13752
  8
0
 10
189.85781946518031
 20
212.5
 30
0.0
 11
189.85781946518031
 21
213.0
 31
0.0
  0
LINE
  5
13753
  8
0
 10
189.85781946518031
 20
224.0
 30
0.0
 11
189.85781946518031
 21
235.0
 31
0.0
  0
LINE
  5
13754
  8
0
 10
169.93272934863279
 20
224.0
 30
0.0
 11
169.93272934863279
 21
235.0
 31
0.0
  0
LINE
  5
13755
  8
0
 10
189.85781946518031
 20
147.0
 30
0.0
 11
189.85781946518031
 21
147.5
 31
0.0
  0
LINE
  5
13756
  8
0
 10
189.84749455468949
 20
125.0
 30
0.0
 11
189.84749455468949
 21
136.0
 31
0.0
  0
LINE
  5
13757
  8
0
 10
175.07349999999991
 20
246.0
 30
0.0
 11
184.9265
 21
246.0
 31
0.0
  0
LINE
  5
13758
  8
0
 10
175.07349999999991
 20
246.0
 30
0.0
 11
174.0
 21
244.9265
 31
0.0
  0
LINE
  5
13759
  8
0
 10
186.0
 20
244.9265
 30
0.0
 11
184.9265
 21
246.0
 31
0.0
  0
LINE
  5
1375A
  8
0
 10
174.0
 20
244.9265
 30
0.0
 11
186.0
 21
244.9265
 31
0.0
  0
LINE
  5
1375B
  8
0
 10
186.0
 20
235.0
 30
0.0
 11
186.0
 21
244.9265
 31
0.0
  0
LINE
  5
1375C
  8
0
 10
174.0
 20
244.9265
 30
0.0
 11
174.0
 21
235.0
 31
0.0
  0
LINE
  5
1375D
  8
0
 10
210.0
 20
212.5
 30
0.0
 11
184.56444853078611
 21
212.5
 31
0.0
  0
LINE
  5
1375E
  8
0
 10
210.0
 20
147.5
 30
0.0
 11
184.56444853078611
 21
147.5
 31
0.0
  0
LINE
  5
1375F
  8
0
 10
183.24157287525381
 20
224.0
 30
0.0
 11
183.24157287525381
 21
235.0
 31
0.0
  0
LINE
  5
13760
  8
0
 10
190.8099641618189
 20
224.0
 30
0.0
 11
169.93151100267099
 21
224.0
 31
0.0
  0
LINE
  5
13761
  8
0
 10
176.75842712474611
 20
224.0
 30
0.0
 11
176.75842712474611
 21
235.0
 31
0.0
  0
LINE
  5
13762
  8
0
 10
203.0
 20
235.0
 30
0.0
 11
157.0
 21
235.0
 31
0.0
  0
LINE
  5
13763
  8
0
 10
176.75842712474611
 20
125.0
 30
0.0
 11
176.75842712474611
 21
136.0
 31
0.0
  0
LINE
  5
13764
  8
0
 10
190.8099641618189
 20
136.0
 30
0.0
 11
169.93151100267099
 21
136.0
 31
0.0
  0
LINE
  5
13765
  8
0
 10
183.24157287525381
 20
125.0
 30
0.0
 11
183.24157287525381
 21
136.0
 31
0.0
  0
LINE
  5
13766
  8
0
 10
203.0
 20
125.0
 30
0.0
 11
157.0
 21
125.0
 31
0.0
  0
LINE
  5
13767
  8
0
 10
176.75842712474611
 20
147.0
 30
0.0
 11
176.75842712474611
 21
213.0
 31
0.0
  0
LINE
  5
13768
  8
0
 10
184.65578643762689
 20
147.0
 30
0.0
 11
184.65578643762689
 21
147.5
 31
0.0
  0
LINE
  5
13769
  8
0
 10
184.56444853078611
 20
212.5
 30
0.0
 11
184.56444853078611
 21
147.5
 31
0.0
  0
LINE
  5
1376A
  8
0
 10
184.65578643762689
 20
212.5
 30
0.0
 11
184.65578643762689
 21
213.0
 31
0.0
  0
LINE
  5
1376B
  8
0
 10
190.8099641618189
 20
213.0
 30
0.0
 11
169.93151100267099
 21
213.0
 31
0.0
  0
LINE
  5
1376C
  8
0
 10
183.24157287525381
 20
147.0
 30
0.0
 11
183.24157287525381
 21
213.0
 31
0.0
  0
LINE
  5
1376D
  8
0
 10
190.8099641618189
 20
147.0
 30
0.0
 11
169.93151100267099
 21
147.0
 31
0.0
  0
CIRCLE
  5
1376E
  8
0
 10
201.0
 20
225.5
 30
0.0
 40
6.0
  0
CIRCLE
  5
1376F
  8
0
 10
201.0
 20
134.5
 30
0.0
 40
6.0
  0
LINE
  5
13770
  8
3
 10
185.053
 20
235.0
 30
0.0
 11
185.053
 21
245.87350000000001
 31
0.0
  0
LINE
  5
13771
  8
3
 10
174.947
 20
235.0
 30
0.0
 11
174.947
 21
245.87350000000001
 31
0.0
  0
LINE
  5
138C3
  8
2
 10
286.45412903486078
 20
219.50000000000011
 30
0.0
 11
286.45412903486073
 21
231.5
 31
0.0
  0
LINE
  5
138C4
  8
2
 10
286.45412903486113
 20
128.50000000000011
 30
0.0
 11
286.45412903486101
 21
140.5
 31
0.0
  0
LINE
  5
138C5
  8
2
 10
73.099999999999994
 20
231.5
 30
0.0
 11
73.099999999999994
 21
219.50000000000011
 31
0.0
  0
LINE
  5
138C6
  8
2
 10
73.099999999999767
 20
140.5
 30
0.0
 11
73.099999999999653
 21
128.5
 31
0.0
  0
LINE
  5
138C7
  8
2
 10
153.0
 20
78.099999999999994
 30
0.0
 11
164.99999999999989
 21
78.099999999999994
 31
0.0
  0
LINE
  5
138C8
  8
2
 10
194.99999999999969
 20
78.099999999999994
 30
0.0
 11
206.99999999999989
 21
78.099999999999994
 31
0.0
  0
LINE
  5
138C9
  8
2
 10
206.99999999999989
 20
292.90000000000009
 30
0.0
 11
194.99999999999989
 21
292.90000000000009
 31
0.0
  0
LINE
  5
138CA
  8
2
 10
164.99999999999989
 20
292.90000000000009
 30
0.0
 11
153.0
 21
292.90000000000009
 31
0.0
  0
ENDSEC
  0
EOF
