  0
SECTION
  2
HEADER
  9
$ACADVER
  1
AC1009
  9
$INSBASE
 10
0.0
 20
0.0
 30
0.0
  9
$EXTMIN
 10
0.0
 20
-2.960436562073669
 30
0.0
  9
$EXTMAX
 10
272.85752194231782
 20
207.29314330266351
 30
0.0
  9
$LIMMIN
 10
0.0
 20
0.0
  9
$LIMMAX
 10
187.5
 20
135.0
  9
$ORTHOMODE
 70
     1
  9
$REGENMODE
 70
     1
  9
$FILLMODE
 70
     1
  9
$QTEXTMODE
 70
     0
  9
$MIRRTEXT
 70
     0
  9
$DRAGMODE
 70
     2
  9
$LTSCALE
 40
5.0
  9
$OSMODE
 70
    55
  9
$ATTMODE
 70
     1
  9
$TEXTSIZE
 40
0.06
  9
$TRACEWID
 40
0.05
  9
$TEXTSTYLE
  7
STANDARD
  9
$CLAYER
  8
0
  9
$CELTYPE
  6
BYLAYER
  9
$CECOLOR
 62
   256
  9
$DIMSCALE
 40
1.0
  9
$DIMASZ
 40
3.0
  9
$DIMEXO
 40
2.0
  9
$DIMDLI
 40
10.0
  9
$DIMRND
 40
0.0
  9
$DIMDLE
 40
0.0
  9
$DIMEXE
 40
2.0
  9
$DIMTP
 40
0.0
  9
$DIMTM
 40
0.0
  9
$DIMTXT
 40
3.0
  9
$DIMCEN
 40
0.0
  9
$DIMTSZ
 40
0.0
  9
$DIMTOL
 70
     0
  9
$DIMLIM
 70
     0
  9
$DIMTIH
 70
     0
  9
$DIMTOH
 70
     0
  9
$DIMSE1
 70
     0
  9
$DIMSE2
 70
     0
  9
$DIMTAD
 70
     1
  9
$DIMZIN
 70
     8
  9
$DIMBLK
  1

  9
$DIMASO
 70
     0
  9
$DIMSHO
 70
     0
  9
$DIMPOST
  1

  9
$DIMAPOST
  1

  9
$DIMALT
 70
     0
  9
$DIMALTD
 70
     2
  9
$DIMALTF
 40
25.399999999999999
  9
$DIMLFAC
 40
1.0
  9
$DIMTOFL
 70
     1
  9
$DIMTVP
 40
1.6000000000000001
  9
$DIMTIX
 70
     1
  9
$DIMSOXD
 70
     0
  9
$DIMSAH
 70
     0
  9
$DIMBLK1
  1

  9
$DIMBLK2
  1

  9
$DIMSTYLE
  2
STANDARD
  9
$DIMCLRD
 70
     0
  9
$DIMCLRE
 70
     0
  9
$DIMCLRT
 70
     0
  9
$DIMTFAC
 40
1.0
  9
$DIMGAP
 40
0.09
  9
$LUNITS
 70
     2
  9
$LUPREC
 70
     4
  9
$SKETCHINC
 40
0.1
  9
$FILLETRAD
 40
1.0
  9
$AUNITS
 70
     0
  9
$AUPREC
 70
     4
  9
$MENU
  1
E:\r13\win\SUPPORT\ACAD
  9
$ELEVATION
 40
0.0
  9
$PELEVATION
 40
0.0
  9
$THICKNESS
 40
0.0
  9
$LIMCHECK
 70
     0
  9
$BLIPMODE
 70
     0
  9
$CHAMFERA
 40
1.0
  9
$CHAMFERB
 40
1.0
  9
$SKPOLY
 70
     0
  9
$TDCREATE
 40
2449840.5914699072
  9
$TDUPDATE
 40
2456598.5665814821
  9
$TDINDWG
 40
0.5427003472
  9
$TDUSRTIMER
 40
0.5427003472
  9
$USRTIMER
 70
     1
  9
$ANGBASE
 50
0.0
  9
$ANGDIR
 70
     0
  9
$PDMODE
 70
     0
  9
$PDSIZE
 40
0.0
  9
$PLINEWID
 40
0.0
  9
$COORDS
 70
     1
  9
$SPLFRAME
 70
     0
  9
$SPLINETYPE
 70
     6
  9
$SPLINESEGS
 70
     8
  9
$ATTDIA
 70
     0
  9
$ATTREQ
 70
     1
  9
$HANDLING
 70
     1
  9
$HANDSEED
  5
2A50
  9
$SURFTAB1
 70
     6
  9
$SURFTAB2
 70
     6
  9
$SURFTYPE
 70
     6
  9
$SURFU
 70
     6
  9
$SURFV
 70
     6
  9
$UCSNAME
  2

  9
$UCSORG
 10
0.0
 20
0.0
 30
0.0
  9
$UCSXDIR
 10
1.0
 20
0.0
 30
0.0
  9
$UCSYDIR
 10
0.0
 20
1.0
 30
0.0
  9
$PUCSNAME
  2

  9
$PUCSORG
 10
0.0
 20
0.0
 30
0.0
  9
$PUCSXDIR
 10
1.0
 20
0.0
 30
0.0
  9
$PUCSYDIR
 10
0.0
 20
1.0
 30
0.0
  9
$USERI1
 70
     3
  9
$USERI2
 70
     1
  9
$USERI3
 70
     0
  9
$USERI4
 70
     0
  9
$USERI5
 70
     0
  9
$USERR1
 40
0.5
  9
$USERR2
 40
3.0
  9
$USERR3
 40
3.0
  9
$USERR4
 40
3.0
  9
$USERR5
 40
10.0
  9
$WORLDVIEW
 70
     1
  9
$SHADEDGE
 70
     3
  9
$SHADEDIF
 70
    70
  9
$TILEMODE
 70
     1
  9
$MAXACTVP
 70
    16
  9
$PLIMCHECK
 70
     0
  9
$PEXTMIN
 10
1.0000000000000000E+020
 20
1.0000000000000000E+020
 30
1.0000000000000000E+020
  9
$PEXTMAX
 10
-1.0000000000000000E+020
 20
-1.0000000000000000E+020
 30
-1.0000000000000000E+020
  9
$PLIMMIN
 10
0.0
 20
0.0
  9
$PLIMMAX
 10
12.0
 20
9.0
  9
$UNITMODE
 70
     0
  9
$VISRETAIN
 70
     0
  9
$PLINEGEN
 70
     0
  9
$PSLTSCALE
 70
     0
  0
ENDSEC
  0
SECTION
  2
TABLES
  0
TABLE
  2
VPORT
 70
     1
  0
VPORT
  2
*ACTIVE
 70
     0
 10
0.0
 20
0.0
 11
1.0
 21
1.0
 12
136.42876160645491
 22
151.10920202225759
 13
0.0
 23
0.0
 14
5.0
 24
5.0
 15
10.0
 25
10.0
 16
0.0
 26
0.0
 36
1.0
 17
0.0
 27
0.0
 37
0.0
 40
310.85901851125828
 41
1.7807262569832401
 42
50.0
 43
0.0
 44
0.0
 50
0.0
 51
0.0
 71
     0
 72
   100
 73
     1
 74
     0
 75
     0
 76
     0
 77
     0
 78
     0
  0
ENDTAB
  0
TABLE
  2
LTYPE
 70
     3
  0
LTYPE
  2
CONTINUOUS
 70
     0
  3
Solid Line
 72
    65
 73
     0
 40
0.0
  0
LTYPE
  2
CENTER
 70
     0
  3
____ _ ____ _ ____ _ ____ _ ____ _ ____ _ ____
 72
    65
 73
     4
 40
2.0
 49
1.25
 49
-0.25
 49
0.25
 49
-0.25
  0
LTYPE
  2
PHANTOM2
 70
     0
  3
___ _ _ ___ _ _ ___ _ _ ___ _ _
 72
    65
 73
     6
 40
1.25
 49
0.625
 49
-0.125
 49
0.125
 49
-0.125
 49
0.125
 49
-0.125
  0
ENDTAB
  0
TABLE
  2
LAYER
 70
     3
  0
LAYER
  2
0
 70
     0
 62
     7
  6
CONTINUOUS
  0
LAYER
  2
1
 70
     0
 62
     1
  6
CENTER
  0
LAYER
  2
3
 70
     0
 62
     3
  6
CONTINUOUS
  0
ENDTAB
  0
TABLE
  2
STYLE
 70
     2
  0
STYLE
  2
STANDARD
 70
     0
 40
0.0
 41
1.0
 50
0.0
 71
     0
 42
0.06
  3
TXT
  4
BIGFONT
  0
STYLE
  2
STANDARD1
 70
     0
 40
0.0
 41
1.0
 50
0.0
 71
     0
 42
3.0
  3
txt
  4

  0
ENDTAB
  0
TABLE
  2
VIEW
 70
     2
  0
VIEW
  2
OLE1
 70
     0
 40
24.514257897662329
 10
44.901529473115893
 20
103.25177669290009
 41
34.172454060781448
 11
0.0
 21
0.0
 31
1.0
 12
0.0
 22
0.0
 32
0.0
 42
50.0
 43
0.0
 44
0.0
 50
0.0
 71
     0
  0
VIEW
  2
OLE2
 70
     0
 40
111.8251716252055
 10
23.153306359535989
 20
84.753742215946431
 41
155.8823667497492
 11
0.0
 21
0.0
 31
1.0
 12
0.0
 22
0.0
 32
0.0
 42
50.0
 43
0.0
 44
0.0
 50
0.0
 71
     0
  0
ENDTAB
  0
TABLE
  2
UCS
 70
     0
  0
ENDTAB
  0
TABLE
  2
APPID
 70
     9
  0
APPID
  2
ACAD
 70
     0
  0
APPID
  2
ACAD_MLEADERVER
 70
     0
  0
APPID
  2
GENIUS_GENODEF_13
 70
     0
  0
APPID
  2
GENIUS_GENFIL_13
 70
     0
  0
APPID
  2
GENIUS_GENOBJ-N-CHA_13
 70
     0
  0
APPID
  2
ACAD_DSTYLE_DIMJAG
 70
     0
  0
APPID
  2
ACAD_DSTYLE_DIMTALN
 70
     0
  0
APPID
  2
GENIUS_GENOREF_13
 70
     0
  0
APPID
  2
ACAD_NAV_VCDISPLAY
 70
     0
  0
ENDTAB
  0
TABLE
  2
DIMSTYLE
 70
     1
  0
DIMSTYLE
  2
STANDARD
 70
     0
  3

  4

  5

  6

  7

 40
1.0
 41
0.18
 42
0.0625
 43
0.38
 44
0.18
 45
0.0
 46
0.0
 47
0.0
 48
0.0
140
0.18
141
0.09
142
0.0
143
25.399999999999999
144
1.0
145
0.0
146
1.0
147
0.09
 71
     0
 72
     0
 73
     1
 74
     1
 75
     0
 76
     0
 77
     0
 78
     0
170
     0
171
     2
172
     0
173
     0
174
     0
175
     0
176
     0
177
     0
178
     0
  0
ENDTAB
  0
ENDSEC
  0
SECTION
  2
BLOCKS
  0
BLOCK
  8
0
  2
$MODEL_SPACE
 70
     0
 10
0.0
 20
0.0
 30
0.0
  3
$MODEL_SPACE
  1

  0
ENDBLK
  5
E6
  8
0
  0
BLOCK
 67
     1
  8
0
  2
$PAPER_SPACE
 70
     0
 10
0.0
 20
0.0
 30
0.0
  3
$PAPER_SPACE
  1

  0
ENDBLK
  5
E4
 67
     1
  8
0
  0
ENDSEC
  0
SECTION
  2
ENTITIES
  0
ARC
  5
1DCE
  8
0
 10
118.03289798042439
 20
195.24029480576229
 30
0.0
 40
20.460000000000001
 50
298.8362734143135
 51
349.16372679805301
  0
ARC
  5
1DCF
  8
0
 10
148.49976240608439
 20
189.4084364339873
 30
0.0
 40
10.56
 50
46.836281342182303
 51
169.16372303132539
  0
ARC
  5
1DD0
  8
0
 10
136.34510237883171
 20
73.242862638766994
 30
0.0
 40
12.564889416155699
 50
68.217640125297919
 51
109.9864295037064
  0
ARC
  5
1DD2
  8
0
 10
148.49976240608439
 20
146.72501998266031
 30
0.0
 40
10.56
 50
190.8362698022047
 51
313.16372046700292
  0
ARC
  5
1DD3
  8
0
 10
118.03289798042439
 20
140.8931616108851
 30
0.0
 40
20.460000000000001
 50
10.83627341431303
 51
61.163726798052231
  0
ARC
  5
1DD4
  8
0
 10
136.34510237883171
 20
81.215392384138397
 30
0.0
 40
12.564889416155699
 50
250.01357049629351
 51
291.78235987470208
  0
LINE
  5
1DD5
  8
0
 10
133.99162703763139
 20
66.454656403258696
 30
0.0
 11
176.36019881259051
 21
66.454656403258866
 31
0.0
  0
LINE
  5
1DD6
  8
1
 10
116.2076886655187
 20
168.06672820832381
 30
0.0
 11
194.6605188541979
 21
168.06672820832381
 31
0.0
  0
LINE
  5
1DD7
  8
0
 10
56.376157100680651
 20
82.317078132175084
 30
0.0
 11
56.376157100680651
 21
72.087923190375591
 31
0.0
  0
LINE
  5
1DD8
  8
0
 10
42.299713084710611
 20
82.317078132175084
 30
0.0
 11
42.299713084710604
 21
72.087923190375591
 31
0.0
  0
LINE
  5
1DD9
  8
0
 10
74.877313212992107
 20
82.317078132175084
 30
0.0
 11
74.877313212992107
 21
72.087923190375591
 31
0.0
  0
LINE
  5
1DDA
  8
0
 10
88.953757228962175
 20
82.317078132175084
 30
0.0
 11
88.953757228962175
 21
72.087923190375591
 31
0.0
  0
LINE
  5
1DDD
  8
0
 10
129.459408645271
 20
82.575879632954468
 30
0.0
 11
129.459408645271
 21
71.829121689597059
 31
0.0
  0
LINE
  5
1DE3
  8
1
 10
65.626735156836375
 20
95.681071497598282
 30
0.0
 11
65.626735156836475
 21
24.728241308919561
 31
0.0
  0
ARC
  5
1DE4
  8
0
 10
65.626735156844788
 20
53.53275595447176
 30
0.0
 40
17.246259273412981
 50
72.168222193975012
 51
107.83175592819789
  0
LINE
  5
1DEB
  8
0
 10
44.316592291978957
 20
66.454656403258639
 30
0.0
 11
86.93687802169373
 21
66.454656403258696
 31
0.0
  0
ARC
  5
1DEC
  8
0
 10
52.058940485832892
 20
95.711157079156294
 30
0.0
 40
27.060654111173591
 50
251.934124536056
 51
287.83174198503423
  0
ARC
  5
1DED
  8
0
 10
37.403263682403448
 20
54.011716154660803
 30
0.0
 40
17.157173622739641
 50
68.586958173001392
 51
101.2862498613911
  0
ARC
  5
1DF7
  8
0
 10
79.194529827839872
 20
95.711157079156294
 30
0.0
 40
27.060654111173591
 50
252.1682580149658
 51
288.06587546394411
  0
ARC
  5
1DFE
  8
0
 10
93.850206631269316
 20
54.011716154660803
 30
0.0
 40
17.157173622739641
 50
78.713750138608845
 51
111.41304182699859
  0
ARC
  5
1E01
  8
0
 10
124.6841495030355
 20
49.153565546460072
 30
0.0
 40
21.55165440265473
 50
70.013567156295949
 51
94.862421607698394
  0
ARC
  5
1E04
  8
0
 10
65.626735156836403
 20
100.9254990684333
 30
0.0
 40
17.246259273412981
 50
252.16824407180209
 51
287.831777806025
  0
LINE
  5
1E06
  8
0
 10
51.045299917887093
 20
89.454656403259378
 30
0.0
 11
80.208170395785643
 21
89.454656403259378
 31
0.0
  0
ARC
  5
1E07
  8
0
 10
52.058940485832892
 20
58.747097943749168
 30
0.0
 40
27.06065411117358
 50
72.168258014965772
 51
108.065875463944
  0
ARC
  5
1E09
  8
0
 10
38.140018231348407
 20
99.719147584361352
 30
0.0
 40
16.216459945042342
 50
256.07257317719802
 51
289.92774973548529
  0
ARC
  5
1E0D
  8
0
 10
79.194529827839858
 20
58.747097943749168
 30
0.0
 40
27.06065411117358
 50
71.934124536055961
 51
107.8317419850338
  0
ARC
  5
1E0F
  8
0
 10
93.113452082324329
 20
99.719147584361352
 30
0.0
 40
16.216459945042342
 50
250.07225026451459
 51
283.92742682280198
  0
ARC
  5
1E11
  8
0
 10
124.6841495030355
 20
105.3046894764454
 30
0.0
 40
21.55165440265473
 50
265.14861079945217
 51
289.98643284370411
  0
ARC
  5
1E13
  8
0
 10
132.99410375985829
 20
168.06672820832381
 30
0.0
 40
10.56
 50
118.8362769441736
 51
241.1637502368115
  0
LINE
  5
1E14
  8
0
 10
227.76591265521131
 20
82.317078132175084
 30
0.0
 11
227.76591265521131
 21
72.087923190375591
 31
0.0
  0
LINE
  5
1E15
  8
0
 10
254.14571477809741
 20
82.317078132175084
 30
0.0
 11
254.14571477809741
 21
72.087923190375591
 31
0.0
  0
LINE
  5
1E16
  8
1
 10
240.95581371665429
 20
95.681071497598282
 30
0.0
 11
240.9558137166544
 21
24.728241308919561
 31
0.0
  0
LINE
  5
1E1D
  8
0
 10
264.28283578878001
 20
82.317078132175084
 30
0.0
 11
264.28283578878001
 21
72.087923190375591
 31
0.0
  0
LINE
  5
1E1E
  8
0
 10
217.6287916445286
 20
82.317078132175084
 30
0.0
 11
217.6287916445286
 21
72.087923190375591
 31
0.0
  0
LINE
  5
1E1F
  8
0
 10
155.707311628707
 20
83.637181231202533
 30
0.0
 11
155.707311628707
 21
70.76782009134854
 31
0.0
  0
LINE
  5
1E20
  8
0
 10
171.31849615597241
 20
82.575879632954468
 30
0.0
 11
171.31849615597241
 21
71.829121689597059
 31
0.0
  0
LINE
  5
1E21
  8
1
 10
155.43410375985829
 20
95.681071497598282
 30
0.0
 11
155.4341037598584
 21
24.728241308919561
 31
0.0
  0
LINE
  5
1E22
  8
0
 10
139.10765110599701
 20
83.637181231202533
 30
0.0
 11
139.10765110599701
 21
70.76782009134854
 31
0.0
  0
ARC
  5
1E28
  8
0
 10
175.63095273371221
 20
54.011716154660803
 30
0.0
 40
17.157173622739641
 50
62.794509331435222
 51
111.41304182699859
  0
ARC
  5
1E29
  8
0
 10
160.97527593028281
 20
95.711157079156294
 30
0.0
 40
27.060654111173591
 50
252.1682580149658
 51
288.06587546394411
  0
LINE
  5
1E30
  8
0
 10
144.68410375985829
 20
52.25465640325865
 30
0.0
 11
144.6841037598584
 21
66.454656403258696
 31
0.0
  0
ARC
  5
1E37
  8
0
 10
147.40748125927931
 20
53.532755954472123
 30
0.0
 40
17.246259273412981
 50
72.168222193975012
 51
111.782357992722
  0
LINE
  5
1E38
  8
0
 10
166.18410375985829
 20
66.454656403258696
 30
0.0
 11
166.18410375985829
 21
52.25465640325865
 31
0.0
  0
ARC
  5
1E40
  8
0
 10
240.95581371665429
 20
85.896762241395706
 30
0.0
 40
17.246259273412981
 50
252.16824407180209
 51
287.831777806025
  0
LINE
  5
1E42
  8
0
 10
219.64567085179689
 20
66.454656403258696
 30
0.0
 11
262.26595658151172
 21
66.454656403258696
 31
0.0
  0
ARC
  5
1E48
  8
0
 10
227.38801904565091
 20
43.718361116711492
 30
0.0
 40
27.060654111173591
 50
72.168258014965772
 51
108.065875463944
  0
ARC
  5
1E4B
  8
0
 10
212.73234224222139
 20
85.417802041206983
 30
0.0
 40
17.157173622739641
 50
272.80107719815783
 51
291.41304182699861
  0
ARC
  5
1E52
  8
0
 10
254.52360838765779
 20
43.718361116711492
 30
0.0
 40
27.060654111173591
 50
71.934124536055961
 51
107.8317419850342
  0
ARC
  5
1E5A
  8
0
 10
269.17928519108727
 20
85.417802041206983
 30
0.0
 40
17.157173622739641
 50
248.58695817300139
 51
267.19892280184308
  0
LINE
  5
1E5D
  8
1
 10
155.43410375985829
 20
207.29314330266351
 30
0.0
 11
155.43410375985829
 21
128.84031311398411
 31
0.0
  0
ARC
  5
1E5E
  8
0
 10
173.58844511363219
 20
154.87682714688069
 30
0.0
 40
10.56
 50
262.83624966446922
 51
25.163729598245069
  0
ARC
  5
1E5F
  8
0
 10
174.89419818476719
 20
99.719147584361352
 30
0.0
 40
16.216459945042342
 50
250.07225026451459
 51
300.71376943442522
  0
ARC
  5
1E61
  8
0
 10
160.97527593028281
 20
58.747097943749111
 30
0.0
 40
27.06065411117358
 50
71.934124536055961
 51
107.8317419850338
  0
LINE
  5
1E62
  8
0
 10
140.72033466353341
 20
89.454656403258397
 30
0.0
 11
169.63149118668741
 21
89.454656403258696
 31
0.0
  0
ARC
  5
1E64
  8
0
 10
147.40748125927931
 20
100.9254990684333
 30
0.0
 40
17.246259273412981
 50
248.21764200727799
 51
287.831777806025
  0
ARC
  5
1E67
  8
0
 10
169.72009314737301
 20
124.0989738581093
 30
0.0
 40
20.460000000000001
 50
82.83627341431351
 51
133.16372679805249
  0
ARC
  5
1E69
  8
0
 10
173.5884451136323
 20
181.25662926976699
 30
0.0
 40
10.56
 50
334.83628177671761
 51
97.163732909726974
  0
ARC
  5
1E6C
  8
0
 10
169.72009314737301
 20
212.03448255853829
 30
0.0
 40
20.460000000000001
 50
226.83627341431381
 51
277.16372679805272
  0
ARC
  5
1E6D
  8
0
 10
201.6645365436967
 20
168.06672820832381
 30
0.0
 40
20.460000000000001
 50
154.8362734143127
 51
205.16372679805181
  0
ARC
  5
1E6F
  8
0
 10
240.95581371665429
 20
68.561492781509742
 30
0.0
 40
17.246259273412981
 50
72.168222193975012
 51
107.83175592819789
  0
LINE
  5
1E70
  8
0
 10
226.3743784777005
 20
89.454656403258625
 30
0.0
 11
255.53724895560811
 21
89.454656403258625
 31
0.0
  0
ARC
  5
1E72
  8
0
 10
227.38801904565091
 20
110.7398939061939
 30
0.0
 40
27.06065411117358
 50
251.934124536056
 51
287.83174198503377
  0
ARC
  5
1E75
  8
0
 10
213.46909679116641
 20
69.767844265581743
 30
0.0
 40
16.216459945042342
 50
70.072250264514608
 51
93.107998001591596
  0
ARC
  5
1E77
  8
0
 10
254.52360838765779
 20
110.7398939061939
 30
0.0
 40
27.06065411117358
 50
252.1682580149658
 51
288.06587546394411
  0
ARC
  5
1E7A
  8
0
 10
268.44253064214229
 20
69.767844265581743
 30
0.0
 40
16.216459945042342
 50
87.108967037195384
 51
109.92774973548541
  0
LINE
  5
1FD4
  8
0
 10
230.2058137166544
 20
52.254656403258878
 30
0.0
 11
230.2058137166544
 21
66.454656403258795
 31
0.0
  0
LINE
  5
1FD8
  8
0
 10
251.7058137166544
 20
66.454656403258795
 30
0.0
 11
251.7058137166544
 21
52.254656403258878
 31
0.0
  0
LINE
  5
2024
  8
0
 10
57.976735156836519
 20
50.954656403258518
 30
0.0
 11
73.276735156836537
 21
50.954656403258518
 31
0.0
  0
LINE
  5
2025
  8
0
 10
55.876735156836531
 20
51.254656403257108
 30
0.0
 11
75.376735156836489
 21
51.254656403258529
 31
0.0
  0
LINE
  5
2026
  8
0
 10
76.376735156836503
 20
52.254656403258537
 30
0.0
 11
54.876735156836517
 21
52.254656403258537
 31
0.0
  0
LINE
  5
2027
  8
0
 10
54.876735156836489
 20
52.254656403258537
 30
0.0
 11
54.876735156836489
 21
66.454656403258525
 31
0.0
  0
LINE
  5
202A
  8
0
 10
57.976735156836519
 20
51.254656403258529
 30
0.0
 11
57.976735156836519
 21
50.954656403258518
 31
0.0
  0
LINE
  5
202B
  8
0
 10
76.376735156836489
 20
66.454656403258525
 30
0.0
 11
76.376735156836489
 21
52.254656403258537
 31
0.0
  0
LINE
  5
202C
  8
0
 10
73.276735156836537
 20
51.254656403258529
 30
0.0
 11
73.276735156836537
 21
50.954656403258518
 31
0.0
  0
LINE
  5
22D4
  8
0
 10
97.528443382499844
 20
82.125327501335789
 30
0.0
 11
97.528443382499844
 21
72.324824402880154
 31
0.0
  0
LINE
  5
22D7
  8
0
 10
94.849603645513213
 20
68.833692487863971
 30
0.0
 11
86.93687802169373
 21
66.454656403258696
 31
0.0
  0
ARC
  5
22D8
  8
0
 10
93.914157668214116
 20
72.324824402880154
 30
0.0
 40
3.6142857142857152
 50
285.00000000000119
 51
0.0
  0
ARC
  5
22DC
  8
0
 10
93.914157668214017
 20
82.125327501335789
 30
0.0
 40
3.6142857142857121
 50
0.0
 51
70.112405558589359
  0
LINE
  5
231C
  8
0
 10
33.725026931172962
 20
82.125327501335747
 30
0.0
 11
33.725026931172962
 21
72.324824402880097
 31
0.0
  0
ARC
  5
231D
  8
0
 10
37.339312645458683
 20
72.324824402880097
 30
0.0
 40
3.6142857142857152
 50
180.0
 51
254.99999999999881
  0
ARC
  5
231E
  8
0
 10
37.339312645458662
 20
82.125327501335747
 30
0.0
 40
3.6142857142857121
 50
109.8875944414106
 51
180.0
  0
LINE
  5
231F
  8
0
 10
36.40386666815948
 20
68.833692487863914
 30
0.0
 11
44.316592291978957
 21
66.454656403258639
 31
0.0
  0
LINE
  5
23F3
  8
0
 10
209.05410549099091
 20
82.125327501335789
 30
0.0
 11
209.05410549099091
 21
72.324824402880154
 31
0.0
  0
LINE
  5
23F4
  8
0
 10
211.7329452279775
 20
68.833692487863971
 30
0.0
 11
219.64567085179689
 21
66.454656403258696
 31
0.0
  0
ARC
  5
23F5
  8
0
 10
212.66839120527661
 20
72.324824402880154
 30
0.0
 40
3.6142857142857152
 50
180.0
 51
254.99999999999881
  0
ARC
  5
23F7
  8
0
 10
212.66839120527661
 20
82.125327501335903
 30
0.0
 40
3.614285714285641
 50
110.96904175592179
 51
180.00000000000159
  0
LINE
  5
23FA
  8
0
 10
272.85752194231782
 20
82.125327501335789
 30
0.0
 11
272.85752194231782
 21
72.324824402880154
 31
0.0
  0
LINE
  5
23FB
  8
0
 10
270.17868220533109
 20
68.833692487863971
 30
0.0
 11
262.26595658151172
 21
66.454656403258696
 31
0.0
  0
ARC
  5
23FC
  8
0
 10
269.24323622803212
 20
72.324824402880154
 30
0.0
 40
3.6142857142857152
 50
285.00000000000119
 51
0.0
  0
ARC
  5
23FD
  8
0
 10
243.17191148213621
 20
12.12755928690796
 30
0.0
 40
78.30952380952381
 50
69.546725794529124
 51
80.914778962288707
  0
ARC
  5
23FE
  8
0
 10
269.243236228032
 20
82.125327501335789
 30
0.0
 40
3.6142857142857121
 50
0.0
 51
69.030958244183921
  0
ARC
  5
24F8
  8
0
 10
151.45791328366781
 20
11.884778714487931
 30
0.0
 40
78.30952380952381
 50
97.881062213925304
 51
109.8875944414106
  0
LINE
  5
24F9
  8
0
 10
122.4341037598583
 20
82.125327501335789
 30
0.0
 11
122.4341037598583
 21
72.324824402880154
 31
0.0
  0
LINE
  5
24FA
  8
0
 10
133.99162703763139
 20
66.454656403258696
 30
0.0
 11
125.11294349684501
 21
68.833692487863971
 31
0.0
  0
ARC
  5
24FB
  8
0
 10
126.048389474144
 20
72.324824402880154
 30
0.0
 40
3.6142857142857152
 50
180.0
 51
254.99999999999881
  0
ARC
  5
24FC
  8
0
 10
126.048389474144
 20
82.125327501335789
 30
0.0
 40
3.6142857142857121
 50
109.8875944414106
 51
180.0
  0
LINE
  5
24FE
  8
0
 10
184.14844511363239
 20
83.311655083968446
 30
0.0
 11
184.14844511363239
 21
71.372018061404503
 31
0.0
  0
ARC
  5
24FF
  8
0
 10
180.53415939934661
 20
71.372018061404503
 30
0.0
 40
3.6142857142857139
 50
285.00000000000119
 51
0.0
  0
LINE
  5
2500
  8
0
 10
176.36019881259051
 20
66.454656403258866
 30
0.0
 11
181.46960537664569
 21
67.880886146388264
 31
0.0
  0
ARC
  5
2501
  8
0
 10
159.06919086982941
 20
14.475822162706489
 30
0.0
 40
75.719137422818676
 50
72.695694912375217
 51
81.981482424911547
  0
ARC
  5
2502
  8
0
 10
180.53415939934669
 20
83.311655083968446
 30
0.0
 40
3.6142857142857152
 50
0.0
 51
72.988105920401864
  0
LINE
  5
254C
  8
0
 10
76.376735156836489
 20
52.254656403258537
 30
0.0
 11
75.376735156836489
 21
51.254656403258529
 31
0.0
  0
LINE
  5
254D
  8
0
 10
54.876735156836382
 20
52.254656403256938
 30
0.0
 11
55.876735156836531
 21
51.254656403257108
 31
0.0
  0
LINE
  5
254E
  8
0
 10
147.78410375985831
 20
50.954656403258639
 30
0.0
 11
163.08410375985829
 21
50.954656403258639
 31
0.0
  0
LINE
  5
254F
  8
0
 10
145.6841037598584
 20
51.254656403257229
 30
0.0
 11
165.18410375985829
 21
51.25465640325865
 31
0.0
  0
LINE
  5
2550
  8
0
 10
166.18410375985829
 20
52.25465640325865
 30
0.0
 11
165.18410375985829
 21
51.25465640325865
 31
0.0
  0
LINE
  5
2551
  8
0
 10
166.18410375985829
 20
52.25465640325865
 30
0.0
 11
144.68410375985829
 21
52.25465640325865
 31
0.0
  0
LINE
  5
2552
  8
0
 10
147.78410375985831
 20
51.25465640325865
 30
0.0
 11
147.78410375985831
 21
50.954656403258639
 31
0.0
  0
LINE
  5
2553
  8
0
 10
163.08410375985829
 20
51.25465640325865
 30
0.0
 11
163.08410375985829
 21
50.954656403258639
 31
0.0
  0
LINE
  5
2554
  8
0
 10
144.6841037598582
 20
52.254656403257059
 30
0.0
 11
145.6841037598584
 21
51.254656403257229
 31
0.0
  0
LINE
  5
2555
  8
0
 10
233.3058137166544
 20
50.954656403258873
 30
0.0
 11
248.60581371665441
 21
50.954656403258873
 31
0.0
  0
LINE
  5
2556
  8
0
 10
231.2058137166544
 20
51.254656403257457
 30
0.0
 11
250.7058137166544
 21
51.254656403258878
 31
0.0
  0
LINE
  5
2557
  8
0
 10
251.70581371665429
 20
52.254656403258878
 30
0.0
 11
250.7058137166544
 21
51.254656403258878
 31
0.0
  0
LINE
  5
2558
  8
0
 10
251.70581371665429
 20
52.254656403258878
 30
0.0
 11
230.2058137166544
 21
52.254656403258878
 31
0.0
  0
LINE
  5
2559
  8
0
 10
233.3058137166544
 20
51.254656403258878
 30
0.0
 11
233.3058137166544
 21
50.954656403258873
 31
0.0
  0
LINE
  5
255A
  8
0
 10
248.60581371665441
 20
51.254656403258878
 30
0.0
 11
248.60581371665441
 21
50.954656403258873
 31
0.0
  0
LINE
  5
255B
  8
0
 10
230.20581371665421
 20
52.254656403257293
 30
0.0
 11
231.2058137166544
 21
51.254656403257457
 31
0.0
  0
ARC
  5
25E3
  8
0
 10
238.7397159511724
 20
12.12755928690796
 30
0.0
 40
78.30952380952381
 50
99.085221037711307
 51
110.45327420547081
  0
ARC
  5
25E4
  8
0
 10
63.410637391354541
 20
12.12755928690796
 30
0.0
 40
78.30952380952381
 50
99.085221037708081
 51
110.45327420547081
  0
ARC
  5
25E5
  8
0
 10
67.842832922318195
 20
12.12755928690796
 30
0.0
 40
78.30952380952381
 50
69.546725794529124
 51
80.914778962291905
  0
LINE
  5
2913
  8
0
 10
70.626735156836588
 20
48.954656403258518
 30
0.0
 11
60.626735156836808
 21
48.95465640325849
 31
0.0
1001
GENIUS_GENOREF_13
1005
0
  0
LINE
  5
2914
  8
0
 10
60.626735156836808
 20
50.954656403258518
 30
0.0
 11
60.626735156836467
 21
32.45465640325861
 31
0.0
1001
GENIUS_GENOREF_13
1005
0
1005
0
  0
LINE
  5
2915
  8
3
 10
61.546735156836377
 20
31.534656403258651
 30
0.0
 11
61.546735156836831
 21
48.95465640325849
 31
0.0
1001
GENIUS_GENOREF_13
1005
0
1005
0
  0
LINE
  5
2916
  8
0
 10
60.626735156836588
 20
32.454656403258497
 30
0.0
 11
62.126735156836531
 21
30.9546564032585
 31
0.0
  0
LINE
  5
2917
  8
3
 10
61.546735156836831
 20
48.95465640325849
 30
0.0
 11
60.626735156836808
 21
49.874656403258513
 31
0.0
  0
LINE
  5
2918
  8
0
 10
70.626735156836588
 20
50.954656403258468
 30
0.0
 11
70.626735156836673
 21
32.454656403258468
 31
0.0
1001
GENIUS_GENOREF_13
1005
0
1005
0
  0
LINE
  5
2919
  8
3
 10
69.706735156836658
 20
31.534656403258449
 30
0.0
 11
69.706735156836572
 21
48.95465640325844
 31
0.0
1001
GENIUS_GENOREF_13
1005
0
1005
0
  0
LINE
  5
291A
  8
0
 10
70.626735156836645
 20
32.45465640325844
 30
0.0
 11
69.126735156836645
 21
30.95465640325844
 31
0.0
  0
LINE
  5
291B
  8
0
 10
69.126735156836645
 20
30.95465640325844
 30
0.0
 11
62.126735156836531
 21
30.9546564032585
 31
0.0
1001
GENIUS_GENOREF_13
1005
0
1005
0
  0
LINE
  5
291C
  8
0
 10
70.626735156836645
 20
32.45465640325844
 30
0.0
 11
60.626735156836588
 21
32.454656403258497
 31
0.0
  0
LINE
  5
291D
  8
3
 10
69.706735156836572
 20
48.95465640325844
 30
0.0
 11
70.626735156836588
 21
49.874656403258449
 31
0.0
  0
LINE
  5
291E
  8
0
 10
160.4341037598584
 20
48.954656403258639
 30
0.0
 11
150.4341037598586
 21
48.95465640325861
 31
0.0
1001
GENIUS_GENOREF_13
1005
0
  0
LINE
  5
291F
  8
0
 10
150.4341037598586
 20
50.954656403258639
 30
0.0
 11
150.4341037598582
 21
32.454656403258731
 31
0.0
1001
GENIUS_GENOREF_13
1005
0
1005
0
  0
LINE
  5
2920
  8
3
 10
151.35410375985819
 20
31.534656403258762
 30
0.0
 11
151.35410375985859
 21
48.95465640325861
 31
0.0
1001
GENIUS_GENOREF_13
1005
0
1005
0
  0
LINE
  5
2921
  8
0
 10
150.43410375985829
 20
32.45465640325861
 30
0.0
 11
151.93410375985829
 21
30.95465640325861
 31
0.0
  0
LINE
  5
2922
  8
3
 10
151.35410375985859
 20
48.95465640325861
 30
0.0
 11
150.4341037598586
 21
49.874656403258619
 31
0.0
  0
LINE
  5
2923
  8
0
 10
160.4341037598584
 20
50.954656403258582
 30
0.0
 11
160.43410375985849
 21
32.454656403258582
 31
0.0
1001
GENIUS_GENOREF_13
1005
0
1005
0
  0
LINE
  5
2924
  8
3
 10
159.51410375985839
 20
31.53465640325857
 30
0.0
 11
159.5141037598583
 21
48.954656403258561
 31
0.0
1001
GENIUS_GENOREF_13
1005
0
1005
0
  0
LINE
  5
2925
  8
0
 10
160.4341037598584
 20
32.454656403258561
 30
0.0
 11
158.9341037598584
 21
30.95465640325855
 31
0.0
  0
LINE
  5
2926
  8
0
 10
158.9341037598584
 20
30.95465640325855
 30
0.0
 11
151.93410375985829
 21
30.95465640325861
 31
0.0
1001
GENIUS_GENOREF_13
1005
0
1005
0
  0
LINE
  5
2927
  8
0
 10
160.4341037598584
 20
32.454656403258561
 30
0.0
 11
150.43410375985829
 21
32.45465640325861
 31
0.0
  0
LINE
  5
2928
  8
3
 10
159.5141037598583
 20
48.954656403258561
 30
0.0
 11
160.4341037598584
 21
49.87465640325857
 31
0.0
  0
LINE
  5
2929
  8
0
 10
245.9558137166544
 20
48.954656403258873
 30
0.0
 11
235.9558137166546
 21
48.954656403258838
 31
0.0
1001
GENIUS_GENOREF_13
1005
0
  0
LINE
  5
292A
  8
0
 10
235.9558137166546
 20
50.954656403258873
 30
0.0
 11
235.95581371665429
 21
32.454656403258952
 31
0.0
1001
GENIUS_GENOREF_13
1005
0
1005
0
  0
LINE
  5
292B
  8
3
 10
236.87581371665419
 20
31.534656403259
 30
0.0
 11
236.8758137166547
 21
48.954656403258838
 31
0.0
1001
GENIUS_GENOREF_13
1005
0
1005
0
  0
LINE
  5
292C
  8
0
 10
235.9558137166544
 20
32.454656403258838
 30
0.0
 11
237.45581371665429
 21
30.954656403258841
 31
0.0
  0
LINE
  5
292D
  8
3
 10
236.8758137166547
 20
48.954656403258838
 30
0.0
 11
235.9558137166546
 21
49.874656403258847
 31
0.0
  0
LINE
  5
292E
  8
0
 10
245.9558137166544
 20
50.954656403258809
 30
0.0
 11
245.95581371665449
 21
32.454656403258809
 31
0.0
1001
GENIUS_GENOREF_13
1005
0
1005
0
  0
LINE
  5
292F
  8
3
 10
245.0358137166545
 20
31.534656403258801
 30
0.0
 11
245.03581371665439
 21
48.954656403258781
 31
0.0
1001
GENIUS_GENOREF_13
1005
0
1005
0
  0
LINE
  5
2930
  8
0
 10
245.95581371665449
 20
32.454656403258781
 30
0.0
 11
244.45581371665449
 21
30.954656403258781
 31
0.0
  0
LINE
  5
2931
  8
0
 10
244.45581371665449
 20
30.954656403258781
 30
0.0
 11
237.45581371665429
 21
30.954656403258841
 31
0.0
1001
GENIUS_GENOREF_13
1005
0
1005
0
  0
LINE
  5
2932
  8
0
 10
245.95581371665449
 20
32.454656403258781
 30
0.0
 11
235.9558137166544
 21
32.454656403258838
 31
0.0
  0
LINE
  5
2933
  8
3
 10
245.03581371665439
 20
48.954656403258781
 30
0.0
 11
245.9558137166544
 21
49.87465640325879
 31
0.0
  0
CIRCLE
  5
2984
  8
0
 10
155.43410375985829
 20
168.06672820832381
 30
0.0
 40
11.25
  0
CIRCLE
  5
2985
  8
0
 10
155.43410375985829
 20
168.06672820832381
 30
0.0
 40
10.25
  0
TEXT
  5
29E7
  8
0
 62
     3
 10
0.0
 20
0.0
 30
0.0
 40
10.0
  1
STK66X20SOFT
  7
STANDARD1
  0
ENDSEC
  0
EOF
