  0
SECTION
  2
HEADER
  9
$ACADVER
  1
AC1009
  9
$INSBASE
 10
0.0
 20
0.0
 30
0.0
  9
$EXTMIN
 10
0.0
 20
-2.960436562073669
 30
0.0
  9
$EXTMAX
 10
332.8300000000001
 20
254.50000000000011
 30
0.0
  9
$LIMMIN
 10
0.0
 20
0.0
  9
$LIMMAX
 10
385.0
 20
270.0
  9
$ORTHOMODE
 70
     1
  9
$REGENMODE
 70
     1
  9
$FILLMODE
 70
     1
  9
$QTEXTMODE
 70
     0
  9
$MIRRTEXT
 70
     0
  9
$DRAGMODE
 70
     2
  9
$LTSCALE
 40
5.0
  9
$OSMODE
 70
    37
  9
$ATTMODE
 70
     1
  9
$TEXTSIZE
 40
4.0
  9
$TRACEWID
 40
0.05
  9
$TEXTSTYLE
  7
STANDARD
  9
$CLAYER
  8
0
  9
$CELTYPE
  6
BYLAYER
  9
$CECOLOR
 62
   256
  9
$DIMSCALE
 40
1.0
  9
$DIMASZ
 40
3.0
  9
$DIMEXO
 40
1.0
  9
$DIMDLI
 40
6.0
  9
$DIMRND
 40
0.0
  9
$DIMDLE
 40
0.0
  9
$DIMEXE
 40
1.0
  9
$DIMTP
 40
495.0
  9
$DIMTM
 40
0.0
  9
$DIMTXT
 40
3.0
  9
$DIMCEN
 40
0.0
  9
$DIMTSZ
 40
0.0
  9
$DIMTOL
 70
     0
  9
$DIMLIM
 70
     0
  9
$DIMTIH
 70
     0
  9
$DIMTOH
 70
     0
  9
$DIMSE1
 70
     0
  9
$DIMSE2
 70
     0
  9
$DIMTAD
 70
     1
  9
$DIMZIN
 70
     8
  9
$DIMBLK
  1

  9
$DIMASO
 70
     1
  9
$DIMSHO
 70
     0
  9
$DIMPOST
  1

  9
$DIMAPOST
  1

  9
$DIMALT
 70
     0
  9
$DIMALTD
 70
     2
  9
$DIMALTF
 40
25.399999999999999
  9
$DIMLFAC
 40
1.0
  9
$DIMTOFL
 70
     1
  9
$DIMTVP
 40
0.0
  9
$DIMTIX
 70
     0
  9
$DIMSOXD
 70
     0
  9
$DIMSAH
 70
     0
  9
$DIMBLK1
  1

  9
$DIMBLK2
  1

  9
$DIMSTYLE
  2
STANDARD
  9
$DIMCLRD
 70
     0
  9
$DIMCLRE
 70
     0
  9
$DIMCLRT
 70
     0
  9
$DIMTFAC
 40
1.0
  9
$DIMGAP
 40
1.0
  9
$LUNITS
 70
     2
  9
$LUPREC
 70
     1
  9
$SKETCHINC
 40
0.1
  9
$FILLETRAD
 40
2.0
  9
$AUNITS
 70
     0
  9
$AUPREC
 70
     1
  9
$MENU
  1
E:\r13\win\SUPPORT\ACAD
  9
$ELEVATION
 40
0.0
  9
$PELEVATION
 40
0.0
  9
$THICKNESS
 40
0.0
  9
$LIMCHECK
 70
     0
  9
$BLIPMODE
 70
     0
  9
$CHAMFERA
 40
0.0
  9
$CHAMFERB
 40
0.0
  9
$SKPOLY
 70
     0
  9
$TDCREATE
 40
2450541.3939600689
  9
$TDUPDATE
 40
2457892.4266487388
  9
$TDINDWG
 40
1.2229068056000001
  9
$TDUSRTIMER
 40
1.2229068056000001
  9
$USRTIMER
 70
     1
  9
$ANGBASE
 50
0.0
  9
$ANGDIR
 70
     0
  9
$PDMODE
 70
     0
  9
$PDSIZE
 40
0.0
  9
$PLINEWID
 40
0.0
  9
$COORDS
 70
     1
  9
$SPLFRAME
 70
     0
  9
$SPLINETYPE
 70
     6
  9
$SPLINESEGS
 70
     8
  9
$ATTDIA
 70
     0
  9
$ATTREQ
 70
     1
  9
$HANDLING
 70
     1
  9
$HANDSEED
  5
106B3
  9
$SURFTAB1
 70
     6
  9
$SURFTAB2
 70
     6
  9
$SURFTYPE
 70
     6
  9
$SURFU
 70
     6
  9
$SURFV
 70
     6
  9
$UCSNAME
  2

  9
$UCSORG
 10
0.0
 20
0.0
 30
0.0
  9
$UCSXDIR
 10
1.0
 20
0.0
 30
0.0
  9
$UCSYDIR
 10
0.0
 20
1.0
 30
0.0
  9
$PUCSNAME
  2

  9
$PUCSORG
 10
0.0
 20
0.0
 30
0.0
  9
$PUCSXDIR
 10
1.0
 20
0.0
 30
0.0
  9
$PUCSYDIR
 10
0.0
 20
1.0
 30
0.0
  9
$USERI1
 70
     3
  9
$USERI2
 70
     1
  9
$USERI3
 70
     1
  9
$USERI4
 70
     0
  9
$USERI5
 70
     0
  9
$USERR1
 40
1.0
  9
$USERR2
 40
3.0
  9
$USERR3
 40
3.0
  9
$USERR4
 40
3.0
  9
$USERR5
 40
10.0
  9
$WORLDVIEW
 70
     1
  9
$SHADEDGE
 70
     3
  9
$SHADEDIF
 70
    70
  9
$TILEMODE
 70
     1
  9
$MAXACTVP
 70
    16
  9
$PLIMCHECK
 70
     0
  9
$PEXTMIN
 10
1.0000000000000000E+020
 20
1.0000000000000000E+020
 30
1.0000000000000000E+020
  9
$PEXTMAX
 10
-1.0000000000000000E+020
 20
-1.0000000000000000E+020
 30
-1.0000000000000000E+020
  9
$PLIMMIN
 10
0.0
 20
0.0
  9
$PLIMMAX
 10
12.0
 20
9.0
  9
$UNITMODE
 70
     0
  9
$VISRETAIN
 70
     0
  9
$PLINEGEN
 70
     0
  9
$PSLTSCALE
 70
     0
  0
ENDSEC
  0
SECTION
  2
TABLES
  0
TABLE
  2
VPORT
 70
     1
  0
VPORT
  2
*ACTIVE
 70
     0
 10
0.0
 20
0.0
 11
1.0
 21
1.0
 12
272.4358974358974
 22
150.0
 13
0.0
 23
0.0
 14
5.0
 24
5.0
 15
10.0
 25
10.0
 16
0.0
 26
0.0
 36
1.0
 17
0.0
 27
0.0
 37
0.0
 40
300.0
 41
1.816239316239316
 42
50.0
 43
0.0
 44
0.0
 50
0.0
 51
0.0
 71
     0
 72
   100
 73
     1
 74
     0
 75
     0
 76
     0
 77
     0
 78
     0
  0
ENDTAB
  0
TABLE
  2
LTYPE
 70
     4
  0
LTYPE
  2
CONTINUOUS
 70
     0
  3
Solid Line
 72
    65
 73
     0
 40
0.0
  0
LTYPE
  2
CENTER
 70
     0
  3
____ _ ____ _ ____ _ ____ _ ____ _ ____ _ ____
 72
    65
 73
     4
 40
2.0
 49
1.25
 49
-0.25
 49
0.25
 49
-0.25
  0
LTYPE
  2
HIDDEN
 70
     0
  3
_ _ _ _ _ _ _ _ _ _ _ _ _ _ _ _ _ _ _ _ _ _ _
 72
    65
 73
     2
 40
0.375
 49
0.25
 49
-0.125
  0
LTYPE
  2
PHANTOM2
 70
     0
  3
___ _ _ ___ _ _ ___ _ _ ___ _ _
 72
    65
 73
     6
 40
1.25
 49
0.625
 49
-0.125
 49
0.125
 49
-0.125
 49
0.125
 49
-0.125
  0
ENDTAB
  0
TABLE
  2
LAYER
 70
     6
  0
LAYER
  2
0
 70
     0
 62
     7
  6
CONTINUOUS
  0
LAYER
  2
1
 70
     0
 62
     1
  6
CENTER
  0
LAYER
  2
2
 70
     0
 62
     2
  6
HIDDEN
  0
LAYER
  2
DEFPOINTS
 70
     0
 62
     7
  6
CONTINUOUS
  0
LAYER
  2
4
 70
     0
 62
     4
  6
CONTINUOUS
  0
LAYER
  2
3
 70
     0
 62
     3
  6
CONTINUOUS
  0
ENDTAB
  0
TABLE
  2
STYLE
 70
     2
  0
STYLE
  2
STANDARD
 70
     0
 40
0.0
 41
1.0
 50
0.0
 71
     0
 42
4.0
  3
SIMPLEX
  4
BIGFONT
  0
STYLE
  2
STANDARD1
 70
     0
 40
0.0
 41
1.0
 50
0.0
 71
     0
 42
3.0
  3
txt
  4

  0
ENDTAB
  0
TABLE
  2
VIEW
 70
     0
  0
ENDTAB
  0
TABLE
  2
UCS
 70
     0
  0
ENDTAB
  0
TABLE
  2
APPID
 70
    18
  0
APPID
  2
ACAD
 70
     0
  0
APPID
  2
ASM_BASE
 70
     0
  0
APPID
  2
ASM_EXPLO_VER_2_00
 70
     0
  0
APPID
  2
ASM_CADM_VER_12_00
 70
     0
  0
APPID
  2
ASM_BASEFORO
 70
     0
  0
APPID
  2
ASM_BASETRAVI
 70
     0
  0
APPID
  2
ASM_BASETRAVI1
 70
     0
  0
APPID
  2
ASM_GRUPPI
 70
     0
  0
APPID
  2
ASM_CADM_ALBERO
 70
     0
  0
APPID
  2
ASM_GOLE
 70
     0
  0
APPID
  2
ACAD_EXEMPT_FROM_CAD_STANDARDS
 70
     0
  0
APPID
  2
ACAD_DSTYLE_DIMJAG
 70
     0
  0
APPID
  2
ACAD_DSTYLE_DIMTALN
 70
     0
  0
APPID
  2
ACAD_MLEADERVER
 70
     0
  0
APPID
  2
ACAD_NAV_VCDISPLAY
 70
     0
  0
APPID
  2
ACAD_DSTYLE_DIMRADIAL_EXTENSION
 70
     0
  0
APPID
  2
DCO15
 70
     0
  0
APPID
  2
ACADANNOTATIVE
 70
     0
  0
ENDTAB
  0
TABLE
  2
DIMSTYLE
 70
     1
  0
DIMSTYLE
  2
STANDARD
 70
     0
  3

  4

  5

  6

  7

 40
1.0
 41
0.18
 42
0.0625
 43
0.38
 44
0.18
 45
0.0
 46
0.0
 47
0.0
 48
0.0
140
0.18
141
0.09
142
0.0
143
25.399999999999999
144
1.0
145
0.0
146
1.0
147
0.09
 71
     0
 72
     0
 73
     1
 74
     1
 75
     0
 76
     0
 77
     0
 78
     0
170
     0
171
     2
172
     0
173
     0
174
     0
175
     0
176
     0
177
     0
178
     0
  0
ENDTAB
  0
ENDSEC
  0
SECTION
  2
BLOCKS
  0
BLOCK
  8
0
  2
$MODEL_SPACE
 70
     0
 10
0.0
 20
0.0
 30
0.0
  3
$MODEL_SPACE
  1

  0
ENDBLK
  5
1CD3
  8
0
  0
BLOCK
 67
     1
  8
0
  2
$PAPER_SPACE
 70
     0
 10
0.0
 20
0.0
 30
0.0
  3
$PAPER_SPACE
  1

  0
ENDBLK
  5
1CD1
 67
     1
  8
0
  0
ENDSEC
  0
SECTION
  2
ENTITIES
  0
TEXT
  5
D723
  8
0
 62
     3
 10
0.0
 20
0.0
 30
0.0
 40
10.0
  1
STK60X50N-LP
  7
STANDARD1
  0
LINE
  5
F1A4
  8
0
 10
226.0000000000002
 20
51.07349999999996
 30
0.0
 11
226.0000000000002
 21
100.0
 31
0.0
  0
LINE
  5
F1A5
  8
0
 10
214.0000000000002
 20
100.0
 30
0.0
 11
214.0000000000002
 21
51.07349999999996
 31
0.0
  0
LINE
  5
F1A6
  8
0
 10
224.9265000000002
 20
50.0
 30
0.0
 11
226.0000000000002
 21
51.07349999999996
 31
0.0
  0
LINE
  5
F1A7
  8
0
 10
214.0000000000002
 20
51.07349999999996
 30
0.0
 11
215.07350000000011
 21
50.0
 31
0.0
  0
LINE
  5
F1A8
  8
0
 10
214.0000000000002
 20
51.07349999999996
 30
0.0
 11
226.0000000000002
 21
51.07349999999996
 31
0.0
  0
LINE
  5
F1A9
  8
0
 10
215.07350000000011
 20
50.0
 30
0.0
 11
224.9265000000002
 21
50.0
 31
0.0
  0
LINE
  5
F202
  8
3
 10
215.07350000000011
 20
50.0
 30
0.0
 11
215.07350000000011
 21
96.0
 31
0.0
  0
LINE
  5
F203
  8
3
 10
214.0000000000002
 20
100.0
 30
0.0
 11
215.07350000000011
 21
96.0
 31
0.0
  0
LINE
  5
F204
  8
0
 10
214.0000000000002
 20
96.0
 30
0.0
 11
226.0000000000002
 21
96.0
 31
0.0
  0
LINE
  5
F205
  8
3
 10
224.9265000000002
 20
50.0
 30
0.0
 11
224.9265000000002
 21
96.0
 31
0.0
  0
LINE
  5
F206
  8
3
 10
226.0000000000002
 20
100.0
 30
0.0
 11
224.9265000000002
 21
96.0
 31
0.0
  0
LINE
  5
F4BC
  8
0
 10
95.07349999999991
 20
50.0
 30
0.0
 11
104.9264999999999
 21
50.0
 31
0.0
  0
LINE
  5
F4BD
  8
0
 10
104.9264999999999
 20
50.0
 30
0.0
 11
105.9999999999999
 21
51.073500000000188
 31
0.0
  0
LINE
  5
F4BE
  8
0
 10
93.999999999999943
 20
51.073500000000188
 30
0.0
 11
95.07349999999991
 21
50.0
 31
0.0
  0
LINE
  5
F4BF
  8
0
 10
93.999999999999943
 20
51.073500000000188
 30
0.0
 11
105.9999999999999
 21
51.073500000000188
 31
0.0
  0
LINE
  5
F4C0
  8
0
 10
105.9999999999999
 20
51.073500000000188
 30
0.0
 11
105.9999999999999
 21
100.0
 31
0.0
  0
LINE
  5
F4C1
  8
0
 10
93.999999999999943
 20
100.0
 30
0.0
 11
93.999999999999943
 21
51.073500000000188
 31
0.0
  0
LINE
  5
F516
  8
3
 10
95.07349999999991
 20
50.0
 30
0.0
 11
95.07349999999991
 21
96.0
 31
0.0
  0
LINE
  5
F517
  8
3
 10
93.999999999999943
 20
100.0
 30
0.0
 11
95.07349999999991
 21
96.0
 31
0.0
  0
LINE
  5
F518
  8
0
 10
93.999999999999943
 20
96.0
 30
0.0
 11
105.9999999999999
 21
96.0
 31
0.0
  0
LINE
  5
F519
  8
3
 10
104.9264999999999
 20
50.0
 30
0.0
 11
104.9264999999999
 21
96.0
 31
0.0
  0
LINE
  5
F51A
  8
3
 10
105.9999999999999
 20
100.0
 30
0.0
 11
104.9264999999999
 21
96.0
 31
0.0
  0
LINE
  5
F7AF
  8
1
 10
112.4999999999999
 20
105.3333333333332
 30
0.0
 11
87.500000000000171
 21
105.3333333333332
 31
0.0
  0
LINE
  5
F7B0
  8
1
 10
99.999999999999943
 20
47.0
 30
0.0
 11
99.999999999999943
 21
140.0
 31
0.0
  0
POLYLINE
  5
F7B4
  8
0
 66
     1
 10
0.0
 20
0.0
 30
0.0
  0
VERTEX
  5
101E4
  8
0
 10
72.73122885247443
 20
116.2221585250968
 30
0.0
  0
VERTEX
  5
101E5
  8
0
 10
72.229338969065054
 20
116.3616410895108
 30
0.0
  0
VERTEX
  5
101E6
  8
0
 10
71.762841741543014
 20
116.49388413953579
 30
0.0
  0
VERTEX
  5
101E7
  8
0
 10
71.323707139429359
 20
116.6217524552323
 30
0.0
  0
VERTEX
  5
101E8
  8
0
 10
70.929230346763177
 20
116.7408161532401
 30
0.0
  0
VERTEX
  5
101E9
  8
0
 10
70.591695481385102
 20
116.8476372537254
 30
0.0
  0
VERTEX
  5
101EA
  8
0
 10
70.302195072553729
 20
116.9451936316138
 30
0.0
  0
VERTEX
  5
101EB
  8
0
 10
70.056922968513561
 20
117.0355358477875
 30
0.0
  0
VERTEX
  5
101EC
  8
0
 10
69.867351729475502
 20
117.1152181039872
 30
0.0
  0
VERTEX
  5
101ED
  8
0
 10
69.726024256075505
 20
117.1897392149092
 30
0.0
  0
VERTEX
  5
101EE
  8
0
 10
69.654990060625039
 20
117.2511645106965
 30
0.0
  0
SEQEND
  5
101EF
  8
0
  0
POLYLINE
  5
F7B5
  8
0
 66
     1
 10
0.0
 20
0.0
 30
0.0
  0
VERTEX
  5
101F0
  8
0
 10
69.857464564725831
 20
134.28767810332511
 30
0.0
  0
VERTEX
  5
101F1
  8
0
 10
69.761722633987972
 20
134.24461440497589
 30
0.0
  0
VERTEX
  5
101F2
  8
0
 10
69.694607092867443
 20
134.17386819662761
 30
0.0
  0
VERTEX
  5
101F3
  8
0
 10
69.656161858264511
 20
134.07983274479761
 30
0.0
  0
VERTEX
  5
101F4
  8
0
 10
69.646779244806964
 20
133.99175896242369
 30
0.0
  0
SEQEND
  5
101F5
  8
0
  0
LINE
  5
F7B6
  8
0
 10
69.646779237361613
 20
133.9917588925359
 30
0.0
 11
69.646779269838987
 21
117.2849942363232
 31
0.0
  0
LINE
  5
F7B7
  8
0
 10
69.646779269838987
 20
117.2849942363232
 30
0.0
 11
69.654990060625039
 21
117.2511645106965
 31
0.0
  0
POLYLINE
  5
F7B8
  8
0
 66
     1
 10
0.0
 20
0.0
 30
0.0
  0
VERTEX
  5
101F6
  8
0
 10
130.34500993937601
 20
117.25116451069761
 30
0.0
  0
VERTEX
  5
101F7
  8
0
 10
130.2660310210573
 20
117.1848072823454
 30
0.0
  0
VERTEX
  5
101F8
  8
0
 10
130.1048125497563
 20
117.1026043596803
 30
0.0
  0
VERTEX
  5
101F9
  8
0
 10
129.84230325327229
 20
116.9973260110696
 30
0.0
  0
VERTEX
  5
101FA
  8
0
 10
129.49085158072549
 20
116.87483561814901
 30
0.0
  0
VERTEX
  5
101FB
  8
0
 10
129.0575679050925
 20
116.73674578706481
 30
0.0
  0
VERTEX
  5
101FC
  8
0
 10
128.53708493627289
 20
116.5808148065307
 30
0.0
  0
VERTEX
  5
101FD
  8
0
 10
127.9424273463773
 20
116.41002130068701
 30
0.0
  0
VERTEX
  5
101FE
  8
0
 10
127.28502740158611
 20
116.2266410294269
 30
0.0
  0
VERTEX
  5
101FF
  8
0
 10
127.2687711475257
 20
116.2221585250968
 30
0.0
  0
SEQEND
  5
10200
  8
0
  0
LINE
  5
F7B9
  8
0
 10
130.34500993937601
 20
117.25116451069761
 30
0.0
 11
130.35322074864891
 21
117.2849661136201
 31
0.0
  0
LINE
  5
F7BA
  8
0
 10
130.35322074864891
 20
117.2849661136201
 30
0.0
 11
130.353220762636
 21
133.99175143772209
 31
0.0
  0
POLYLINE
  5
F7BB
  8
0
 66
     1
 10
0.0
 20
0.0
 30
0.0
  0
VERTEX
  5
10201
  8
0
 10
130.35322075379361
 20
133.99175149406909
 30
0.0
  0
VERTEX
  5
10202
  8
0
 10
130.3339731663645
 20
134.11440514971849
 30
0.0
  0
VERTEX
  5
10203
  8
0
 10
130.26493511345251
 20
134.22278842499031
 30
0.0
  0
VERTEX
  5
10204
  8
0
 10
130.1425354352742
 20
134.28767810332511
 30
0.0
  0
SEQEND
  5
10205
  8
0
  0
LINE
  5
F7BC
  8
0
 10
127.2687711475257
 20
116.2221585250968
 30
0.0
 11
126.45649369005
 21
116.0
 31
0.0
  0
LINE
  5
F7BD
  8
0
 10
127.2687711475257
 20
133.74793078274359
 30
0.0
 11
127.2687711475257
 21
117.26028357294371
 31
0.0
  0
LINE
  5
F7BE
  8
0
 10
126.45649369005
 20
116.0
 30
0.0
 11
73.543506309949805
 21
116.0
 31
0.0
  0
LINE
  5
F7BF
  8
0
 10
72.73122885247443
 20
133.74793519936719
 30
0.0
 11
72.73122885247443
 21
117.26005860083789
 31
0.0
  0
LINE
  5
F7C0
  8
0
 10
73.543506309949805
 20
116.0
 30
0.0
 11
72.73122885247443
 21
116.2221585250968
 31
0.0
  0
LINE
  5
F7C1
  8
0
 10
92.142857142857267
 20
100.0
 30
0.0
 11
107.857142857143
 21
100.0
 31
0.0
  0
LINE
  5
F7C2
  8
0
 10
107.857142857143
 20
100.0
 30
0.0
 11
107.857142857143
 21
100.2999999999999
 31
0.0
  0
LINE
  5
F7C3
  8
0
 10
92.142857142857267
 20
100.2999999999999
 30
0.0
 11
92.142857142857267
 21
100.0
 31
0.0
  0
ARC
  5
F7C4
  8
0
 10
109.9288355408388
 20
105.3333333333332
 30
0.0
 40
1.445502207505448
 50
247.2797217268014
 51
262.56024565535841
  0
ARC
  5
F7C5
  8
0
 10
109.9288355408388
 20
105.3333333333332
 30
0.0
 40
1.445502207505448
 50
97.439754344641614
 51
112.7202782731986
  0
ARC
  5
F7C6
  8
0
 10
90.071164459161025
 20
105.3333333333332
 30
0.0
 40
1.4455022075055799
 50
67.279721726801412
 51
82.560245655358401
  0
ARC
  5
F7C7
  8
0
 10
90.071164459161253
 20
105.3333333333332
 30
0.0
 40
1.4455022075054551
 50
277.43975434464159
 51
292.72027827319857
  0
LINE
  5
F7C8
  8
0
 10
88.999999999999943
 20
103.89999999999981
 30
0.0
 11
110.9999999999999
 21
103.89999999999981
 31
0.0
  0
LINE
  5
F7C9
  8
0
 10
110.9999999999999
 20
101.5
 30
0.0
 11
110.9999999999999
 21
103.89999999999981
 31
0.0
  0
LINE
  5
F7CA
  8
0
 10
88.999999999999943
 20
103.89999999999981
 30
0.0
 11
88.999999999999943
 21
101.5
 31
0.0
  0
LINE
  5
F7CB
  8
0
 10
88.999999999999943
 20
106.76666666666659
 30
0.0
 11
110.9999999999999
 21
106.76666666666659
 31
0.0
  0
LINE
  5
F7CC
  8
0
 10
110.9999999999999
 20
106.76666666666659
 30
0.0
 11
110.9999999999999
 21
116.0
 31
0.0
  0
LINE
  5
F7CD
  8
0
 10
88.999999999999943
 20
116.0
 30
0.0
 11
88.999999999999943
 21
106.76666666666659
 31
0.0
  0
LINE
  5
F7CE
  8
0
 10
109.6666666666667
 20
106.6666666666665
 30
0.0
 11
90.333333333333428
 21
106.6666666666665
 31
0.0
  0
LINE
  5
F7CF
  8
0
 10
90.333333333333428
 20
104.0
 30
0.0
 11
109.6666666666667
 21
104.0
 31
0.0
  0
ARC
  5
F7D0
  8
0
 10
109.6666666666667
 20
105.3333333333332
 30
0.0
 40
1.333333333333333
 50
270.0
 51
90.0
  0
ARC
  5
F7D1
  8
0
 10
90.333333333333428
 20
105.3333333333332
 30
0.0
 40
1.333333333333333
 50
90.0
 51
270.0
  0
LINE
  5
F7D2
  8
0
 10
88.999999999999943
 20
101.5
 30
0.0
 11
110.9999999999999
 21
101.5
 31
0.0
  0
LINE
  5
F7D3
  8
0
 10
90.200000000000216
 20
100.2999999999999
 30
0.0
 11
109.8000000000001
 21
100.2999999999999
 31
0.0
  0
LINE
  5
F7D4
  8
0
 10
109.8000000000001
 20
100.2999999999999
 30
0.0
 11
110.9999999999999
 21
101.5
 31
0.0
  0
LINE
  5
F7D5
  8
0
 10
88.999999999999943
 20
101.5
 30
0.0
 11
90.200000000000216
 21
100.2999999999999
 31
0.0
  0
POLYLINE
  5
F7D6
  8
0
 66
     1
 10
0.0
 20
0.0
 30
0.0
  0
VERTEX
  5
10206
  8
0
 10
120.09021712290399
 20
135.40558290280271
 30
0.0
  0
VERTEX
  5
10207
  8
0
 10
120.129529602083
 20
135.33425997773239
 30
0.0
  0
VERTEX
  5
10208
  8
0
 10
120.227847904131
 20
135.261346196592
 30
0.0
  0
VERTEX
  5
10209
  8
0
 10
120.3851182142845
 20
135.17943762132651
 30
0.0
  0
VERTEX
  5
1020A
  8
0
 10
120.6000404337687
 20
135.08976064332859
 30
0.0
  0
SEQEND
  5
1020B
  8
0
  0
POLYLINE
  5
F7D7
  8
0
 66
     1
 10
0.0
 20
0.0
 30
0.0
  0
VERTEX
  5
1020C
  8
0
 10
79.909782876215047
 20
135.40557006188601
 30
0.0
  0
VERTEX
  5
1020D
  8
0
 10
79.897717099724275
 20
135.43892908254131
 30
0.0
  0
VERTEX
  5
1020E
  8
0
 10
79.808867759802467
 20
135.48867630980089
 30
0.0
  0
VERTEX
  5
1020F
  8
0
 10
79.634385697192727
 20
135.5209075328132
 30
0.0
  0
VERTEX
  5
10210
  8
0
 10
79.376518558085706
 20
135.5349533320927
 30
0.0
  0
VERTEX
  5
10211
  8
0
 10
79.037513988671606
 20
135.5301442881543
 30
0.0
  0
VERTEX
  5
10212
  8
0
 10
78.623073686526538
 20
135.50652485457789
 30
0.0
  0
VERTEX
  5
10213
  8
0
 10
78.132257634676023
 20
135.46512458741449
 30
0.0
  0
VERTEX
  5
10214
  8
0
 10
77.570726668010536
 20
135.40726226980269
 30
0.0
  0
VERTEX
  5
10215
  8
0
 10
76.944141621422148
 20
135.33425668488209
 30
0.0
  0
VERTEX
  5
10216
  8
0
 10
76.363547804309235
 20
135.2613436974793
 30
0.0
  0
VERTEX
  5
10217
  8
0
 10
75.740328743103134
 20
135.1794362392622
 30
0.0
  0
VERTEX
  5
10218
  8
0
 10
75.079110464088842
 20
135.08976064332859
 30
0.0
  0
SEQEND
  5
10219
  8
0
  0
LINE
  5
F7D8
  8
0
 10
78.232695562067363
 20
134.5224480327131
 30
0.0
 11
78.232695562067363
 21
116.6725295934698
 31
0.0
  0
POLYLINE
  5
F7D9
  8
0
 66
     1
 10
0.0
 20
0.0
 30
0.0
  0
VERTEX
  5
1021A
  8
0
 10
78.232695562677165
 20
134.5218576052566
 30
0.0
  0
VERTEX
  5
1021B
  8
0
 10
78.242141335014082
 20
134.486870825008
 30
0.0
  0
VERTEX
  5
1021C
  8
0
 10
78.303825813653873
 20
134.42976900903321
 30
0.0
  0
VERTEX
  5
1021D
  8
0
 10
78.422474130056287
 20
134.3777978633243
 30
0.0
  0
VERTEX
  5
1021E
  8
0
 10
78.603835989239485
 20
134.3298133868029
 30
0.0
  0
VERTEX
  5
1021F
  8
0
 10
78.843599803175437
 20
134.28767810332511
 30
0.0
  0
SEQEND
  5
10220
  8
0
  0
POLYLINE
  5
F7DA
  8
0
 66
     1
 10
0.0
 20
0.0
 30
0.0
  0
VERTEX
  5
10221
  8
0
 10
78.232695565909523
 20
116.6733031826725
 30
0.0
  0
VERTEX
  5
10222
  8
0
 10
78.234283356080994
 20
116.6451281104512
 30
0.0
  0
VERTEX
  5
10223
  8
0
 10
78.262350992443032
 20
116.5478189970386
 30
0.0
  0
VERTEX
  5
10224
  8
0
 10
78.32512443147715
 20
116.44538974064611
 30
0.0
  0
VERTEX
  5
10225
  8
0
 10
78.424261035313691
 20
116.3361345953367
 30
0.0
  0
VERTEX
  5
10226
  8
0
 10
78.558224635607019
 20
116.2221585250968
 30
0.0
  0
SEQEND
  5
10227
  8
0
  0
LINE
  5
F7DB
  8
0
 10
121.76730443793249
 20
116.6721968755255
 30
0.0
 11
121.76730443793249
 21
134.52237454675421
 31
0.0
  0
POLYLINE
  5
F7DC
  8
0
 66
     1
 10
0.0
 20
0.0
 30
0.0
  0
VERTEX
  5
10228
  8
0
 10
121.7673044364996
 20
134.52186245143679
 30
0.0
  0
VERTEX
  5
10229
  8
0
 10
121.7645430914619
 20
134.5412352631817
 30
0.0
  0
VERTEX
  5
1022A
  8
0
 10
121.7180018308465
 20
134.60768066143319
 30
0.0
  0
VERTEX
  5
1022B
  8
0
 10
121.6098411834475
 20
134.68087388893721
 30
0.0
  0
VERTEX
  5
1022C
  8
0
 10
121.4417753643928
 20
134.7584992030952
 30
0.0
  0
SEQEND
  5
1022D
  8
0
  0
POLYLINE
  5
F7DD
  8
0
 66
     1
 10
0.0
 20
0.0
 30
0.0
  0
VERTEX
  5
1022E
  8
0
 10
121.7673044342022
 20
116.6733038197503
 30
0.0
  0
VERTEX
  5
1022F
  8
0
 10
121.7576245006575
 20
116.74083614884459
 30
0.0
  0
VERTEX
  5
10230
  8
0
 10
121.69725373880409
 20
116.8476555136296
 30
0.0
  0
VERTEX
  5
10231
  8
0
 10
121.5818359621329
 20
116.9452100994697
 30
0.0
  0
VERTEX
  5
10232
  8
0
 10
121.40569655232041
 20
117.03555041847039
 30
0.0
  0
VERTEX
  5
10233
  8
0
 10
121.1726796143154
 20
117.1152307353441
 30
0.0
  0
VERTEX
  5
10234
  8
0
 10
120.8541875871496
 20
117.1897445614229
 30
0.0
  0
VERTEX
  5
10235
  8
0
 10
120.4679898340377
 20
117.2511645106965
 30
0.0
  0
SEQEND
  5
10236
  8
0
  0
LINE
  5
F7DE
  8
0
 10
81.116189522098864
 20
133.29741003458341
 30
0.0
 11
81.116189522098864
 21
117.7341274238422
 31
0.0
  0
LINE
  5
F7DF
  8
0
 10
118.88381047790151
 20
117.7341274238422
 30
0.0
 11
118.88381047790099
 21
133.29741003458341
 31
0.0
  0
POLYLINE
  5
F7E0
  8
0
 66
     1
 10
0.0
 20
0.0
 30
0.0
  0
VERTEX
  5
10237
  8
0
 10
118.88381047790151
 20
117.7341274238422
 30
0.0
  0
VERTEX
  5
10238
  8
0
 10
118.8849654593309
 20
117.7260484659807
 30
0.0
  0
VERTEX
  5
10239
  8
0
 10
118.8892163844224
 20
117.7165963815189
 30
0.0
  0
VERTEX
  5
1023A
  8
0
 10
118.9012150225025
 20
117.7024062244261
 30
0.0
  0
VERTEX
  5
1023B
  8
0
 10
118.9581159043738
 20
117.6660434302662
 30
0.0
  0
VERTEX
  5
1023C
  8
0
 10
119.194194220344
 20
117.5752727182937
 30
0.0
  0
VERTEX
  5
1023D
  8
0
 10
119.64878964753819
 20
117.43532575155081
 30
0.0
  0
VERTEX
  5
1023E
  8
0
 10
120.0693870317065
 20
117.3267102828417
 30
0.0
  0
VERTEX
  5
1023F
  8
0
 10
120.4679898340377
 20
117.2511645106965
 30
0.0
  0
SEQEND
  5
10240
  8
0
  0
LINE
  5
F7E1
  8
0
 10
118.1427459930546
 20
117.7341274238422
 30
0.0
 11
118.88381047790151
 21
117.7341274238422
 31
0.0
  0
LINE
  5
F7E2
  8
0
 10
81.116189522098864
 20
117.7341274238422
 30
0.0
 11
81.857254006945311
 21
117.7341274238422
 31
0.0
  0
POLYLINE
  5
F7E3
  8
0
 66
     1
 10
0.0
 20
0.0
 30
0.0
  0
VERTEX
  5
10241
  8
0
 10
79.532010165971258
 20
117.25116451069761
 30
0.0
  0
VERTEX
  5
10242
  8
0
 10
79.81894704799646
 20
117.3017039218814
 30
0.0
  0
VERTEX
  5
10243
  8
0
 10
80.340138152905126
 20
117.4289174075238
 30
0.0
  0
VERTEX
  5
10244
  8
0
 10
80.913630675524871
 20
117.6127881805844
 30
0.0
  0
VERTEX
  5
10245
  8
0
 10
80.987802906509344
 20
117.6415680771688
 30
0.0
  0
VERTEX
  5
10246
  8
0
 10
81.035328502187156
 20
117.6628043028831
 30
0.0
  0
VERTEX
  5
10247
  8
0
 10
81.06641518484588
 20
117.6792912462319
 30
0.0
  0
VERTEX
  5
10248
  8
0
 10
81.086796348354653
 20
117.6925626974314
 30
0.0
  0
VERTEX
  5
10249
  8
0
 10
81.105223949257777
 20
117.7090614056462
 30
0.0
  0
VERTEX
  5
1024A
  8
0
 10
81.111409614760703
 20
117.7176499201489
 30
0.0
  0
VERTEX
  5
1024B
  8
0
 10
81.115572049563923
 20
117.72822254441959
 30
0.0
  0
VERTEX
  5
1024C
  8
0
 10
81.116189522098864
 20
117.7341274238422
 30
0.0
  0
SEQEND
  5
1024D
  8
0
  0
POLYLINE
  5
F7E4
  8
0
 66
     1
 10
0.0
 20
0.0
 30
0.0
  0
VERTEX
  5
1024E
  8
0
 10
81.116189522098864
 20
133.29741003458341
 30
0.0
  0
VERTEX
  5
1024F
  8
0
 10
81.113737174793812
 20
133.31407437716121
 30
0.0
  0
VERTEX
  5
10250
  8
0
 10
81.10481336401557
 20
133.3335325635835
 30
0.0
  0
VERTEX
  5
10251
  8
0
 10
81.071527712710974
 20
133.37066872512219
 30
0.0
  0
VERTEX
  5
10252
  8
0
 10
80.900855833193361
 20
133.47630910368019
 30
0.0
  0
VERTEX
  5
10253
  8
0
 10
80.561421343409108
 20
133.6362897378219
 30
0.0
  0
VERTEX
  5
10254
  8
0
 10
80.235890940251863
 20
133.7796618143586
 30
0.0
  0
VERTEX
  5
10255
  8
0
 10
79.931156961373688
 20
133.91048362767901
 30
0.0
  0
VERTEX
  5
10256
  8
0
 10
79.645717700159764
 20
134.0290420466433
 30
0.0
  0
VERTEX
  5
10257
  8
0
 10
79.378790248295374
 20
134.13320138743319
 30
0.0
  0
VERTEX
  5
10258
  8
0
 10
79.134754120813966
 20
134.2173038521241
 30
0.0
  0
VERTEX
  5
10259
  8
0
 10
78.843599803175437
 20
134.28767810332511
 30
0.0
  0
SEQEND
  5
1025A
  8
0
  0
LINE
  5
F7E5
  8
0
 10
81.116189522098864
 20
133.29741003458341
 30
0.0
 11
81.857254006945311
 21
133.29741003458361
 31
0.0
  0
POLYLINE
  5
F7E6
  8
0
 66
     1
 10
0.0
 20
0.0
 30
0.0
  0
VERTEX
  5
1025B
  8
0
 10
121.15640019682441
 20
134.28767810332511
 30
0.0
  0
VERTEX
  5
1025C
  8
0
 10
120.95829345796059
 20
134.24461440497609
 30
0.0
  0
VERTEX
  5
1025D
  8
0
 10
120.7339963399953
 20
134.17386819662781
 30
0.0
  0
VERTEX
  5
1025E
  8
0
 10
120.4816097839245
 20
134.0798327447983
 30
0.0
  0
VERTEX
  5
1025F
  8
0
 10
120.2051288808629
 20
133.96773148615989
 30
0.0
  0
VERTEX
  5
10260
  8
0
 10
119.79382852426571
 20
133.7925582009718
 30
0.0
  0
VERTEX
  5
10261
  8
0
 10
119.49274979036809
 20
133.6604832113666
 30
0.0
  0
VERTEX
  5
10262
  8
0
 10
119.2825492379062
 20
133.56525933968939
 30
0.0
  0
VERTEX
  5
10263
  8
0
 10
119.1400043825564
 20
133.49703264025311
 30
0.0
  0
VERTEX
  5
10264
  8
0
 10
119.0449894224998
 20
133.44737049220129
 30
0.0
  0
VERTEX
  5
10265
  8
0
 10
118.9823470716798
 20
133.41018670597259
 30
0.0
  0
VERTEX
  5
10266
  8
0
 10
118.94142541310011
 20
133.38135275536951
 30
0.0
  0
VERTEX
  5
10267
  8
0
 10
118.9058457726734
 20
133.34806513446529
 30
0.0
  0
VERTEX
  5
10268
  8
0
 10
118.8929379891305
 20
133.32971417583479
 30
0.0
  0
VERTEX
  5
10269
  8
0
 10
118.8855188510433
 20
133.31131132446171
 30
0.0
  0
VERTEX
  5
1026A
  8
0
 10
118.88381047790099
 20
133.29741003458341
 30
0.0
  0
SEQEND
  5
1026B
  8
0
  0
LINE
  5
F7E7
  8
0
 10
118.142745993055
 20
133.29741003458341
 30
0.0
 11
118.88381047790099
 21
133.29741003458341
 31
0.0
  0
POLYLINE
  5
F7E8
  8
0
 66
     1
 10
0.0
 20
0.0
 30
0.0
  0
VERTEX
  5
1026C
  8
0
 10
115.9813542380174
 20
117.25116451069761
 30
0.0
  0
VERTEX
  5
1026D
  8
0
 10
116.4571856562915
 20
117.30159668506251
 30
0.0
  0
VERTEX
  5
1026E
  8
0
 10
116.920092596164
 20
117.3761319206364
 30
0.0
  0
VERTEX
  5
1026F
  8
0
 10
117.34332423900671
 20
117.4627808425052
 30
0.0
  0
VERTEX
  5
10270
  8
0
 10
117.6215952079687
 20
117.52951744319491
 30
0.0
  0
VERTEX
  5
10271
  8
0
 10
117.8042054685892
 20
117.578814145706
 30
0.0
  0
VERTEX
  5
10272
  8
0
 10
117.9240180143096
 20
117.6151202785508
 30
0.0
  0
VERTEX
  5
10273
  8
0
 10
118.00269227691879
 20
117.6422631354023
 30
0.0
  0
VERTEX
  5
10274
  8
0
 10
118.0543913695896
 20
117.6630311351805
 30
0.0
  0
VERTEX
  5
10275
  8
0
 10
118.0883560099586
 20
117.67934973319051
 30
0.0
  0
VERTEX
  5
10276
  8
0
 10
118.1106131107107
 20
117.6925437086859
 30
0.0
  0
VERTEX
  5
10277
  8
0
 10
118.13063932997321
 20
117.7088959471418
 30
0.0
  0
VERTEX
  5
10278
  8
0
 10
118.13765204719211
 20
117.71782836955001
 30
0.0
  0
VERTEX
  5
10279
  8
0
 10
118.14176819871309
 20
117.7270038836354
 30
0.0
  0
VERTEX
  5
1027A
  8
0
 10
118.1427459930546
 20
117.7341274238422
 30
0.0
  0
SEQEND
  5
1027B
  8
0
  0
LINE
  5
F7E9
  8
0
 10
118.142745993055
 20
133.29741003458341
 30
0.0
 11
118.1427459930546
 21
117.7341274238422
 31
0.0
  0
POLYLINE
  5
F7EA
  8
0
 66
     1
 10
0.0
 20
0.0
 30
0.0
  0
VERTEX
  5
1027C
  8
0
 10
118.142745993055
 20
133.29741003458341
 30
0.0
  0
VERTEX
  5
1027D
  8
0
 10
118.1400760856751
 20
133.31407437716121
 30
0.0
  0
VERTEX
  5
1027E
  8
0
 10
118.130347325898
 20
133.33353256358319
 30
0.0
  0
VERTEX
  5
1027F
  8
0
 10
118.0938744241729
 20
133.37066872512219
 30
0.0
  0
VERTEX
  5
10280
  8
0
 10
117.90214284675081
 20
133.47630910368051
 30
0.0
  0
VERTEX
  5
10281
  8
0
 10
117.49535899803089
 20
133.63628973782241
 30
0.0
  0
VERTEX
  5
10282
  8
0
 10
117.0686020141213
 20
133.77966181435909
 30
0.0
  0
VERTEX
  5
10283
  8
0
 10
116.6289128349655
 20
133.91080184374769
 30
0.0
  0
VERTEX
  5
10284
  8
0
 10
116.1760924358377
 20
134.02904204664401
 30
0.0
  0
VERTEX
  5
10285
  8
0
 10
115.70254603981211
 20
134.1335125511209
 30
0.0
  0
VERTEX
  5
10286
  8
0
 10
115.2181686583212
 20
134.21730385212479
 30
0.0
  0
VERTEX
  5
10287
  8
0
 10
114.5398722433146
 20
134.28767810332511
 30
0.0
  0
SEQEND
  5
10288
  8
0
  0
LINE
  5
F7EB
  8
0
 10
109.4282772294108
 20
133.74980267212209
 30
0.0
 11
109.4282772294108
 21
117.2549157133148
 31
0.0
  0
LINE
  5
F7EC
  8
0
 10
91.414830586963419
 20
116.0
 30
0.0
 11
90.571722770589247
 21
116.2221585250968
 31
0.0
  0
POLYLINE
  5
F7ED
  8
0
 66
     1
 10
0.0
 20
0.0
 30
0.0
  0
VERTEX
  5
10289
  8
0
 10
79.532010165971258
 20
117.25116451069761
 30
0.0
  0
VERTEX
  5
1028A
  8
0
 10
79.254427383239474
 20
117.20953985462531
 30
0.0
  0
VERTEX
  5
1028B
  8
0
 10
79.008345766027034
 20
117.1610429819613
 30
0.0
  0
VERTEX
  5
1028C
  8
0
 10
78.791089144769046
 20
117.10465719920759
 30
0.0
  0
VERTEX
  5
1028D
  8
0
 10
78.608564763366701
 20
117.0414248364245
 30
0.0
  0
VERTEX
  5
1028E
  8
0
 10
78.43747372747697
 20
116.9573181102398
 30
0.0
  0
VERTEX
  5
1028F
  8
0
 10
78.317627442893297
 20
116.8640657539799
 30
0.0
  0
VERTEX
  5
10290
  8
0
 10
78.248548752035674
 20
116.7590198691389
 30
0.0
  0
VERTEX
  5
10291
  8
0
 10
78.232695565909523
 20
116.6733031826725
 30
0.0
  0
SEQEND
  5
10292
  8
0
  0
LINE
  5
F7EE
  8
0
 10
78.558224635607019
 20
116.2221585250968
 30
0.0
 11
78.849432806382481
 21
116.0
 31
0.0
  0
LINE
  5
F7EF
  8
0
 10
90.571722770589247
 20
133.7498587078185
 30
0.0
 11
90.571722770589247
 21
117.2534208435879
 31
0.0
  0
POLYLINE
  5
F7F0
  8
0
 66
     1
 10
0.0
 20
0.0
 30
0.0
  0
VERTEX
  5
10293
  8
0
 10
85.460127756685267
 20
134.28767810332511
 30
0.0
  0
VERTEX
  5
10294
  8
0
 10
84.983026243730762
 20
134.24448579645619
 30
0.0
  0
VERTEX
  5
10295
  8
0
 10
84.513155034568115
 20
134.17386819662781
 30
0.0
  0
VERTEX
  5
10296
  8
0
 10
84.041424326017435
 20
134.0796174242698
 30
0.0
  0
VERTEX
  5
10297
  8
0
 10
83.581032063087534
 20
133.96773148616009
 30
0.0
  0
VERTEX
  5
10298
  8
0
 10
82.972390088080999
 20
133.79255820097089
 30
0.0
  0
VERTEX
  5
10299
  8
0
 10
82.572992514787458
 20
133.66048321136529
 30
0.0
  0
VERTEX
  5
1029A
  8
0
 10
82.313207842859299
 20
133.56525933968831
 30
0.0
  0
VERTEX
  5
1029B
  8
0
 10
82.14497232374373
 20
133.49703264025169
 30
0.0
  0
VERTEX
  5
1029C
  8
0
 10
82.036146748287308
 20
133.44737049220001
 30
0.0
  0
VERTEX
  5
1029D
  8
0
 10
81.965784977809051
 20
133.4101867059714
 30
0.0
  0
VERTEX
  5
1029E
  8
0
 10
81.920398398890896
 20
133.3813527553684
 30
0.0
  0
VERTEX
  5
1029F
  8
0
 10
81.881300662583214
 20
133.34806513446341
 30
0.0
  0
VERTEX
  5
102A0
  8
0
 10
81.867199229066216
 20
133.3297141758332
 30
0.0
  0
VERTEX
  5
102A1
  8
0
 10
81.859113772513339
 20
133.31131132446049
 30
0.0
  0
VERTEX
  5
102A2
  8
0
 10
81.857254006945311
 20
133.29741003458361
 30
0.0
  0
SEQEND
  5
102A3
  8
0
  0
LINE
  5
F7F1
  8
0
 10
81.857254006945311
 20
117.7341274238422
 30
0.0
 11
81.857254006945311
 21
133.29741003458361
 31
0.0
  0
POLYLINE
  5
F7F2
  8
0
 66
     1
 10
0.0
 20
0.0
 30
0.0
  0
VERTEX
  5
102A4
  8
0
 10
81.857254006945311
 20
117.7341274238422
 30
0.0
  0
VERTEX
  5
102A5
  8
0
 10
81.858511256952113
 20
117.7260484659807
 30
0.0
  0
VERTEX
  5
102A6
  8
0
 10
81.863141584491302
 20
117.7165963815189
 30
0.0
  0
VERTEX
  5
102A7
  8
0
 10
81.876236648015436
 20
117.7024062244261
 30
0.0
  0
VERTEX
  5
102A8
  8
0
 10
81.938855501064765
 20
117.6660434302662
 30
0.0
  0
VERTEX
  5
102A9
  8
0
 10
82.208209549532683
 20
117.57527271829321
 30
0.0
  0
VERTEX
  5
102AA
  8
0
 10
82.775805759611515
 20
117.4353257515499
 30
0.0
  0
VERTEX
  5
102AB
  8
0
 10
83.370992442794844
 20
117.32671028284081
 30
0.0
  0
VERTEX
  5
102AC
  8
0
 10
84.018645761997888
 20
117.2511645106965
 30
0.0
  0
SEQEND
  5
102AD
  8
0
  0
POLYLINE
  5
F7F3
  8
0
 66
     1
 10
0.0
 20
0.0
 30
0.0
  0
VERTEX
  5
102AE
  8
0
 10
90.571722770589247
 20
116.2221585250968
 30
0.0
  0
VERTEX
  5
102AF
  8
0
 10
90.018195079983045
 20
116.36164527311981
 30
0.0
  0
VERTEX
  5
102B0
  8
0
 10
89.436406168207156
 20
116.4938920444624
 30
0.0
  0
VERTEX
  5
102B1
  8
0
 10
88.812414985170975
 20
116.62176387538869
 30
0.0
  0
VERTEX
  5
102B2
  8
0
 10
88.167010232419159
 20
116.74083046567139
 30
0.0
  0
VERTEX
  5
102B3
  8
0
 10
87.523200046027512
 20
116.8476503237825
 30
0.0
  0
VERTEX
  5
102B4
  8
0
 10
86.868043637326934
 20
116.94520541896421
 30
0.0
  0
VERTEX
  5
102B5
  8
0
 10
86.186201146995415
 20
117.03554627718511
 30
0.0
  0
VERTEX
  5
102B6
  8
0
 10
85.502454881707251
 20
117.11522714525969
 30
0.0
  0
VERTEX
  5
102B7
  8
0
 10
84.758465619525339
 20
117.1897430418328
 30
0.0
  0
VERTEX
  5
102B8
  8
0
 10
84.018645761997888
 20
117.2511645106965
 30
0.0
  0
SEQEND
  5
102B9
  8
0
  0
LINE
  5
F7F4
  8
0
 10
121.15056719361741
 20
116.0
 30
0.0
 11
121.4417753643931
 21
116.2221585250968
 31
0.0
  0
POLYLINE
  5
F7F5
  8
0
 66
     1
 10
0.0
 20
0.0
 30
0.0
  0
VERTEX
  5
102BA
  8
0
 10
121.4417753643931
 20
116.2221585250968
 30
0.0
  0
VERTEX
  5
102BB
  8
0
 10
121.6015828682625
 20
116.3616469343519
 30
0.0
  0
VERTEX
  5
102BC
  8
0
 10
121.708527732165
 20
116.4938951833546
 30
0.0
  0
VERTEX
  5
102BD
  8
0
 10
121.7620245463972
 20
116.62176841010751
 30
0.0
  0
VERTEX
  5
102BE
  8
0
 10
121.7673044342022
 20
116.6733038197503
 30
0.0
  0
SEQEND
  5
102BF
  8
0
  0
POLYLINE
  5
F7F6
  8
0
 66
     1
 10
0.0
 20
0.0
 30
0.0
  0
VERTEX
  5
102C0
  8
0
 10
115.9813542380174
 20
117.25116451069761
 30
0.0
  0
VERTEX
  5
102C1
  8
0
 10
115.35222997683189
 20
117.19973813850081
 30
0.0
  0
VERTEX
  5
102C2
  8
0
 10
114.7141795561278
 20
117.13823092033719
 30
0.0
  0
VERTEX
  5
102C3
  8
0
 10
113.84867538021891
 20
117.0397844984634
 30
0.0
  0
VERTEX
  5
102C4
  8
0
 10
112.9831352779546
 20
116.92389302991469
 30
0.0
  0
VERTEX
  5
102C5
  8
0
 10
112.1333615178586
 20
116.7920830948478
 30
0.0
  0
VERTEX
  5
102C6
  8
0
 10
111.29493094179669
 20
116.64233678121261
 30
0.0
  0
VERTEX
  5
102C7
  8
0
 10
110.4882029620839
 20
116.47736887329501
 30
0.0
  0
VERTEX
  5
102C8
  8
0
 10
109.727492473238
 20
116.29936963156609
 30
0.0
  0
VERTEX
  5
102C9
  8
0
 10
109.4282772294108
 20
116.2221585250968
 30
0.0
  0
SEQEND
  5
102CA
  8
0
  0
LINE
  5
F7F7
  8
0
 10
109.4282772294108
 20
116.2221585250968
 30
0.0
 11
108.5851694130367
 21
116.0
 31
0.0
  0
LINE
  5
F7F8
  8
0
 10
88.660000000000025
 20
137.0
 30
0.0
 11
111.3400000000001
 21
137.0
 31
0.0
  0
LINE
  5
F7F9
  8
0
 10
106.9912807075263
 20
135.08976064332859
 30
0.0
 11
109.4282772294108
 21
134.7584992030952
 31
0.0
  0
POLYLINE
  5
F7FA
  8
0
 66
     1
 10
0.0
 20
0.0
 30
0.0
  0
VERTEX
  5
102CB
  8
0
 10
109.4282772294108
 20
134.7584992030952
 30
0.0
  0
VERTEX
  5
102CC
  8
0
 10
109.98213978326829
 20
134.6852956446603
 30
0.0
  0
VERTEX
  5
102CD
  8
0
 10
110.5633212198003
 20
134.61600434656251
 30
0.0
  0
VERTEX
  5
102CE
  8
0
 10
111.1857520629204
 20
134.54909078766809
 30
0.0
  0
VERTEX
  5
102CF
  8
0
 10
111.8284020956452
 20
134.48687383844481
 30
0.0
  0
VERTEX
  5
102D0
  8
0
 10
112.4847386416933
 20
134.42977111006749
 30
0.0
  0
VERTEX
  5
102D1
  8
0
 10
113.1517453087876
 20
134.37779916750381
 30
0.0
  0
VERTEX
  5
102D2
  8
0
 10
113.84543884107001
 20
134.32981396517701
 30
0.0
  0
VERTEX
  5
102D3
  8
0
 10
114.5398722433146
 20
134.28767810332511
 30
0.0
  0
SEQEND
  5
102D4
  8
0
  0
POLYLINE
  5
F7FB
  8
0
 66
     1
 10
0.0
 20
0.0
 30
0.0
  0
VERTEX
  5
102D5
  8
0
 10
121.15640019682441
 20
134.28767810332511
 30
0.0
  0
VERTEX
  5
102D6
  8
0
 10
121.3836931821221
 20
134.3271741977519
 30
0.0
  0
VERTEX
  5
102D7
  8
0
 10
121.5593090171609
 20
134.37186290742119
 30
0.0
  0
VERTEX
  5
102D8
  8
0
 10
121.68469471539581
 20
134.42312560989649
 30
0.0
  0
VERTEX
  5
102D9
  8
0
 10
121.75334009575489
 20
134.47953032878101
 30
0.0
  0
VERTEX
  5
102DA
  8
0
 10
121.7673044364996
 20
134.52186245143679
 30
0.0
  0
SEQEND
  5
102DB
  8
0
  0
LINE
  5
F7FC
  8
0
 10
121.4417753643931
 20
134.7584992030952
 30
0.0
 11
120.6000404337687
 21
135.08976064332859
 31
0.0
  0
POLYLINE
  5
F7FD
  8
0
 66
     1
 10
0.0
 20
0.0
 30
0.0
  0
VERTEX
  5
102DC
  8
0
 10
124.9208895359115
 20
135.08976064332859
 30
0.0
  0
VERTEX
  5
102DD
  8
0
 10
124.13645549200839
 20
135.19583725370711
 30
0.0
  0
VERTEX
  5
102DE
  8
0
 10
123.4056597749681
 20
135.29072300219869
 30
0.0
  0
VERTEX
  5
102DF
  8
0
 10
122.73597470950151
 20
135.37241907254929
 30
0.0
  0
VERTEX
  5
102E0
  8
0
 10
122.13487262032039
 20
135.43892664850409
 30
0.0
  0
VERTEX
  5
102E1
  8
0
 10
121.60523385309889
 20
135.4886745966605
 30
0.0
  0
VERTEX
  5
102E2
  8
0
 10
121.1487246427033
 20
135.52090657889971
 30
0.0
  0
VERTEX
  5
102E3
  8
0
 10
120.7699577262696
 20
135.53495315399871
 30
0.0
  0
VERTEX
  5
102E4
  8
0
 10
120.47354584093399
 20
135.5301448807345
 30
0.0
  0
VERTEX
  5
102E5
  8
0
 10
120.2636540655316
 20
135.50652618840439
 30
0.0
  0
VERTEX
  5
102E6
  8
0
 10
120.1358772897151
 20
135.46512662833379
 30
0.0
  0
VERTEX
  5
102E7
  8
0
 10
120.0909307297951
 20
135.40726496871301
 30
0.0
  0
VERTEX
  5
102E8
  8
0
 10
120.09021712290399
 20
135.40558290280271
 30
0.0
  0
SEQEND
  5
102E9
  8
0
  0
LINE
  5
F7FE
  8
0
 10
124.9208895359115
 20
135.08976064332859
 30
0.0
 11
127.2687711475257
 21
134.7584992030952
 31
0.0
  0
POLYLINE
  5
F7FF
  8
0
 66
     1
 10
0.0
 20
0.0
 30
0.0
  0
VERTEX
  5
102EA
  8
0
 10
127.2687711475257
 20
134.7584992030952
 30
0.0
  0
VERTEX
  5
102EB
  8
0
 10
127.7709454778314
 20
134.6852978722504
 30
0.0
  0
VERTEX
  5
102EC
  8
0
 10
128.23695271147579
 20
134.61600854893589
 30
0.0
  0
VERTEX
  5
102ED
  8
0
 10
128.67508880353779
 20
134.54909685053869
 30
0.0
  0
VERTEX
  5
102EE
  8
0
 10
129.0681679544513
 20
134.4868814274468
 30
0.0
  0
VERTEX
  5
102EF
  8
0
 10
129.4121395301828
 20
134.4297764012845
 30
0.0
  0
VERTEX
  5
102F0
  8
0
 10
129.70573755715711
 20
134.3778024519315
 30
0.0
  0
VERTEX
  5
102F1
  8
0
 10
129.95311143504111
 20
134.32981542174409
 30
0.0
  0
VERTEX
  5
102F2
  8
0
 10
130.1425354352742
 20
134.28767810332511
 30
0.0
  0
SEQEND
  5
102F3
  8
0
  0
POLYLINE
  5
F800
  8
0
 66
     1
 10
0.0
 20
0.0
 30
0.0
  0
VERTEX
  5
102F4
  8
0
 10
69.857464564725831
 20
134.28767810332511
 30
0.0
  0
VERTEX
  5
102F5
  8
0
 10
69.913360926440134
 20
134.30090757893731
 30
0.0
  0
VERTEX
  5
102F6
  8
0
 10
70.107229891013446
 20
134.34204150434539
 30
0.0
  0
VERTEX
  5
102F7
  8
0
 10
70.351550452089157
 20
134.38826987873171
 30
0.0
  0
VERTEX
  5
102F8
  8
0
 10
70.653883618889893
 20
134.44099285353761
 30
0.0
  0
VERTEX
  5
102F9
  8
0
 10
71.005470763079003
 20
134.498741344677
 30
0.0
  0
VERTEX
  5
102FA
  8
0
 10
71.375783122045902
 20
134.55697868090141
 30
0.0
  0
VERTEX
  5
102FB
  8
0
 10
71.784305079931926
 20
134.61920584409489
 30
0.0
  0
VERTEX
  5
102FC
  8
0
 10
72.240568686800941
 20
134.6869913028747
 30
0.0
  0
VERTEX
  5
102FD
  8
0
 10
72.73122885247443
 20
134.7584992030952
 30
0.0
  0
SEQEND
  5
102FE
  8
0
  0
LINE
  5
F801
  8
0
 10
72.73122885247443
 20
134.7584992030952
 30
0.0
 11
88.660000000000025
 21
137.0
 31
0.0
  0
POLYLINE
  5
F802
  8
0
 66
     1
 10
0.0
 20
0.0
 30
0.0
  0
VERTEX
  5
102FF
  8
0
 10
79.399959566231189
 20
135.08976064332859
 30
0.0
  0
VERTEX
  5
10300
  8
0
 10
79.649317203424687
 20
135.1958382926727
 30
0.0
  0
VERTEX
  5
10301
  8
0
 10
79.816442068295544
 20
135.2907248323213
 30
0.0
  0
VERTEX
  5
10302
  8
0
 10
79.899765065507779
 20
135.37242138727649
 30
0.0
  0
VERTEX
  5
10303
  8
0
 10
79.909782876215047
 20
135.40557006188601
 30
0.0
  0
SEQEND
  5
10304
  8
0
  0
LINE
  5
F803
  8
0
 10
79.399959566231189
 20
135.08976064332859
 30
0.0
 11
78.558224635607019
 21
134.7584992030952
 31
0.0
  0
POLYLINE
  5
F804
  8
0
 66
     1
 10
0.0
 20
0.0
 30
0.0
  0
VERTEX
  5
10305
  8
0
 10
78.558224635607019
 20
134.7584992030952
 30
0.0
  0
VERTEX
  5
10306
  8
0
 10
78.398339391519528
 20
134.6852947601264
 30
0.0
  0
VERTEX
  5
10307
  8
0
 10
78.291508930543316
 20
134.61600267788199
 30
0.0
  0
VERTEX
  5
10308
  8
0
 10
78.238046193297293
 20
134.5490883802222
 30
0.0
  0
VERTEX
  5
10309
  8
0
 10
78.232695562677165
 20
134.5218576052566
 30
0.0
  0
SEQEND
  5
1030A
  8
0
  0
POLYLINE
  5
F805
  8
0
 66
     1
 10
0.0
 20
0.0
 30
0.0
  0
VERTEX
  5
1030B
  8
0
 10
85.460127756685267
 20
134.28767810332511
 30
0.0
  0
VERTEX
  5
1030C
  8
0
 10
86.113733990406161
 20
134.3271741977519
 30
0.0
  0
VERTEX
  5
1030D
  8
0
 10
86.766967212443149
 20
134.37186290742119
 30
0.0
  0
VERTEX
  5
1030E
  8
0
 10
87.434040822644363
 20
134.42312560989649
 30
0.0
  0
VERTEX
  5
1030F
  8
0
 10
88.091064364810052
 20
134.47953032878101
 30
0.0
  0
VERTEX
  5
10310
  8
0
 10
88.736750931684057
 20
134.5412352631817
 30
0.0
  0
VERTEX
  5
10311
  8
0
 10
89.362728718842334
 20
134.60768066143319
 30
0.0
  0
VERTEX
  5
10312
  8
0
 10
89.982495355377466
 20
134.68087388893721
 30
0.0
  0
VERTEX
  5
10313
  8
0
 10
90.571722770589247
 20
134.7584992030952
 30
0.0
  0
SEQEND
  5
10314
  8
0
  0
LINE
  5
F806
  8
0
 10
90.571722770589247
 20
134.7584992030952
 30
0.0
 11
93.008719292473813
 21
135.08976064332859
 31
0.0
  0
POLYLINE
  5
F807
  8
0
 66
     1
 10
0.0
 20
0.0
 30
0.0
  0
VERTEX
  5
10315
  8
0
 10
106.9912807075263
 20
135.08976064332859
 30
0.0
  0
VERTEX
  5
10316
  8
0
 10
106.1398267461886
 20
135.19433934060149
 30
0.0
  0
VERTEX
  5
10317
  8
0
 10
105.2403216261972
 20
135.28839549047029
 30
0.0
  0
VERTEX
  5
10318
  8
0
 10
104.28390691251739
 20
135.37107229077259
 30
0.0
  0
VERTEX
  5
10319
  8
0
 10
103.2887935568268
 20
135.43892716555041
 30
0.0
  0
VERTEX
  5
1031A
  8
0
 10
102.3047024785466
 20
135.4882617839946
 30
0.0
  0
VERTEX
  5
1031B
  8
0
 10
101.2973411883189
 20
135.52070238991561
 30
0.0
  0
VERTEX
  5
1031C
  8
0
 10
100.2580195160316
 20
135.5351381061798
 30
0.0
  0
VERTEX
  5
1031D
  8
0
 10
99.208894396482904
 20
135.53014475486
 30
0.0
  0
VERTEX
  5
1031E
  8
0
 10
98.214526375600997
 20
135.50725542664139
 30
0.0
  0
VERTEX
  5
1031F
  8
0
 10
97.215079779788482
 20
135.46635197199791
 30
0.0
  0
VERTEX
  5
10320
  8
0
 10
96.235300505031717
 20
135.408752018071
 30
0.0
  0
VERTEX
  5
10321
  8
0
 10
95.265136129545866
 20
135.3342592782594
 30
0.0
  0
VERTEX
  5
10322
  8
0
 10
94.681157744379036
 20
135.28082703159001
 30
0.0
  0
VERTEX
  5
10323
  8
0
 10
94.107992851173037
 20
135.22188086430651
 30
0.0
  0
VERTEX
  5
10324
  8
0
 10
93.551240577914939
 20
135.15820946983351
 30
0.0
  0
VERTEX
  5
10325
  8
0
 10
93.008719292473813
 20
135.08976064332859
 30
0.0
  0
SEQEND
  5
10326
  8
0
  0
LINE
  5
F808
  8
0
 10
124.9208895359115
 20
135.08976064332859
 30
0.0
 11
111.3400000000001
 21
137.0
 31
0.0
  0
LINE
  5
F809
  8
0
 10
74.105324031097041
 20
134.95447369045451
 30
0.0
 11
75.079110464088842
 21
135.08976064332859
 31
0.0
  0
LINE
  5
F8F9
  8
2
 10
323.8300000000001
 20
218.75825606977421
 30
0.0
 11
323.8300000000001
 21
217.49999999999989
 31
0.0
  0
LINE
  5
F8FA
  8
2
 10
328.8300000000001
 20
217.49999999999989
 30
0.0
 11
328.8300000000001
 21
219.3499999999998
 31
0.0
  0
LINE
  5
F8FB
  8
2
 10
323.8300000000001
 20
222.5
 30
0.0
 11
323.8300000000001
 21
221.24174393022571
 31
0.0
  0
LINE
  5
F8FC
  8
2
 10
328.8300000000001
 20
220.65000000000009
 30
0.0
 11
328.8300000000001
 21
222.5
 31
0.0
  0
LINE
  5
F8FD
  8
2
 10
328.8300000000001
 20
222.5
 30
0.0
 11
323.8300000000001
 21
222.5
 31
0.0
  0
LINE
  5
F8FE
  8
2
 10
328.8300000000001
 20
222.5
 30
0.0
 11
330.3300000000001
 21
223.99999999999989
 31
0.0
  0
LINE
  5
F8FF
  8
2
 10
322.3300000000001
 20
223.99999999999989
 30
0.0
 11
323.8300000000001
 21
222.5
 31
0.0
  0
LINE
  5
F900
  8
2
 10
328.8300000000001
 20
217.49999999999989
 30
0.0
 11
323.8300000000001
 21
217.49999999999989
 31
0.0
  0
LINE
  5
F901
  8
2
 10
323.8300000000001
 20
217.49999999999989
 30
0.0
 11
322.3300000000001
 21
216.0
 31
0.0
  0
LINE
  5
F902
  8
2
 10
330.3300000000001
 20
216.0
 30
0.0
 11
328.8300000000001
 21
217.49999999999989
 31
0.0
  0
CIRCLE
  5
F903
  8
2
 10
219.99999999999989
 20
219.99999999999989
 30
0.0
 40
4.9265000000000319
  0
LINE
  5
F904
  8
1
 10
185.49999999999989
 20
219.99999999999989
 30
0.0
 11
332.8300000000001
 21
219.99999999999989
 31
0.0
  0
LINE
  5
F905
  8
1
 10
326.33000000000033
 20
214.5
 30
0.0
 11
326.3300000000001
 21
225.49999999999989
 31
0.0
  0
LINE
  5
F906
  8
1
 10
265.83000000000033
 20
215.18764940927801
 30
0.0
 11
265.8300000000001
 21
224.81235059072191
 31
0.0
  0
LINE
  5
F907
  8
1
 10
315.8300000000001
 20
216.25
 30
0.0
 11
315.8300000000001
 21
223.74999999999989
 31
0.0
  0
LINE
  5
F908
  8
1
 10
255.3300000000001
 20
214.5
 30
0.0
 11
255.3300000000001
 21
225.49999999999989
 31
0.0
  0
LINE
  5
F909
  8
1
 10
219.99999999999989
 20
185.49999999999989
 30
0.0
 11
219.99999999999989
 21
254.50000000000011
 31
0.0
  0
LINE
  5
F90A
  8
0
 10
312.36059068524872
 20
220.5
 30
0.0
 11
310.02374109684808
 21
220.5
 31
0.0
  0
LINE
  5
F90B
  8
0
 10
310.02374109684808
 20
219.49999999999989
 30
0.0
 11
312.3613730334032
 21
219.49999999999989
 31
0.0
  0
LINE
  5
F90C
  8
0
 10
287.63625890315211
 20
220.5
 30
0.0
 11
286.0237410968482
 21
220.5
 31
0.0
  0
LINE
  5
F90D
  8
0
 10
286.0237410968482
 20
219.49999999999989
 30
0.0
 11
287.63625890315211
 21
219.49999999999989
 31
0.0
  0
LINE
  5
F90E
  8
0
 10
281.63625890315211
 20
220.5
 30
0.0
 11
280.02374109684808
 21
220.5
 31
0.0
  0
LINE
  5
F90F
  8
0
 10
280.02374109684808
 20
219.49999999999989
 30
0.0
 11
281.63625890315211
 21
219.49999999999989
 31
0.0
  0
LINE
  5
F910
  8
0
 10
305.636258903152
 20
220.5
 30
0.0
 11
304.02374109684808
 21
220.5
 31
0.0
  0
LINE
  5
F911
  8
0
 10
304.02374109684808
 20
219.49999999999989
 30
0.0
 11
305.636258903152
 21
219.49999999999989
 31
0.0
  0
LINE
  5
F912
  8
0
 10
299.636258903152
 20
220.5
 30
0.0
 11
298.02374109684808
 21
220.5
 31
0.0
  0
LINE
  5
F913
  8
0
 10
298.02374109684808
 20
219.49999999999989
 30
0.0
 11
299.636258903152
 21
219.49999999999989
 31
0.0
  0
LINE
  5
F914
  8
0
 10
275.63625890315211
 20
220.5
 30
0.0
 11
274.02374109684808
 21
220.5
 31
0.0
  0
LINE
  5
F915
  8
0
 10
274.02374109684808
 20
219.49999999999989
 30
0.0
 11
275.63625890315211
 21
219.49999999999989
 31
0.0
  0
LINE
  5
F916
  8
0
 10
293.63625890315211
 20
220.5
 30
0.0
 11
293.22457378222492
 21
220.5
 31
0.0
  0
LINE
  5
F917
  8
0
 10
292.45141562118408
 20
219.49999999999989
 30
0.0
 11
293.63625890315211
 21
219.49999999999989
 31
0.0
  0
LINE
  5
F918
  8
0
 10
269.63625890315211
 20
220.5
 30
0.0
 11
269.3300000000001
 21
220.5
 31
0.0
  0
LINE
  5
F919
  8
0
 10
269.3300000000001
 20
219.49999999999989
 30
0.0
 11
269.63625890315211
 21
219.49999999999989
 31
0.0
  0
LINE
  5
F91A
  8
0
 10
275.63625890315211
 20
220.5
 30
0.0
 11
275.63625890315211
 21
219.49999999999989
 31
0.0
  0
LINE
  5
F91B
  8
0
 10
280.02374109684808
 20
219.49999999999989
 30
0.0
 11
280.02374109684808
 21
220.5
 31
0.0
  0
ARC
  5
F91C
  8
0
 10
277.8300000000001
 20
219.99999999999989
 30
0.0
 40
2.25
 50
12.83958840690125
 51
167.1604115930987
  0
ARC
  5
F91D
  8
0
 10
277.8300000000001
 20
219.99999999999989
 30
0.0
 40
2.2499999999999991
 50
192.83958840690121
 51
347.16041159309867
  0
LINE
  5
F91E
  8
0
 10
281.63625890315211
 20
220.5
 30
0.0
 11
281.63625890315211
 21
219.49999999999989
 31
0.0
  0
LINE
  5
F91F
  8
0
 10
286.0237410968482
 20
219.49999999999989
 30
0.0
 11
286.0237410968482
 21
220.5
 31
0.0
  0
ARC
  5
F920
  8
0
 10
283.8300000000001
 20
219.99999999999989
 30
0.0
 40
2.249999999999996
 50
12.83958840690125
 51
167.1604115930987
  0
ARC
  5
F921
  8
0
 10
283.8300000000001
 20
219.99999999999989
 30
0.0
 40
2.2499999999999889
 50
192.83958840690121
 51
347.16041159309867
  0
LINE
  5
F922
  8
0
 10
293.63625890315211
 20
220.5
 30
0.0
 11
293.63625890315211
 21
219.49999999999989
 31
0.0
  0
LINE
  5
F923
  8
0
 10
298.02374109684808
 20
219.49999999999989
 30
0.0
 11
298.02374109684808
 21
220.5
 31
0.0
  0
ARC
  5
F924
  8
0
 10
295.8300000000001
 20
219.99999999999989
 30
0.0
 40
2.2500000000000102
 50
12.83958840690125
 51
167.1604115930987
  0
ARC
  5
F925
  8
0
 10
295.8300000000001
 20
219.99999999999989
 30
0.0
 40
2.2499999999999911
 50
192.83958840690121
 51
347.16041159309867
  0
LINE
  5
F926
  8
0
 10
287.63625890315211
 20
220.5
 30
0.0
 11
287.63625890315211
 21
219.49999999999989
 31
0.0
  0
ARC
  5
F927
  8
0
 10
289.8300000000001
 20
219.99999999999989
 30
0.0
 40
2.249999999999996
 50
43.635208626997994
 51
167.1604115930987
  0
ARC
  5
F928
  8
0
 10
289.8300000000001
 20
219.99999999999989
 30
0.0
 40
2.2500000000000022
 50
192.83958840690121
 51
286.16814915248051
  0
LINE
  5
F929
  8
0
 10
269.63625890315211
 20
220.5
 30
0.0
 11
269.63625890315211
 21
219.49999999999989
 31
0.0
  0
LINE
  5
F92A
  8
0
 10
274.02374109684808
 20
219.49999999999989
 30
0.0
 11
274.02374109684808
 21
220.5
 31
0.0
  0
ARC
  5
F92B
  8
0
 10
271.8300000000001
 20
219.99999999999989
 30
0.0
 40
2.249999999999996
 50
12.83958840690125
 51
167.1604115930987
  0
ARC
  5
F92C
  8
0
 10
271.8300000000001
 20
219.99999999999989
 30
0.0
 40
2.2499999999999938
 50
192.83958840690121
 51
347.16041159309867
  0
LINE
  5
F92D
  8
0
 10
299.636258903152
 20
220.5
 30
0.0
 11
299.636258903152
 21
219.49999999999989
 31
0.0
  0
LINE
  5
F92E
  8
0
 10
304.02374109684808
 20
219.49999999999989
 30
0.0
 11
304.02374109684808
 21
220.5
 31
0.0
  0
ARC
  5
F92F
  8
0
 10
301.8300000000001
 20
219.99999999999989
 30
0.0
 40
2.2500000000000062
 50
12.83958840690125
 51
167.1604115930987
  0
ARC
  5
F930
  8
0
 10
301.8300000000001
 20
219.99999999999989
 30
0.0
 40
2.2499999999999898
 50
192.83958840690121
 51
347.16041159309867
  0
LINE
  5
F931
  8
0
 10
305.636258903152
 20
220.5
 30
0.0
 11
305.636258903152
 21
219.49999999999989
 31
0.0
  0
LINE
  5
F932
  8
0
 10
310.02374109684808
 20
219.49999999999989
 30
0.0
 11
310.02374109684808
 21
220.5
 31
0.0
  0
ARC
  5
F933
  8
0
 10
307.8300000000001
 20
219.99999999999989
 30
0.0
 40
2.2499999999999858
 50
12.83958840690125
 51
167.1604115930987
  0
ARC
  5
F934
  8
0
 10
307.8300000000001
 20
219.99999999999989
 30
0.0
 40
2.2499999999999951
 50
192.83958840690121
 51
347.16041159309867
  0
ARC
  5
F935
  8
0
 10
315.8300000000001
 20
219.99999999999989
 30
0.0
 40
2.2500000000000111
 50
245.2005404976185
 51
114.6256850560614
  0
POLYLINE
  5
F936
  8
0
 66
     1
 10
0.0
 20
0.0
 30
0.0
  0
VERTEX
  5
10327
  8
0
 10
312.80013623163723
 20
218.1184948108498
 30
0.0
  0
VERTEX
  5
10328
  8
0
 10
312.60394020794001
 20
218.54518783824409
 30
0.0
  0
VERTEX
  5
10329
  8
0
 10
312.45878814373589
 20
218.9931639836002
 30
0.0
  0
VERTEX
  5
1032A
  8
0
 10
312.36322546341978
 20
219.4855101789737
 30
0.0
  0
VERTEX
  5
1032B
  8
0
 10
312.33001739136961
 20
219.98820463416649
 30
0.0
  0
VERTEX
  5
1032C
  8
0
 10
312.3300000000001
 20
219.99999999999989
 30
0.0
  0
SEQEND
  5
1032D
  8
0
  0
POLYLINE
  5
F937
  8
0
 66
     1
 10
0.0
 20
0.0
 30
0.0
  0
VERTEX
  5
1032E
  8
0
 10
312.3300000000001
 20
219.99999999999989
 30
0.0
  0
VERTEX
  5
1032F
  8
0
 10
312.33001739136961
 20
220.01179536583339
 30
0.0
  0
VERTEX
  5
10330
  8
0
 10
312.36226675443362
 20
220.50704328417589
 30
0.0
  0
VERTEX
  5
10331
  8
0
 10
312.45878814373589
 20
221.00683601639969
 30
0.0
  0
VERTEX
  5
10332
  8
0
 10
312.59991202369258
 20
221.44445272993121
 30
0.0
  0
VERTEX
  5
10333
  8
0
 10
312.69251810792292
 20
221.66394876267569
 30
0.0
  0
VERTEX
  5
10334
  8
0
 10
312.80013623163723
 20
221.88150518915009
 30
0.0
  0
SEQEND
  5
10335
  8
0
  0
ARC
  5
F938
  8
0
 10
257.17708624737901
 20
217.0000000000004
 30
0.0
 40
7.999999999999523
 50
77.500000000002274
 51
90.0
  0
LINE
  5
F939
  8
0
 10
268.85986376836303
 20
222.604226693269
 30
0.0
 11
258.90860315888381
 21
224.8103680569595
 31
0.0
  0
ARC
  5
F93A
  8
0
 10
257.17708624737901
 20
222.99999999999989
 30
0.0
 40
8.0000000000000426
 50
270.0
 51
282.49999999999773
  0
LINE
  5
F93B
  8
0
 10
258.90860315888381
 20
215.18963194304041
 30
0.0
 11
268.85986376836303
 21
217.39577330673089
 31
0.0
  0
LINE
  5
F93C
  8
0
 10
257.17708624737901
 20
214.99999999999989
 30
0.0
 11
255.3300000000001
 21
214.99999999999989
 31
0.0
  0
LINE
  5
F93D
  8
0
 10
257.17708624737901
 20
225.0
 30
0.0
 11
255.3300000000001
 21
225.0
 31
0.0
  0
ARC
  5
F93E
  8
0
 10
255.3300000000001
 20
219.99999999999989
 30
0.0
 40
4.9999999999999911
 50
90.000000853773628
 51
148.71708608359711
  0
ARC
  5
F93F
  8
0
 10
255.3300000000001
 20
219.99999999999989
 30
0.0
 40
4.9999999999999929
 50
211.28827973335351
 51
270.0
  0
POLYLINE
  5
F940
  8
0
 66
     1
 10
0.0
 20
0.0
 30
0.0
  0
VERTEX
  5
10336
  8
0
 10
269.3300000000001
 20
219.49999999999989
 30
0.0
  0
VERTEX
  5
10337
  8
0
 10
269.32660471826438
 20
219.52793085882141
 30
0.0
  0
VERTEX
  5
10338
  8
0
 10
269.31789445880622
 20
219.60846173293581
 30
0.0
  0
VERTEX
  5
10339
  8
0
 10
269.3075825318723
 20
219.7332364382905
 30
0.0
  0
VERTEX
  5
1033A
  8
0
 10
269.30018752380619
 20
219.88869423112209
 30
0.0
  0
VERTEX
  5
1033B
  8
0
 10
269.29902249581983
 20
220.05603188666501
 30
0.0
  0
VERTEX
  5
1033C
  8
0
 10
269.30450771086862
 20
220.2161285352594
 30
0.0
  0
VERTEX
  5
1033D
  8
0
 10
269.31424564846333
 20
220.3524391965984
 30
0.0
  0
VERTEX
  5
1033E
  8
0
 10
269.32405981033861
 20
220.45001529814181
 30
0.0
  0
VERTEX
  5
1033F
  8
0
 10
269.32960346016779
 20
220.49681771162611
 30
0.0
  0
VERTEX
  5
10340
  8
0
 10
269.32999999999652
 20
220.49999999997129
 30
0.0
  0
SEQEND
  5
10341
  8
0
  0
POLYLINE
  5
F941
  8
0
 66
     1
 10
0.0
 20
0.0
 30
0.0
  0
VERTEX
  5
10342
  8
0
 10
269.3300000000001
 20
222.0184490889971
 30
0.0
  0
VERTEX
  5
10343
  8
0
 10
269.3299826086303
 20
222.02301738686489
 30
0.0
  0
VERTEX
  5
10344
  8
0
 10
269.29773324556629
 20
222.21255978390781
 30
0.0
  0
VERTEX
  5
10345
  8
0
 10
269.20121185626419
 20
222.38987793348289
 30
0.0
  0
VERTEX
  5
10346
  8
0
 10
269.06008797630761
 20
222.5194899335369
 30
0.0
  0
VERTEX
  5
10347
  8
0
 10
268.85986376836303
 20
222.604226693269
 30
0.0
  0
SEQEND
  5
10348
  8
0
  0
POLYLINE
  5
F942
  8
0
 66
     1
 10
0.0
 20
0.0
 30
0.0
  0
VERTEX
  5
10349
  8
0
 10
268.85986376836303
 20
217.39577330673089
 30
0.0
  0
VERTEX
  5
1034A
  8
0
 10
269.05605979206018
 20
217.4778793791474
 30
0.0
  0
VERTEX
  5
1034B
  8
0
 10
269.20121185626419
 20
217.61012206651699
 30
0.0
  0
VERTEX
  5
1034C
  8
0
 10
269.29677453658007
 20
217.78465849194021
 30
0.0
  0
VERTEX
  5
1034D
  8
0
 10
269.3299826086303
 20
217.97698261313479
 30
0.0
  0
VERTEX
  5
1034E
  8
0
 10
269.3300000000001
 20
217.98155091100301
 30
0.0
  0
SEQEND
  5
1034F
  8
0
  0
LINE
  5
F943
  8
0
 10
269.3300000000001
 20
217.98155091100301
 30
0.0
 11
269.3300000000001
 21
219.49999999999989
 31
0.0
  0
LINE
  5
F944
  8
0
 10
269.3300000000001
 20
220.49371150637299
 30
0.0
 11
269.3300000000001
 21
222.0184490889971
 31
0.0
  0
ARC
  5
F945
  8
0
 10
255.3300000000001
 20
219.99999999999989
 30
0.0
 40
4.0000000000000044
 50
193.92267941075551
 51
166.01055536608919
  0
ARC
  5
F946
  8
0
 10
255.3300000000001
 20
219.99999999999989
 30
0.0
 40
2.5
 50
191.53695903281809
 51
168.4630409671818
  0
POLYLINE
  5
F947
  8
0
 66
     1
 10
0.0
 20
0.0
 30
0.0
  0
VERTEX
  5
10350
  8
0
 10
312.80013623163723
 20
218.1184948108498
 30
0.0
  0
VERTEX
  5
10351
  8
0
 10
312.97755241121462
 20
217.81800660760669
 30
0.0
  0
VERTEX
  5
10352
  8
0
 10
313.18048274120628
 20
217.53412469160341
 30
0.0
  0
VERTEX
  5
10353
  8
0
 10
313.40738279926762
 20
217.26900957563331
 30
0.0
  0
VERTEX
  5
10354
  8
0
 10
313.65652573895107
 20
217.0246789458096
 30
0.0
  0
VERTEX
  5
10355
  8
0
 10
313.92601543204898
 20
216.80299230575631
 30
0.0
  0
VERTEX
  5
10356
  8
0
 10
314.2138008992747
 20
216.60563682466221
 30
0.0
  0
VERTEX
  5
10357
  8
0
 10
314.51769191945272
 20
216.43411449690501
 30
0.0
  0
VERTEX
  5
10358
  8
0
 10
314.83537569842542
 20
216.28973071096689
 30
0.0
  0
VERTEX
  5
10359
  8
0
 10
315.16443447081173
 20
216.17358431464001
 30
0.0
  0
VERTEX
  5
1035A
  8
0
 10
315.50236390066311
 20
216.08655925213199
 30
0.0
  0
VERTEX
  5
1035B
  8
0
 10
315.84659214097059
 20
216.02931783671511
 30
0.0
  0
VERTEX
  5
1035C
  8
0
 10
316.1944994069749
 20
216.00229571012429
 30
0.0
  0
VERTEX
  5
1035D
  8
0
 10
316.3300000000001
 20
216.0
 30
0.0
  0
SEQEND
  5
1035E
  8
0
  0
POLYLINE
  5
F948
  8
0
 66
     1
 10
0.0
 20
0.0
 30
0.0
  0
VERTEX
  5
1035F
  8
0
 10
318.99399011508211
 20
218.46247303413901
 30
0.0
  0
VERTEX
  5
10360
  8
0
 10
318.82046837189267
 20
218.44423516401901
 30
0.0
  0
VERTEX
  5
10361
  8
0
 10
318.64919646644
 20
218.4109432780906
 30
0.0
  0
VERTEX
  5
10362
  8
0
 10
318.4814778813415
 20
218.3628507477076
 30
0.0
  0
VERTEX
  5
10363
  8
0
 10
318.31858905630128
 20
218.3003235860655
 30
0.0
  0
VERTEX
  5
10364
  8
0
 10
318.16176967363248
 20
218.2238376626191
 30
0.0
  0
VERTEX
  5
10365
  8
0
 10
318.01221322352779
 20
218.1339750814295
 30
0.0
  0
VERTEX
  5
10366
  8
0
 10
317.87782634058112
 20
218.0367797832632
 30
0.0
  0
SEQEND
  5
10367
  8
0
  0
POLYLINE
  5
F949
  8
0
 66
     1
 10
0.0
 20
0.0
 30
0.0
  0
VERTEX
  5
10368
  8
0
 10
317.87782621897321
 20
221.9632203126136
 30
0.0
  0
VERTEX
  5
10369
  8
0
 10
317.7008303483853
 20
222.09065161037071
 30
0.0
  0
VERTEX
  5
1036A
  8
0
 10
317.51340163111621
 20
222.2021717870027
 30
0.0
  0
VERTEX
  5
1036B
  8
0
 10
317.31696651287712
 20
222.29693210662811
 30
0.0
  0
VERTEX
  5
1036C
  8
0
 10
317.11301998352809
 20
222.3742113859966
 30
0.0
  0
VERTEX
  5
1036D
  8
0
 10
316.90311419930413
 20
222.43342148312939
 30
0.0
  0
VERTEX
  5
1036E
  8
0
 10
316.6888466699674
 20
222.4741117734356
 30
0.0
  0
VERTEX
  5
1036F
  8
0
 10
316.471848100795
 20
222.49597257923639
 30
0.0
  0
VERTEX
  5
10370
  8
0
 10
316.25376998192542
 20
222.4988375266
 30
0.0
  0
VERTEX
  5
10371
  8
0
 10
316.03627201952207
 20
222.4826848115467
 30
0.0
  0
VERTEX
  5
10372
  8
0
 10
315.82100950440798
 20
222.44763736599131
 30
0.0
  0
VERTEX
  5
10373
  8
0
 10
315.6096207143022
 20
222.39396192215679
 30
0.0
  0
VERTEX
  5
10374
  8
0
 10
315.40371444553762
 20
222.32206698258111
 30
0.0
  0
VERTEX
  5
10375
  8
0
 10
315.20485776914887
 20
222.23249971116559
 30
0.0
  0
VERTEX
  5
10376
  8
0
 10
315.01456410451641
 20
222.1259417689279
 30
0.0
  0
VERTEX
  5
10377
  8
0
 10
314.83428170133033
 20
222.00320412615011
 30
0.0
  0
VERTEX
  5
10378
  8
0
 10
314.66538261753669
 20
221.86522089040449
 30
0.0
  0
VERTEX
  5
10379
  8
0
 10
314.50915227714722
 20
221.71304219743149
 30
0.0
  0
VERTEX
  5
1037A
  8
0
 10
314.36677968738638
 20
221.547826218973
 30
0.0
  0
VERTEX
  5
1037B
  8
0
 10
314.2393483896293
 20
221.3708303483854
 30
0.0
  0
VERTEX
  5
1037C
  8
0
 10
314.12782821299737
 20
221.18340163111631
 30
0.0
  0
VERTEX
  5
1037D
  8
0
 10
314.03306789337188
 20
220.9869665128769
 30
0.0
  0
VERTEX
  5
1037E
  8
0
 10
313.9557886140035
 20
220.78301998352791
 30
0.0
  0
VERTEX
  5
1037F
  8
0
 10
313.8965785168707
 20
220.57311419930389
 30
0.0
  0
VERTEX
  5
10380
  8
0
 10
313.8558882265645
 20
220.35884666996751
 30
0.0
  0
VERTEX
  5
10381
  8
0
 10
313.8340274207635
 20
220.1418481007949
 30
0.0
  0
VERTEX
  5
10382
  8
0
 10
313.83116247340013
 20
219.9237699819252
 30
0.0
  0
VERTEX
  5
10383
  8
0
 10
313.84731518845359
 20
219.70627201952189
 30
0.0
  0
VERTEX
  5
10384
  8
0
 10
313.88236263400881
 20
219.4910095044078
 30
0.0
  0
VERTEX
  5
10385
  8
0
 10
313.93603807784302
 20
219.2796207143021
 30
0.0
  0
VERTEX
  5
10386
  8
0
 10
314.00793301741868
 20
219.07371444553741
 30
0.0
  0
VERTEX
  5
10387
  8
0
 10
314.0975002888344
 20
218.87485776914869
 30
0.0
  0
VERTEX
  5
10388
  8
0
 10
314.20405823107188
 20
218.68456410451631
 30
0.0
  0
VERTEX
  5
10389
  8
0
 10
314.3267958738499
 20
218.5042817013304
 30
0.0
  0
VERTEX
  5
1038A
  8
0
 10
314.46477910959561
 20
218.3353826175366
 30
0.0
  0
VERTEX
  5
1038B
  8
0
 10
314.61695780256849
 20
218.17915227714701
 30
0.0
  0
VERTEX
  5
1038C
  8
0
 10
314.7821737810267
 20
218.03677968738631
 30
0.0
  0
VERTEX
  5
1038D
  8
0
 10
314.95916965161467
 20
217.9093483896292
 30
0.0
  0
VERTEX
  5
1038E
  8
0
 10
315.1465983688837
 20
217.79782821299699
 30
0.0
  0
VERTEX
  5
1038F
  8
0
 10
315.34303348712308
 20
217.7030678933717
 30
0.0
  0
VERTEX
  5
10390
  8
0
 10
315.54698001647188
 20
217.62578861400331
 30
0.0
  0
VERTEX
  5
10391
  8
0
 10
315.75688580069612
 20
217.56657851687049
 30
0.0
  0
VERTEX
  5
10392
  8
0
 10
315.97115333003262
 20
217.52588822656429
 30
0.0
  0
VERTEX
  5
10393
  8
0
 10
316.18815189920508
 20
217.50402742076329
 30
0.0
  0
VERTEX
  5
10394
  8
0
 10
316.40623001807489
 20
217.50116247339989
 30
0.0
  0
VERTEX
  5
10395
  8
0
 10
316.62372798047812
 20
217.51731518845321
 30
0.0
  0
VERTEX
  5
10396
  8
0
 10
316.83899049559199
 20
217.5523626340086
 30
0.0
  0
VERTEX
  5
10397
  8
0
 10
317.050379285698
 20
217.60603807784301
 30
0.0
  0
VERTEX
  5
10398
  8
0
 10
317.25628555446258
 20
217.67793301741881
 30
0.0
  0
VERTEX
  5
10399
  8
0
 10
317.45514223085132
 20
217.76750028883421
 30
0.0
  0
VERTEX
  5
1039A
  8
0
 10
317.64543589548379
 20
217.8740582310719
 30
0.0
  0
VERTEX
  5
1039B
  8
0
 10
317.82571829866959
 20
217.99679587384969
 30
0.0
  0
VERTEX
  5
1039C
  8
0
 10
317.87782634058112
 20
218.0367797832632
 30
0.0
  0
SEQEND
  5
1039D
  8
0
  0
POLYLINE
  5
F94A
  8
0
 66
     1
 10
0.0
 20
0.0
 30
0.0
  0
VERTEX
  5
1039E
  8
0
 10
317.87782621897321
 20
221.9632203126136
 30
0.0
  0
VERTEX
  5
1039F
  8
0
 10
318.0194229154435
 20
221.86127527440809
 30
0.0
  0
VERTEX
  5
103A0
  8
0
 10
318.16936588925881
 20
221.7720591331024
 30
0.0
  0
VERTEX
  5
103A1
  8
0
 10
318.32651398385008
 20
221.69625087740221
 30
0.0
  0
VERTEX
  5
103A2
  8
0
 10
318.48967120732908
 20
221.63442745390739
 30
0.0
  0
VERTEX
  5
103A3
  8
0
 10
318.65759583470839
 20
221.58705937620101
 30
0.0
  0
VERTEX
  5
103A4
  8
0
 10
318.82900985817781
 20
221.55450714395619
 30
0.0
  0
VERTEX
  5
103A5
  8
0
 10
318.99399011508211
 20
221.53752696586091
 30
0.0
  0
SEQEND
  5
103A6
  8
0
  0
POLYLINE
  5
F94B
  8
0
 66
     1
 10
0.0
 20
0.0
 30
0.0
  0
VERTEX
  5
103A7
  8
0
 10
316.3300000000001
 20
223.99999999999989
 30
0.0
  0
VERTEX
  5
103A8
  8
0
 10
315.98137702900948
 20
223.984778792367
 30
0.0
  0
VERTEX
  5
103A9
  8
0
 10
315.63540728933219
 20
223.93923101204879
 30
0.0
  0
VERTEX
  5
103AA
  8
0
 10
315.29472381958999
 20
223.86370330515629
 30
0.0
  0
VERTEX
  5
103AB
  8
0
 10
314.96191942669742
 20
223.75877048314371
 30
0.0
  0
VERTEX
  5
103AC
  8
0
 10
314.63952695303709
 20
223.62523114814661
 30
0.0
  0
VERTEX
  5
103AD
  8
0
 10
314.3300000000001
 20
223.46410161513759
 30
0.0
  0
VERTEX
  5
103AE
  8
0
 10
314.03569425459591
 20
223.27660817715599
 30
0.0
  0
VERTEX
  5
103AF
  8
0
 10
313.7588495612539
 20
223.0641777724758
 30
0.0
  0
VERTEX
  5
103B0
  8
0
 10
313.50157287525388
 20
222.82842712474621
 30
0.0
  0
VERTEX
  5
103B1
  8
0
 10
313.26582222752421
 20
222.57115043874609
 30
0.0
  0
VERTEX
  5
103B2
  8
0
 10
313.05339182284411
 20
222.29430574540419
 30
0.0
  0
VERTEX
  5
103B3
  8
0
 10
312.86589838486219
 20
221.99999999999989
 30
0.0
  0
VERTEX
  5
103B4
  8
0
 10
312.80013623163723
 20
221.88150518915009
 30
0.0
  0
SEQEND
  5
103B5
  8
0
  0
LINE
  5
F94C
  8
0
 10
316.3300000000001
 20
223.99999999999989
 30
0.0
 11
330.73000000000002
 21
223.99999999999989
 31
0.0
  0
LINE
  5
F94D
  8
0
 10
331.13000000000011
 20
220.65000000000009
 30
0.0
 11
325.8300000000001
 21
220.65000000000009
 31
0.0
  0
POLYLINE
  5
F94E
  8
0
 66
     1
 10
0.0
 20
0.0
 30
0.0
  0
VERTEX
  5
103B6
  8
0
 10
330.73000000000002
 20
223.99999999999989
 30
0.0
  0
VERTEX
  5
103B7
  8
0
 10
330.9388363332684
 20
223.96248323166739
 30
0.0
  0
VERTEX
  5
103B8
  8
0
 10
331.10592838845258
 20
223.867630031922
 30
0.0
  0
VERTEX
  5
103B9
  8
0
 10
331.20259295188953
 20
223.76966999043239
 30
0.0
  0
VERTEX
  5
103BA
  8
0
 10
331.27216433184998
 20
223.65701719255679
 30
0.0
  0
VERTEX
  5
103BB
  8
0
 10
331.32998214280082
 20
223.4046290742169
 30
0.0
  0
VERTEX
  5
103BC
  8
0
 10
331.3300000000001
 20
223.39999999999981
 30
0.0
  0
SEQEND
  5
103BD
  8
0
  0
POLYLINE
  5
F94F
  8
0
 66
     1
 10
0.0
 20
0.0
 30
0.0
  0
VERTEX
  5
103BE
  8
0
 10
331.3300000000001
 20
220.84999999999991
 30
0.0
  0
VERTEX
  5
103BF
  8
0
 10
331.32998076915982
 20
220.84722656043911
 30
0.0
  0
VERTEX
  5
103C0
  8
0
 10
331.30384271661433
 20
220.75111264044151
 30
0.0
  0
VERTEX
  5
103C1
  8
0
 10
331.2266153450409
 20
220.67488439502191
 30
0.0
  0
VERTEX
  5
103C2
  8
0
 10
331.182383123916
 20
220.65698184456161
 30
0.0
  0
VERTEX
  5
103C3
  8
0
 10
331.13000000000011
 20
220.65000000000009
 30
0.0
  0
SEQEND
  5
103C4
  8
0
  0
LINE
  5
F950
  8
0
 10
331.3300000000001
 20
220.84999999999991
 30
0.0
 11
331.3300000000001
 21
223.39999999999981
 31
0.0
  0
LINE
  5
F951
  8
0
 10
318.99399011508211
 20
221.53752696586091
 30
0.0
 11
325.3300000000001
 21
221.15000000000001
 31
0.0
  0
ARC
  5
F952
  8
0
 10
325.82999999999993
 20
221.14999999999981
 30
0.0
 40
0.4999999999999147
 50
180.0
 51
270.0
  0
LINE
  5
F953
  8
0
 10
325.53000000000009
 20
219.3499999999998
 30
0.0
 11
331.13000000000011
 21
219.3499999999998
 31
0.0
  0
LINE
  5
F954
  8
0
 10
330.73000000000002
 20
216.0
 30
0.0
 11
316.3300000000001
 21
216.0
 31
0.0
  0
POLYLINE
  5
F955
  8
0
 66
     1
 10
0.0
 20
0.0
 30
0.0
  0
VERTEX
  5
103C5
  8
0
 10
331.13000000000011
 20
219.3499999999998
 30
0.0
  0
VERTEX
  5
103C6
  8
0
 10
331.18215846277002
 20
219.34307898581019
 30
0.0
  0
VERTEX
  5
103C7
  8
0
 10
331.2266153450409
 20
219.3251156049779
 30
0.0
  0
VERTEX
  5
103C8
  8
0
 10
331.30324186141399
 20
219.24993626695951
 30
0.0
  0
VERTEX
  5
103C9
  8
0
 10
331.32998076915982
 20
219.15277343956171
 30
0.0
  0
VERTEX
  5
103CA
  8
0
 10
331.3300000000001
 20
219.15000000000001
 30
0.0
  0
SEQEND
  5
103CB
  8
0
  0
POLYLINE
  5
F956
  8
0
 66
     1
 10
0.0
 20
0.0
 30
0.0
  0
VERTEX
  5
103CC
  8
0
 10
331.3300000000001
 20
216.59999999999991
 30
0.0
  0
VERTEX
  5
103CD
  8
0
 10
331.32998214280082
 20
216.59537092578319
 30
0.0
  0
VERTEX
  5
103CE
  8
0
 10
331.31577759882521
 20
216.47013620706809
 30
0.0
  0
VERTEX
  5
103CF
  8
0
 10
331.27471183279113
 20
216.3484269107839
 30
0.0
  0
VERTEX
  5
103D0
  8
0
 10
331.20506392833607
 20
216.23351089512209
 30
0.0
  0
VERTEX
  5
103D1
  8
0
 10
331.10592838845258
 20
216.1323699680778
 30
0.0
  0
VERTEX
  5
103D2
  8
0
 10
330.94311857504061
 20
216.03912526088891
 30
0.0
  0
VERTEX
  5
103D3
  8
0
 10
330.84277336023752
 20
216.01069348449141
 30
0.0
  0
VERTEX
  5
103D4
  8
0
 10
330.73000000000002
 20
216.0
 30
0.0
  0
SEQEND
  5
103D5
  8
0
  0
LINE
  5
F957
  8
0
 10
331.3300000000001
 20
216.59999999999991
 30
0.0
 11
331.3300000000001
 21
219.15000000000001
 31
0.0
  0
LINE
  5
F958
  8
0
 10
325.3300000000001
 20
219.15000000000001
 30
0.0
 11
325.3300000000001
 21
218.84999999999991
 31
0.0
  0
LINE
  5
F959
  8
0
 10
325.3300000000001
 20
218.84999999999991
 30
0.0
 11
318.99399011508211
 21
218.46247303413901
 31
0.0
  0
ARC
  5
F95A
  8
0
 10
325.52999999999992
 20
219.15000000000001
 30
0.0
 40
0.1999999999998914
 50
90.0
 51
180.0
  0
LINE
  5
F95B
  8
0
 10
253.8300000000001
 20
220.5
 30
0.0
 11
251.4973180728006
 21
220.5
 31
0.0
  0
LINE
  5
F95C
  8
0
 10
251.50059303374061
 20
219.49999999999989
 30
0.0
 11
253.8300000000001
 21
219.49999999999989
 31
0.0
  0
ARC
  5
F95D
  8
0
 10
253.8300000000001
 20
219.99999999999989
 30
0.0
 40
0.5
 50
270.0
 51
90.0
  0
POLYLINE
  5
F95E
  8
0
 66
     1
 10
0.0
 20
0.0
 30
0.0
  0
VERTEX
  5
103D6
  8
0
 10
194.7878659801535
 20
238.88381047790119
 30
0.0
  0
VERTEX
  5
103D7
  8
0
 10
194.7898764709638
 20
238.8862628252061
 30
0.0
  0
VERTEX
  5
103D8
  8
0
 10
194.7972063724709
 20
238.89518663598429
 30
0.0
  0
VERTEX
  5
103D9
  8
0
 10
194.82474108713259
 20
238.92847228728891
 30
0.0
  0
VERTEX
  5
103DA
  8
0
 10
194.970884942737
 20
239.0991441668065
 30
0.0
  0
VERTEX
  5
103DB
  8
0
 10
195.28831384178369
 20
239.43857865659101
 30
0.0
  0
VERTEX
  5
103DC
  8
0
 10
195.63126144958539
 20
239.76410905974819
 30
0.0
  0
VERTEX
  5
103DD
  8
0
 10
196.37794264602451
 20
240.35428229984029
 30
0.0
  0
VERTEX
  5
103DE
  8
0
 10
197.21914118079391
 20
240.86524587918589
 30
0.0
  0
VERTEX
  5
103DF
  8
0
 10
197.83774246556999
 20
241.15640019682439
 30
0.0
  0
SEQEND
  5
103E0
  8
0
  0
POLYLINE
  5
F95F
  8
0
 66
     1
 10
0.0
 20
0.0
 30
0.0
  0
VERTEX
  5
103E1
  8
0
 10
193.03055351960879
 20
234.53987224331459
 30
0.0
  0
VERTEX
  5
103E2
  8
0
 10
193.1670051292262
 20
235.486844965432
 30
0.0
  0
VERTEX
  5
103E3
  8
0
 10
193.4202241713873
 20
236.41896793691251
 30
0.0
  0
VERTEX
  5
103E4
  8
0
 10
193.6549311935336
 20
237.02760991191909
 30
0.0
  0
VERTEX
  5
103E5
  8
0
 10
193.8417319705587
 20
237.42700748521241
 30
0.0
  0
VERTEX
  5
103E6
  8
0
 10
193.97834075429719
 20
237.68679215714079
 30
0.0
  0
VERTEX
  5
103E7
  8
0
 10
194.0735582511906
 20
237.8550276762561
 30
0.0
  0
VERTEX
  5
103E8
  8
0
 10
194.13810331950771
 20
237.96385325171261
 30
0.0
  0
VERTEX
  5
103E9
  8
0
 10
194.1811074599415
 20
238.03421502219109
 30
0.0
  0
VERTEX
  5
103EA
  8
0
 10
194.20938804465541
 20
238.07960160110929
 30
0.0
  0
VERTEX
  5
103EB
  8
0
 10
194.23409506791171
 20
238.1186993374169
 30
0.0
  0
VERTEX
  5
103EC
  8
0
 10
194.24308528121031
 20
238.1328007709337
 30
0.0
  0
VERTEX
  5
103ED
  8
0
 10
194.2482591005577
 20
238.1408862274867
 30
0.0
  0
VERTEX
  5
103EE
  8
0
 10
194.24945111591791
 20
238.1427459930548
 30
0.0
  0
SEQEND
  5
103EF
  8
0
  0
ARC
  5
F960
  8
0
 10
220.0000000000243
 20
219.99999999998201
 30
0.0
 40
31.500000000030159
 50
143.1669026711738
 51
144.83309732881881
  0
POLYLINE
  5
F961
  8
0
 66
     1
 10
0.0
 20
0.0
 30
0.0
  0
VERTEX
  5
103F0
  8
0
 10
250.36506300635909
 20
224.0892391627828
 30
0.0
  0
VERTEX
  5
103F1
  8
0
 10
250.8112879356529
 20
223.2429178935958
 30
0.0
  0
VERTEX
  5
103F2
  8
0
 10
251.1543175632045
 20
222.3399761502387
 30
0.0
  0
VERTEX
  5
103F3
  8
0
 10
251.32218637042359
 20
221.70961712274209
 30
0.0
  0
VERTEX
  5
103F4
  8
0
 10
251.4058213706312
 20
221.27669895658451
 30
0.0
  0
VERTEX
  5
103F5
  8
0
 10
251.44800014193689
 20
220.98623211370059
 30
0.0
  0
VERTEX
  5
103F6
  8
0
 10
251.46985392583611
 20
220.79415927924441
 30
0.0
  0
VERTEX
  5
103F7
  8
0
 10
251.48160193699019
 20
220.66817890001241
 30
0.0
  0
VERTEX
  5
103F8
  8
0
 10
251.4881684675633
 20
220.58597783240629
 30
0.0
  0
VERTEX
  5
103F9
  8
0
 10
251.49196655565899
 20
220.53263640812361
 30
0.0
  0
VERTEX
  5
103FA
  8
0
 10
251.49495922676391
 20
220.4864832511106
 30
0.0
  0
VERTEX
  5
103FB
  8
0
 10
251.49597460607939
 20
220.46979063695849
 30
0.0
  0
VERTEX
  5
103FC
  8
0
 10
251.49654141042171
 20
220.4602082704898
 30
0.0
  0
VERTEX
  5
103FD
  8
0
 10
251.49667019251109
 20
220.45800303949059
 30
0.0
  0
SEQEND
  5
103FE
  8
0
  0
POLYLINE
  5
F962
  8
0
 66
     1
 10
0.0
 20
0.0
 30
0.0
  0
VERTEX
  5
103FF
  8
0
 10
251.49667019251109
 20
219.54199696050929
 30
0.0
  0
VERTEX
  5
10400
  8
0
 10
251.4964851248578
 20
219.53883123301529
 30
0.0
  0
VERTEX
  5
10401
  8
0
 10
251.4958003943411
 20
219.52730331043469
 30
0.0
  0
VERTEX
  5
10402
  8
0
 10
251.49308915719431
 20
219.48419015365599
 30
0.0
  0
VERTEX
  5
10403
  8
0
 10
251.47517470814859
 20
219.26021249962599
 30
0.0
  0
VERTEX
  5
10404
  8
0
 10
251.41788392152819
 20
218.79902420339999
 30
0.0
  0
VERTEX
  5
10405
  8
0
 10
251.3317754487843
 20
218.3340850288829
 30
0.0
  0
VERTEX
  5
10406
  8
0
 10
251.07459279830661
 20
217.41773665258819
 30
0.0
  0
VERTEX
  5
10407
  8
0
 10
250.6943857444293
 20
216.50991434039921
 30
0.0
  0
VERTEX
  5
10408
  8
0
 10
250.36506300635909
 20
215.91076083721711
 30
0.0
  0
SEQEND
  5
10409
  8
0
  0
ARC
  5
F963
  8
0
 10
220.00000000001771
 20
219.99999999999989
 30
0.0
 40
31.49999999998235
 50
359.16690267117878
 51
0.8330973288212433
  0
POLYLINE
  5
F964
  8
0
 66
     1
 10
0.0
 20
0.0
 30
0.0
  0
VERTEX
  5
1040A
  8
0
 10
225.49422295177709
 20
250.14253543527411
 30
0.0
  0
VERTEX
  5
1040B
  8
0
 10
226.4370133961838
 20
250.3053929071327
 30
0.0
  0
VERTEX
  5
1040C
  8
0
 10
227.40176400952799
 20
250.35260912606981
 30
0.0
  0
VERTEX
  5
1040D
  8
0
 10
228.32333973012089
 20
250.2869203896191
 30
0.0
  0
VERTEX
  5
1040E
  8
0
 10
228.78846381142671
 20
250.21147965656669
 30
0.0
  0
VERTEX
  5
1040F
  8
0
 10
229.22475827540819
 20
250.11529087501751
 30
0.0
  0
VERTEX
  5
10410
  8
0
 10
229.25819408164301
 20
250.10680202725021
 30
0.0
  0
VERTEX
  5
10411
  8
0
 10
229.28685028277641
 20
250.09940239054811
 30
0.0
  0
VERTEX
  5
10412
  8
0
 10
229.2948157361493
 20
250.0973251225534
 30
0.0
  0
VERTEX
  5
10413
  8
0
 10
229.29741958051861
 20
250.09664415086479
 30
0.0
  0
SEQEND
  5
10414
  8
0
  0
POLYLINE
  5
F965
  8
0
 66
     1
 10
0.0
 20
0.0
 30
0.0
  0
VERTEX
  5
10415
  8
0
 10
230.1685931308993
 20
249.81358270550911
 30
0.0
  0
VERTEX
  5
10416
  8
0
 10
230.1715467276112
 20
249.81242843211609
 30
0.0
  0
VERTEX
  5
10417
  8
0
 10
230.18229884013491
 20
249.80821489070919
 30
0.0
  0
VERTEX
  5
10418
  8
0
 10
230.22246407047339
 20
249.79231365282749
 30
0.0
  0
VERTEX
  5
10419
  8
0
 10
230.42994360864299
 20
249.70606309787121
 30
0.0
  0
VERTEX
  5
1041A
  8
0
 10
230.850855916321
 20
249.50906130079139
 30
0.0
  0
VERTEX
  5
1041B
  8
0
 10
231.26643036648869
 20
249.28349317040389
 30
0.0
  0
VERTEX
  5
1041C
  8
0
 10
232.0584556513044
 20
248.75573071374581
 30
0.0
  0
VERTEX
  5
1041D
  8
0
 10
232.80435553592079
 20
248.11359979527529
 30
0.0
  0
VERTEX
  5
1041E
  8
0
 10
233.2724180566851
 20
247.61524664454731
 30
0.0
  0
SEQEND
  5
1041F
  8
0
  0
ARC
  5
F966
  8
0
 10
219.99999999999631
 20
219.9999999999886
 30
0.0
 40
31.50000000001204
 50
71.166902671166852
 51
72.833097328831556
  0
POLYLINE
  5
F967
  8
0
 66
     1
 10
0.0
 20
0.0
 30
0.0
  0
VERTEX
  5
10420
  8
0
 10
233.2724180566851
 20
192.3847533554526
 30
0.0
  0
VERTEX
  5
10421
  8
0
 10
232.60540978521109
 20
191.6988405738347
 30
0.0
  0
VERTEX
  5
10422
  8
0
 10
231.8526631408437
 20
191.09357566764169
 30
0.0
  0
VERTEX
  5
10423
  8
0
 10
231.3050303943939
 20
190.7391312925989
 30
0.0
  0
VERTEX
  5
10424
  8
0
 10
230.91914538783431
 20
190.52581061014411
 30
0.0
  0
VERTEX
  5
10425
  8
0
 10
230.65592896127711
 20
190.39593702409081
 30
0.0
  0
VERTEX
  5
10426
  8
0
 10
230.48001003108169
 20
190.31579907050369
 30
0.0
  0
VERTEX
  5
10427
  8
0
 10
230.36382590558441
 20
190.2656959698017
 30
0.0
  0
VERTEX
  5
10428
  8
0
 10
230.28767721413249
 20
190.23404930126469
 30
0.0
  0
VERTEX
  5
10429
  8
0
 10
230.23812017874789
 20
190.2139536982244
 30
0.0
  0
VERTEX
  5
1042A
  8
0
 10
230.19515070425351
 20
190.19684538900819
 30
0.0
  0
VERTEX
  5
1042B
  8
0
 10
230.1795888542546
 20
190.1907214044399
 30
0.0
  0
VERTEX
  5
1042C
  8
0
 10
230.1706506343566
 20
190.18722122739149
 30
0.0
  0
VERTEX
  5
1042D
  8
0
 10
230.1685931308991
 20
190.18641729449081
 30
0.0
  0
SEQEND
  5
1042E
  8
0
  0
POLYLINE
  5
F968
  8
0
 66
     1
 10
0.0
 20
0.0
 30
0.0
  0
VERTEX
  5
1042F
  8
0
 10
229.29741958051861
 20
189.90335584913501
 30
0.0
  0
VERTEX
  5
10430
  8
0
 10
229.29529796252561
 20
189.9028009202047
 30
0.0
  0
VERTEX
  5
10431
  8
0
 10
229.2860323359582
 20
189.9003848048568
 30
0.0
  0
VERTEX
  5
10432
  8
0
 10
229.25922737548191
 20
189.89346279547991
 30
0.0
  0
VERTEX
  5
10433
  8
0
 10
229.12645539509751
 20
189.86065112504829
 30
0.0
  0
VERTEX
  5
10434
  8
0
 10
228.84508489555989
 20
189.7991177346768
 30
0.0
  0
VERTEX
  5
10435
  8
0
 10
228.55565574534
 20
189.74694656174199
 30
0.0
  0
VERTEX
  5
10436
  8
0
 10
227.9679306701739
 20
189.67489028712939
 30
0.0
  0
VERTEX
  5
10437
  8
0
 10
227.37099547081601
 20
189.64706749050441
 30
0.0
  0
VERTEX
  5
10438
  8
0
 10
226.7506940902239
 20
189.66625953977831
 30
0.0
  0
VERTEX
  5
10439
  8
0
 10
226.12773205088109
 20
189.7350648865476
 30
0.0
  0
VERTEX
  5
1043A
  8
0
 10
225.49422295177709
 20
189.8574645647258
 30
0.0
  0
SEQEND
  5
1043B
  8
0
  0
ARC
  5
F969
  8
0
 10
219.99999999999929
 20
220.0000000000025
 30
0.0
 40
31.50000000000254
 50
287.16690267116837
 51
288.83309732883311
  0
POLYLINE
  5
F96A
  8
0
 66
     1
 10
0.0
 20
0.0
 30
0.0
  0
VERTEX
  5
1043C
  8
0
 10
194.24945111591811
 20
201.85725400694511
 30
0.0
  0
VERTEX
  5
1043D
  8
0
 10
194.2477400708612
 20
201.85992391432501
 30
0.0
  0
VERTEX
  5
1043E
  8
0
 10
194.24151808660301
 20
201.86965267410179
 30
0.0
  0
VERTEX
  5
1043F
  8
0
 10
194.21837024579639
 20
201.90612557582719
 30
0.0
  0
VERTEX
  5
10440
  8
0
 10
194.1012125776378
 20
202.09785715324909
 30
0.0
  0
VERTEX
  5
10441
  8
0
 10
193.8764821185836
 20
202.50464100196919
 30
0.0
  0
VERTEX
  5
10442
  8
0
 10
193.67286094639979
 20
202.93139798587879
 30
0.0
  0
VERTEX
  5
10443
  8
0
 10
193.34231001974689
 20
203.8239075641624
 30
0.0
  0
VERTEX
  5
10444
  8
0
 10
193.1162994209075
 20
204.7818313416789
 30
0.0
  0
VERTEX
  5
10445
  8
0
 10
193.03055351960879
 20
205.46012775668521
 30
0.0
  0
SEQEND
  5
10446
  8
0
  0
POLYLINE
  5
F96B
  8
0
 66
     1
 10
0.0
 20
0.0
 30
0.0
  0
VERTEX
  5
10447
  8
0
 10
197.83774246556999
 20
198.84359980317541
 30
0.0
  0
VERTEX
  5
10448
  8
0
 10
196.9792837537278
 20
199.26600366000471
 30
0.0
  0
VERTEX
  5
10449
  8
0
 10
196.17103111503991
 20
199.79487111913721
 30
0.0
  0
VERTEX
  5
1044A
  8
0
 10
195.6647066571642
 20
200.20617147573441
 30
0.0
  0
VERTEX
  5
1044B
  8
0
 10
195.3425816071553
 20
200.50725020963179
 30
0.0
  0
VERTEX
  5
1044C
  8
0
 10
195.13772613783971
 20
200.7174507620939
 30
0.0
  0
VERTEX
  5
1044D
  8
0
 10
195.00714847581449
 20
200.85999561744359
 30
0.0
  0
VERTEX
  5
1044E
  8
0
 10
194.9235947261495
 20
200.9550105775003
 30
0.0
  0
VERTEX
  5
1044F
  8
0
 10
194.86996571606019
 20
201.01765292831999
 30
0.0
  0
VERTEX
  5
10450
  8
0
 10
194.83553969571491
 20
201.05857458689971
 30
0.0
  0
VERTEX
  5
10451
  8
0
 10
194.80599042889361
 20
201.0941542273267
 30
0.0
  0
VERTEX
  5
10452
  8
0
 10
194.79535729735011
 20
201.10706201086961
 30
0.0
  0
VERTEX
  5
10453
  8
0
 10
194.7892663693118
 20
201.1144811489566
 30
0.0
  0
VERTEX
  5
10454
  8
0
 10
194.7878659801533
 20
201.11618952209889
 30
0.0
  0
SEQEND
  5
10455
  8
0
  0
ARC
  5
F96C
  8
0
 10
219.9999999999927
 20
219.99999999999471
 30
0.0
 40
31.4999999999911
 50
215.16690267117389
 51
216.8330973288258
  0
CIRCLE
  5
F96D
  8
0
 10
219.99999999999989
 20
219.99999999999989
 30
0.0
 40
6.3000000000000007
  0
CIRCLE
  5
F96E
  8
0
 10
219.99999999999989
 20
219.99999999999989
 30
0.0
 40
7.5599999999999969
  0
LINE
  5
F96F
  8
0
 10
196.06823086234311
 20
213.00871929247359
 30
0.0
 11
194.39135021035821
 21
210.5717227705893
 31
0.0
  0
POLYLINE
  5
F970
  8
0
 66
     1
 10
0.0
 20
0.0
 30
0.0
  0
VERTEX
  5
10456
  8
0
 10
194.39135021035821
 20
210.5717227705893
 30
0.0
  0
VERTEX
  5
10457
  8
0
 10
194.04327780306761
 20
210.01786021673161
 30
0.0
  0
VERTEX
  5
10458
  8
0
 10
193.74211265833441
 20
209.4366787801998
 30
0.0
  0
VERTEX
  5
10459
  8
0
 10
193.4836574504356
 20
208.81424793707961
 30
0.0
  0
VERTEX
  5
1045A
  8
0
 10
193.27915096624599
 20
208.17159790435491
 30
0.0
  0
VERTEX
  5
1045B
  8
0
 10
193.13075129471909
 20
207.51526135830679
 30
0.0
  0
VERTEX
  5
1045C
  8
0
 10
193.03878147788021
 20
206.8482546912125
 30
0.0
  0
VERTEX
  5
1045D
  8
0
 10
193.00408317754079
 20
206.15456115892991
 30
0.0
  0
VERTEX
  5
1045E
  8
0
 10
193.03055351960879
 20
205.46012775668521
 30
0.0
  0
SEQEND
  5
1045F
  8
0
  0
POLYLINE
  5
F971
  8
0
 66
     1
 10
0.0
 20
0.0
 30
0.0
  0
VERTEX
  5
10460
  8
0
 10
197.83774246556999
 20
198.84359980317541
 30
0.0
  0
VERTEX
  5
10461
  8
0
 10
198.45113276211569
 20
198.6163068178779
 30
0.0
  0
VERTEX
  5
10462
  8
0
 10
199.08092177493009
 20
198.4406909828389
 30
0.0
  0
VERTEX
  5
10463
  8
0
 10
199.74158419386089
 20
198.31530528460411
 30
0.0
  0
VERTEX
  5
10464
  8
0
 10
200.41011539274899
 20
198.24665990424489
 30
0.0
  0
VERTEX
  5
10465
  8
0
 10
201.0853903525533
 20
198.23545690853791
 30
0.0
  0
VERTEX
  5
10466
  8
0
 10
201.7587045212239
 20
198.28199816915341
 30
0.0
  0
VERTEX
  5
10467
  8
0
 10
202.44550925208111
 20
198.3901588165524
 30
0.0
  0
VERTEX
  5
10468
  8
0
 10
203.11966751553601
 20
198.55822463560679
 30
0.0
  0
SEQEND
  5
10469
  8
0
  0
LINE
  5
F972
  8
0
 10
203.11966751553601
 20
198.55822463560679
 30
0.0
 11
205.95557355686461
 21
199.39995956623119
 31
0.0
  0
POLYLINE
  5
F973
  8
0
 66
     1
 10
0.0
 20
0.0
 30
0.0
  0
VERTEX
  5
1046A
  8
0
 10
219.25377970514771
 20
195.07911046408859
 30
0.0
  0
VERTEX
  5
1046B
  8
0
 10
218.3647848581667
 20
196.11347189812349
 30
0.0
  0
VERTEX
  5
1046C
  8
0
 10
217.36283968234051
 20
197.0480482623517
 30
0.0
  0
VERTEX
  5
1046D
  8
0
 10
216.26599530619521
 20
197.86512737967939
 30
0.0
  0
VERTEX
  5
1046E
  8
0
 10
215.0819672884663
 20
198.55528917950181
 30
0.0
  0
VERTEX
  5
1046F
  8
0
 10
213.82390893430119
 20
199.11270940444169
 30
0.0
  0
VERTEX
  5
10470
  8
0
 10
212.5159334152726
 20
199.52645415906611
 30
0.0
  0
VERTEX
  5
10471
  8
0
 10
211.1863513689361
 20
199.78809740124069
 30
0.0
  0
VERTEX
  5
10472
  8
0
 10
209.8329854253829
 20
199.90333459004179
 30
0.0
  0
VERTEX
  5
10473
  8
0
 10
208.48099742222661
 20
199.8704703979169
 30
0.0
  0
VERTEX
  5
10474
  8
0
 10
207.20516780043809
 20
199.70080468563211
 30
0.0
  0
VERTEX
  5
10475
  8
0
 10
205.95557355686461
 20
199.39995956623119
 30
0.0
  0
SEQEND
  5
10476
  8
0
  0
LINE
  5
F974
  8
0
 10
219.25377970514771
 20
195.07911046408859
 30
0.0
 11
221.05331650847251
 21
192.7312288524744
 31
0.0
  0
POLYLINE
  5
F975
  8
0
 66
     1
 10
0.0
 20
0.0
 30
0.0
  0
VERTEX
  5
10477
  8
0
 10
221.05331650847251
 20
192.7312288524744
 30
0.0
  0
VERTEX
  5
10478
  8
0
 10
221.47249705805501
 20
192.2290545221687
 30
0.0
  0
VERTEX
  5
10479
  8
0
 10
221.9321521186138
 20
191.76304728852429
 30
0.0
  0
VERTEX
  5
1047A
  8
0
 10
222.44423210426879
 20
191.3249111964623
 30
0.0
  0
VERTEX
  5
1047B
  8
0
 10
222.9922107418115
 20
190.9318320455485
 30
0.0
  0
VERTEX
  5
1047C
  8
0
 10
223.57058008918301
 20
190.5878604698172
 30
0.0
  0
VERTEX
  5
1047D
  8
0
 10
224.1765371963337
 20
190.29426244284301
 30
0.0
  0
VERTEX
  5
1047E
  8
0
 10
224.8255764558607
 20
190.046888564959
 30
0.0
  0
VERTEX
  5
1047F
  8
0
 10
225.49422295177709
 20
189.8574645647258
 30
0.0
  0
SEQEND
  5
10480
  8
0
  0
POLYLINE
  5
F976
  8
0
 66
     1
 10
0.0
 20
0.0
 30
0.0
  0
VERTEX
  5
10481
  8
0
 10
233.2724180566851
 20
192.3847533554526
 30
0.0
  0
VERTEX
  5
10482
  8
0
 10
233.80077496722151
 20
193.07177261292321
 30
0.0
  0
VERTEX
  5
10483
  8
0
 10
234.255221377623
 20
193.82166885003099
 30
0.0
  0
VERTEX
  5
10484
  8
0
 10
234.5373546204095
 20
194.4092353522814
 30
0.0
  0
VERTEX
  5
10485
  8
0
 10
234.7698918850773
 20
195.0177106891737
 30
0.0
  0
VERTEX
  5
10486
  8
0
 10
234.95559414855779
 20
195.6611189616296
 30
0.0
  0
VERTEX
  5
10487
  8
0
 10
235.0859930640722
 20
196.3175190755714
 30
0.0
  0
VERTEX
  5
10488
  8
0
 10
235.1469631598888
 20
196.81641357696651
 30
0.0
  0
VERTEX
  5
10489
  8
0
 10
235.1760305728441
 20
197.3199768162541
 30
0.0
  0
SEQEND
  5
1048A
  8
0
  0
LINE
  5
F977
  8
0
 10
235.1760305728441
 20
197.3199768162541
 30
0.0
 11
235.25183624330151
 21
200.27719413478249
 31
0.0
  0
POLYLINE
  5
F978
  8
0
 66
     1
 10
0.0
 20
0.0
 30
0.0
  0
VERTEX
  5
1048B
  8
0
 10
243.4705796323432
 20
211.58932394445151
 30
0.0
  0
VERTEX
  5
1048C
  8
0
 10
242.2121172244205
 20
211.06346916025441
 30
0.0
  0
VERTEX
  5
1048D
  8
0
 10
241.0136537379291
 20
210.39935436334551
 30
0.0
  0
VERTEX
  5
1048E
  8
0
 10
239.8976131861304
 20
209.6086742067134
 30
0.0
  0
VERTEX
  5
1048F
  8
0
 10
238.87534858413889
 20
208.6958652566922
 30
0.0
  0
VERTEX
  5
10490
  8
0
 10
237.9564524238171
 20
207.67163024581961
 30
0.0
  0
VERTEX
  5
10491
  8
0
 10
237.15877476505099
 20
206.5555234583191
 30
0.0
  0
VERTEX
  5
10492
  8
0
 10
236.49907757577461
 20
205.37186605846679
 30
0.0
  0
VERTEX
  5
10493
  8
0
 10
235.97127138050311
 20
204.1203473125949
 30
0.0
  0
VERTEX
  5
10494
  8
0
 10
235.58474388342799
 20
202.82437368075369
 30
0.0
  0
VERTEX
  5
10495
  8
0
 10
235.35185891049241
 20
201.55857624389631
 30
0.0
  0
VERTEX
  5
10496
  8
0
 10
235.25183624330151
 20
200.27719413478249
 30
0.0
  0
SEQEND
  5
10497
  8
0
  0
LINE
  5
F979
  8
0
 10
243.4705796323432
 20
211.58932394445151
 30
0.0
 11
246.25963519278929
 21
212.57524982879741
 31
0.0
  0
POLYLINE
  5
F97A
  8
0
 66
     1
 10
0.0
 20
0.0
 30
0.0
  0
VERTEX
  5
10498
  8
0
 10
246.25963519278929
 20
212.57524982879741
 30
0.0
  0
VERTEX
  5
10499
  8
0
 10
246.86679057291889
 20
212.81874521304769
 30
0.0
  0
VERTEX
  5
1049A
  8
0
 10
247.45205428405859
 20
213.11191451907339
 30
0.0
  0
VERTEX
  5
1049B
  8
0
 10
248.02701056873161
 20
213.46356099923639
 30
0.0
  0
VERTEX
  5
1049C
  8
0
 10
248.57020507360721
 20
213.86327645388471
 30
0.0
  0
VERTEX
  5
1049D
  8
0
 10
249.07604089922299
 20
214.30703367312481
 30
0.0
  0
VERTEX
  5
1049E
  8
0
 10
249.54249647785991
 20
214.79259082037211
 30
0.0
  0
VERTEX
  5
1049F
  8
0
 10
249.9783049914455
 20
215.33339997645859
 30
0.0
  0
VERTEX
  5
104A0
  8
0
 10
250.36506300635909
 20
215.91076083721711
 30
0.0
  0
SEQEND
  5
104A1
  8
0
  0
POLYLINE
  5
F97B
  8
0
 66
     1
 10
0.0
 20
0.0
 30
0.0
  0
VERTEX
  5
104A2
  8
0
 10
250.36506300635909
 20
224.0892391627828
 30
0.0
  0
VERTEX
  5
104A3
  8
0
 10
250.00241929697671
 20
224.63366482079959
 30
0.0
  0
VERTEX
  5
104A4
  8
0
 10
249.5961336806439
 20
225.14592170961569
 30
0.0
  0
VERTEX
  5
104A5
  8
0
 10
249.13534642045499
 20
225.63568849693041
 30
0.0
  0
VERTEX
  5
104A6
  8
0
 10
248.63484206149769
 20
226.08417655563011
 30
0.0
  0
VERTEX
  5
104A7
  8
0
 10
248.09511809879811
 20
226.49015663216039
 30
0.0
  0
VERTEX
  5
104A8
  8
0
 10
247.52303922717729
 20
226.84826809988701
 30
0.0
  0
VERTEX
  5
104A9
  8
0
 10
246.9038272946772
 20
227.16445799002119
 30
0.0
  0
VERTEX
  5
104AA
  8
0
 10
246.25963519278929
 20
227.4247501712025
 30
0.0
  0
SEQEND
  5
104AB
  8
0
  0
LINE
  5
F97C
  8
0
 10
246.25963519278929
 20
227.4247501712025
 30
0.0
 11
243.4705796323432
 21
228.41067605554841
 31
0.0
  0
POLYLINE
  5
F97D
  8
0
 66
     1
 10
0.0
 20
0.0
 30
0.0
  0
VERTEX
  5
104AC
  8
0
 10
235.25183624330151
 20
239.7228058652174
 30
0.0
  0
VERTEX
  5
104AD
  8
0
 10
235.3630681380431
 20
238.36343502304081
 30
0.0
  0
VERTEX
  5
104AE
  8
0
 10
235.62433466597571
 20
237.0184019710932
 30
0.0
  0
VERTEX
  5
104AF
  8
0
 10
236.0314429034776
 20
235.7126472750048
 30
0.0
  0
VERTEX
  5
104B0
  8
0
 10
236.58367985043651
 20
234.4583429736598
 30
0.0
  0
VERTEX
  5
104B1
  8
0
 10
237.27383180696179
 20
233.26791548715769
 30
0.0
  0
VERTEX
  5
104B2
  8
0
 10
238.08881749293951
 20
232.16438382168531
 30
0.0
  0
VERTEX
  5
104B3
  8
0
 10
239.01068584402719
 20
231.1712051623696
 30
0.0
  0
VERTEX
  5
104B4
  8
0
 10
240.03785061940189
 20
230.28249207966081
 30
0.0
  0
VERTEX
  5
104B5
  8
0
 10
241.15095190058261
 20
229.51440578213339
 30
0.0
  0
VERTEX
  5
104B6
  8
0
 10
242.2828267375653
 20
228.90176963265
 30
0.0
  0
VERTEX
  5
104B7
  8
0
 10
243.4705796323432
 20
228.41067605554841
 30
0.0
  0
SEQEND
  5
104B8
  8
0
  0
LINE
  5
F97E
  8
0
 10
235.25183624330151
 20
239.7228058652174
 30
0.0
 11
235.1760305728441
 21
242.6800231837457
 31
0.0
  0
POLYLINE
  5
F97F
  8
0
 66
     1
 10
0.0
 20
0.0
 30
0.0
  0
VERTEX
  5
104B9
  8
0
 10
235.1760305728441
 20
242.6800231837457
 30
0.0
  0
VERTEX
  5
104BA
  8
0
 10
235.1320737195619
 20
243.3327093279014
 30
0.0
  0
VERTEX
  5
104BB
  8
0
 10
235.03410879090961
 20
243.9799252760703
 30
0.0
  0
VERTEX
  5
104BC
  8
0
 10
234.8773430399323
 20
244.63540883603599
 30
0.0
  0
VERTEX
  5
104BD
  8
0
 10
234.6650455498183
 20
245.27553907315331
 30
0.0
  0
VERTEX
  5
104BE
  8
0
 10
234.3993195194339
 20
245.89374307112999
 30
0.0
  0
VERTEX
  5
104BF
  8
0
 10
234.081670698587
 20
246.4874112641975
 30
0.0
  0
VERTEX
  5
104C0
  8
0
 10
233.70200423247931
 20
247.06900615404831
 30
0.0
  0
VERTEX
  5
104C1
  8
0
 10
233.2724180566851
 20
247.61524664454731
 30
0.0
  0
SEQEND
  5
104C2
  8
0
  0
POLYLINE
  5
F980
  8
0
 66
     1
 10
0.0
 20
0.0
 30
0.0
  0
VERTEX
  5
104C3
  8
0
 10
225.49422295177709
 20
250.14253543527411
 30
0.0
  0
VERTEX
  5
104C4
  8
0
 10
225.27196811813559
 20
250.0866390735597
 30
0.0
  0
VERTEX
  5
104C5
  8
0
 10
224.65043917403429
 20
249.8927701089867
 30
0.0
  0
VERTEX
  5
104C6
  8
0
 10
224.0473236520765
 20
249.6484495479107
 30
0.0
  0
VERTEX
  5
104C7
  8
0
 10
223.4504591589957
 20
249.34611638111019
 30
0.0
  0
VERTEX
  5
104C8
  8
0
 10
222.88169978495441
 20
248.9945292369211
 30
0.0
  0
VERTEX
  5
104C9
  8
0
 10
222.38002569852631
 20
248.62421687795401
 30
0.0
  0
VERTEX
  5
104CA
  8
0
 10
221.90945173198219
 20
248.21569492006819
 30
0.0
  0
VERTEX
  5
104CB
  8
0
 10
221.4620609431706
 20
247.7594313131992
 30
0.0
  0
VERTEX
  5
104CC
  8
0
 10
221.05331650847251
 20
247.26877114752551
 30
0.0
  0
SEQEND
  5
104CD
  8
0
  0
LINE
  5
F981
  8
0
 10
221.05331650847251
 20
247.26877114752551
 30
0.0
 11
219.25377970514771
 21
244.9208895359113
 31
0.0
  0
POLYLINE
  5
F982
  8
0
 66
     1
 10
0.0
 20
0.0
 30
0.0
  0
VERTEX
  5
104CE
  8
0
 10
205.95557355686461
 20
240.6000404337687
 30
0.0
  0
VERTEX
  5
104CF
  8
0
 10
207.28278184599839
 20
240.28576004739321
 30
0.0
  0
VERTEX
  5
104D0
  8
0
 10
208.642717229
 20
240.118601090531
 30
0.0
  0
VERTEX
  5
104D1
  8
0
 10
210.0103642896774
 20
240.10228290027561
 30
0.0
  0
VERTEX
  5
104D2
  8
0
 10
211.37392930807471
 20
240.23988917564239
 30
0.0
  0
VERTEX
  5
104D3
  8
0
 10
212.71936205262179
 20
240.52839946397091
 30
0.0
  0
VERTEX
  5
104D4
  8
0
 10
214.02072780395471
 20
240.96248601132851
 30
0.0
  0
VERTEX
  5
104D5
  8
0
 10
215.2501702368003
 20
241.53232501708061
 30
0.0
  0
VERTEX
  5
104D6
  8
0
 10
216.41279847598969
 20
242.23458856459629
 30
0.0
  0
VERTEX
  5
104D7
  8
0
 10
217.4872597424114
 20
243.05585837857799
 30
0.0
  0
VERTEX
  5
104D8
  8
0
 10
218.41968331364021
 20
243.94302269742499
 30
0.0
  0
VERTEX
  5
104D9
  8
0
 10
219.25377970514771
 20
244.9208895359113
 30
0.0
  0
SEQEND
  5
104DA
  8
0
  0
LINE
  5
F983
  8
0
 10
205.95557355686461
 20
240.6000404337687
 30
0.0
 11
203.11966751553601
 21
241.4417753643931
 31
0.0
  0
POLYLINE
  5
F984
  8
0
 66
     1
 10
0.0
 20
0.0
 30
0.0
  0
VERTEX
  5
104DB
  8
0
 10
203.11966751553601
 20
241.4417753643931
 30
0.0
  0
VERTEX
  5
104DC
  8
0
 10
202.48534468333531
 20
241.60166060848061
 30
0.0
  0
VERTEX
  5
104DD
  8
0
 10
201.8395349611632
 20
241.7084910694565
 30
0.0
  0
VERTEX
  5
104DE
  8
0
 10
201.167692019703
 20
241.76195380670279
 30
0.0
  0
VERTEX
  5
104DF
  8
0
 10
200.49329067556519
 20
241.7578586649858
 30
0.0
  0
VERTEX
  5
104E0
  8
0
 10
199.82322779760801
 20
241.69617418634601
 30
0.0
  0
VERTEX
  5
104E1
  8
0
 10
199.16045482882731
 20
241.5775258699436
 30
0.0
  0
VERTEX
  5
104E2
  8
0
 10
198.48999960061741
 20
241.3961640107606
 30
0.0
  0
VERTEX
  5
104E3
  8
0
 10
197.83774246556999
 20
241.15640019682439
 30
0.0
  0
SEQEND
  5
104E4
  8
0
  0
POLYLINE
  5
F985
  8
0
 66
     1
 10
0.0
 20
0.0
 30
0.0
  0
VERTEX
  5
104E5
  8
0
 10
193.03055351960879
 20
234.53987224331459
 30
0.0
  0
VERTEX
  5
104E6
  8
0
 10
193.00393307065079
 20
233.8862660095937
 30
0.0
  0
VERTEX
  5
104E7
  8
0
 10
193.0315279942028
 20
233.23303278755699
 30
0.0
  0
VERTEX
  5
104E8
  8
0
 10
193.11643502384061
 20
232.5659591773555
 30
0.0
  0
VERTEX
  5
104E9
  8
0
 10
193.2577368892629
 20
231.90893563518989
 30
0.0
  0
VERTEX
  5
104EA
  8
0
 10
193.455753645649
 20
231.26324906831579
 30
0.0
  0
VERTEX
  5
104EB
  8
0
 10
193.70808253550661
 20
230.63727128115761
 30
0.0
  0
VERTEX
  5
104EC
  8
0
 10
194.0231837576743
 20
230.01750464462239
 30
0.0
  0
VERTEX
  5
104ED
  8
0
 10
194.39135021035821
 20
229.42827722941061
 30
0.0
  0
SEQEND
  5
104EE
  8
0
  0
LINE
  5
F986
  8
0
 10
194.39135021035821
 20
229.42827722941061
 30
0.0
 11
196.06823086234311
 21
226.9912807075263
 31
0.0
  0
POLYLINE
  5
F987
  8
0
 66
     1
 10
0.0
 20
0.0
 30
0.0
  0
VERTEX
  5
104EF
  8
0
 10
196.06823086234311
 20
213.00871929247359
 30
0.0
  0
VERTEX
  5
104F0
  8
0
 10
196.6042926365302
 20
213.8601732538113
 30
0.0
  0
VERTEX
  5
104F1
  8
0
 10
197.07254424534349
 20
214.75967837380281
 30
0.0
  0
VERTEX
  5
104F2
  8
0
 10
197.47329504703151
 20
215.71609308748239
 30
0.0
  0
VERTEX
  5
104F3
  8
0
 10
197.79461667200249
 20
216.71120644317301
 30
0.0
  0
VERTEX
  5
104F4
  8
0
 10
198.02394412075489
 20
217.69529752145351
 30
0.0
  0
VERTEX
  5
104F5
  8
0
 10
198.1727715051538
 20
218.70265881168089
 30
0.0
  0
VERTEX
  5
104F6
  8
0
 10
198.2384956088103
 20
219.74198048396849
 30
0.0
  0
VERTEX
  5
104F7
  8
0
 10
198.2157964819213
 20
220.7911056035172
 30
0.0
  0
VERTEX
  5
104F8
  8
0
 10
198.11127067643849
 20
221.78547362439909
 30
0.0
  0
VERTEX
  5
104F9
  8
0
 10
197.92257985986399
 20
222.7849202202114
 30
0.0
  0
VERTEX
  5
104FA
  8
0
 10
197.65256878820259
 20
223.7646994949684
 30
0.0
  0
VERTEX
  5
104FB
  8
0
 10
197.29610876141911
 20
224.73486387045401
 30
0.0
  0
VERTEX
  5
104FC
  8
0
 10
197.0353512712162
 20
225.31884225562081
 30
0.0
  0
VERTEX
  5
104FD
  8
0
 10
196.42093019760699
 20
226.44875942208489
 30
0.0
  0
VERTEX
  5
104FE
  8
0
 10
196.06823086234311
 20
226.9912807075263
 30
0.0
  0
SEQEND
  5
104FF
  8
0
  0
CIRCLE
  5
F988
  8
2
 10
219.99999999999989
 20
219.99999999999989
 30
0.0
 40
6.0
  0
POLYLINE
  5
F989
  8
4
 66
     1
 10
0.0
 20
0.0
 30
0.0
  0
VERTEX
  5
F98A
  8
4
 10
293.08472035799031
 20
216.9281120216782
 30
0.0
 42
-0.0744127175610667
  0
VERTEX
  5
F98B
  8
4
 10
292.56022520080109
 20
217.6220780156479
 30
0.0
 42
-0.1536795722212451
  0
VERTEX
  5
F98C
  8
4
 10
292.2964924250349
 20
218.966745035982
 30
0.0
 42
-0.1847247553159499
  0
VERTEX
  5
F98D
  8
4
 10
292.82999866070821
 20
219.99999999999989
 30
0.0
 42
0.1729818233278114
  0
VERTEX
  5
F98E
  8
4
 10
293.42226764483462
 20
221.08571958218079
 30
0.0
 42
0.1305645647028073
  0
VERTEX
  5
F98F
  8
4
 10
293.26685348907421
 20
222.59152601339201
 30
0.0
 42
0.0267269543158863
  0
VERTEX
  5
F990
  8
4
 10
293.11817661047252
 20
222.92811202167829
 30
0.0
  0
SEQEND
  5
F991
  8
4
  0
POLYLINE
  5
F992
  8
4
 66
     1
 10
0.0
 20
0.0
 30
0.0
  0
VERTEX
  5
F993
  8
4
 10
291.08472035799031
 20
216.9281120216782
 30
0.0
 42
-0.0744127175610667
  0
VERTEX
  5
F994
  8
4
 10
290.56022520080109
 20
217.6220780156479
 30
0.0
 42
-0.1536795722212451
  0
VERTEX
  5
F995
  8
4
 10
290.2964924250349
 20
218.966745035982
 30
0.0
 42
-0.1847247553159499
  0
VERTEX
  5
F996
  8
4
 10
290.82999866070821
 20
219.99999999999989
 30
0.0
 42
0.1729818233278114
  0
VERTEX
  5
F997
  8
4
 10
291.42226764483462
 20
221.08571958218079
 30
0.0
 42
0.1305645647028073
  0
VERTEX
  5
F998
  8
4
 10
291.26685348907421
 20
222.59152601339201
 30
0.0
 42
0.0267269543158863
  0
VERTEX
  5
F999
  8
4
 10
291.11817661047252
 20
222.92811202167829
 30
0.0
  0
SEQEND
  5
F99A
  8
4
  0
LINE
  5
FAFE
  8
2
 10
252.83955903577399
 20
107.8333333333335
 30
0.0
 11
252.8299999999999
 21
107.73124909498981
 31
0.0
  0
LINE
  5
FAFF
  8
2
 10
257.82999999999993
 20
106.575077263559
 30
0.0
 11
257.82999999999993
 21
107.8333333333332
 31
0.0
  0
LINE
  5
FB00
  8
2
 10
252.8300000000001
 20
107.7312490949903
 30
0.0
 11
252.8299999999999
 21
105.98333333333331
 31
0.0
  0
LINE
  5
FB01
  8
2
 10
257.82999999999993
 20
102.8333333333332
 30
0.0
 11
257.82999999999993
 21
104.09158940310751
 31
0.0
  0
LINE
  5
FB02
  8
2
 10
252.8299999999999
 20
104.68333333333339
 30
0.0
 11
252.8299999999999
 21
102.9354175716755
 31
0.0
  0
LINE
  5
FB03
  8
2
 10
252.8299999999999
 20
102.93541757167689
 30
0.0
 11
252.83955903577419
 21
102.83333333333211
 31
0.0
  0
LINE
  5
FB04
  8
2
 10
252.83955903577419
 20
102.83333333333211
 30
0.0
 11
257.82999999999993
 21
102.8333333333332
 31
0.0
  0
LINE
  5
FB05
  8
2
 10
252.83955903577419
 20
102.8333333333335
 30
0.0
 11
252.74421356237301
 21
102.74754689570629
 31
0.0
  0
LINE
  5
FB06
  8
2
 10
252.7442135623736
 20
102.7475468957068
 30
0.0
 11
251.3299999999999
 21
101.3333333333332
 31
0.0
  0
LINE
  5
FB07
  8
2
 10
259.32999999999993
 20
101.3333333333332
 30
0.0
 11
257.82999999999993
 21
102.8333333333332
 31
0.0
  0
LINE
  5
FB08
  8
2
 10
252.83955903577541
 20
107.83333333333211
 30
0.0
 11
257.82999999999993
 21
107.8333333333332
 31
0.0
  0
LINE
  5
FB09
  8
2
 10
257.82999999999993
 20
107.8333333333332
 30
0.0
 11
259.32999999999993
 21
109.3333333333332
 31
0.0
  0
LINE
  5
FB0A
  8
2
 10
251.3299999999999
 20
109.3333333333332
 30
0.0
 11
252.74421356237499
 21
107.91911977095781
 31
0.0
  0
LINE
  5
FB0B
  8
2
 10
252.74421356237301
 20
107.91911977096009
 30
0.0
 11
252.83955903577541
 21
107.83333333333211
 31
0.0
  0
LINE
  5
FB17
  8
1
 10
326.32999999999993
 20
99.833333333333272
 30
0.0
 11
326.32999999999993
 21
110.8333333333332
 31
0.0
  0
LINE
  5
FB18
  8
1
 10
332.82999999999993
 20
105.3333333333332
 30
0.0
 11
207.49999999999989
 21
105.3333333333332
 31
0.0
  0
LINE
  5
FB19
  8
1
 10
255.3299999999999
 20
99.833333333333272
 30
0.0
 11
255.3299999999999
 21
110.8333333333332
 31
0.0
  0
LINE
  5
FB1A
  8
1
 10
247.3299999999999
 20
96.833333333333258
 30
0.0
 11
247.3299999999999
 21
113.8333333333332
 31
0.0
  0
LINE
  5
FB1B
  8
1
 10
265.82999999999993
 20
101.5833333333332
 30
0.0
 11
265.82999999999993
 21
109.0833333333332
 31
0.0
  0
LINE
  5
FB1C
  8
1
 10
315.82999999999993
 20
100.5209827426113
 30
0.0
 11
315.82999999999959
 21
110.1456839240554
 31
0.0
  0
LINE
  5
FB1D
  8
1
 10
219.99999999999969
 20
47.0
 30
0.0
 11
220.0000000000002
 21
140.0
 31
0.0
  0
LINE
  5
FB1E
  8
0
 10
269.63625890315183
 20
105.8333333333332
 30
0.0
 11
269.29941014384872
 21
105.8333333333332
 31
0.0
  0
LINE
  5
FB1F
  8
0
 10
269.29864197891442
 20
104.8333333333332
 30
0.0
 11
269.63625890315183
 21
104.8333333333332
 31
0.0
  0
LINE
  5
FB20
  8
0
 10
275.63625890315183
 20
105.8333333333332
 30
0.0
 11
274.02374109684791
 21
105.8333333333332
 31
0.0
  0
LINE
  5
FB21
  8
0
 10
274.02374109684791
 20
104.8333333333332
 30
0.0
 11
275.63625890315183
 21
104.8333333333332
 31
0.0
  0
LINE
  5
FB22
  8
0
 10
312.32999999999993
 20
105.8333333333332
 30
0.0
 11
310.02374109684791
 21
105.8333333333332
 31
0.0
  0
LINE
  5
FB23
  8
0
 10
310.02374109684791
 20
104.8333333333332
 30
0.0
 11
312.33001515444579
 21
104.8333333333332
 31
0.0
  0
LINE
  5
FB24
  8
0
 10
287.63625890315183
 20
105.8333333333332
 30
0.0
 11
286.02374109684791
 21
105.8333333333332
 31
0.0
  0
LINE
  5
FB25
  8
0
 10
286.02374109684791
 20
104.8333333333332
 30
0.0
 11
287.63625890315183
 21
104.8333333333332
 31
0.0
  0
LINE
  5
FB26
  8
0
 10
293.63625890315183
 20
105.8333333333332
 30
0.0
 11
293.22457378222452
 21
105.8333333333332
 31
0.0
  0
LINE
  5
FB27
  8
0
 10
292.45141562118368
 20
104.8333333333332
 30
0.0
 11
293.63625890315183
 21
104.8333333333332
 31
0.0
  0
LINE
  5
FB28
  8
0
 10
305.63625890315183
 20
105.8333333333332
 30
0.0
 11
304.02374109684791
 21
105.8333333333332
 31
0.0
  0
LINE
  5
FB29
  8
0
 10
304.02374109684791
 20
104.8333333333332
 30
0.0
 11
305.63625890315183
 21
104.8333333333332
 31
0.0
  0
ARC
  5
FB2A
  8
0
 10
247.3299999999999
 20
105.3333333333332
 30
0.0
 40
6.9999999999999947
 50
34.849904579052676
 51
169.01942457239039
  0
ARC
  5
FB2B
  8
0
 10
247.32999999999899
 20
105.3333333333332
 30
0.0
 40
7.0000000000009024
 50
354.67200209599793
 51
5.3279979040020891
  0
ARC
  5
FB2C
  8
0
 10
247.3299999999999
 20
105.3333333333332
 30
0.0
 40
7.0000000000000018
 50
190.98057542760961
 51
325.15009542094731
  0
ARC
  5
FB2D
  8
0
 10
247.3299999999999
 20
105.3333333333332
 30
0.0
 40
6.0
 50
41.810314895784011
 51
167.1604115930987
  0
ARC
  5
FB2E
  8
0
 10
247.3299999999999
 20
105.3333333333332
 30
0.0
 40
5.9999999999999991
 50
192.83958840690121
 51
318.18968510421593
  0
ARC
  5
FB2F
  8
0
 10
247.3299999999999
 20
105.3333333333332
 30
0.0
 40
6.0000000000001021
 50
353.78075155711832
 51
6.2192484428817494
  0
LINE
  5
FB30
  8
0
 10
281.63625890315183
 20
105.8333333333332
 30
0.0
 11
280.02374109684791
 21
105.8333333333332
 31
0.0
  0
LINE
  5
FB31
  8
0
 10
280.02374109684791
 20
104.8333333333332
 30
0.0
 11
281.63625890315183
 21
104.8333333333332
 31
0.0
  0
LINE
  5
FB32
  8
0
 10
299.63625890315183
 20
105.8333333333332
 30
0.0
 11
298.02374109684791
 21
105.8333333333332
 31
0.0
  0
LINE
  5
FB33
  8
0
 10
298.02374109684791
 20
104.8333333333332
 30
0.0
 11
299.63625890315183
 21
104.8333333333332
 31
0.0
  0
LINE
  5
FB34
  8
0
 10
298.02374109684791
 20
104.8333333333332
 30
0.0
 11
298.02374109684791
 21
105.8333333333332
 31
0.0
  0
ARC
  5
FB35
  8
0
 10
295.82999999999993
 20
105.3333333333332
 30
0.0
 40
2.2500000000000102
 50
12.839588406901219
 51
167.1604115930987
  0
ARC
  5
FB36
  8
0
 10
295.82999999999993
 20
105.3333333333332
 30
0.0
 40
2.2499999999999911
 50
192.83958840690121
 51
347.16041159309867
  0
LINE
  5
FB37
  8
0
 10
293.63625890315183
 20
105.8333333333332
 30
0.0
 11
293.63625890315183
 21
104.8333333333332
 31
0.0
  0
LINE
  5
FB38
  8
0
 10
274.02374109684791
 20
104.8333333333332
 30
0.0
 11
274.02374109684791
 21
105.8333333333332
 31
0.0
  0
ARC
  5
FB39
  8
0
 10
271.82999999999993
 20
105.3333333333332
 30
0.0
 40
2.2499999999999898
 50
12.839588406901219
 51
167.1604115930987
  0
ARC
  5
FB3A
  8
0
 10
271.82999999999993
 20
105.3333333333332
 30
0.0
 40
2.2499999999999938
 50
192.83958840690121
 51
347.16041159309867
  0
LINE
  5
FB3B
  8
0
 10
269.63625890315183
 20
105.8333333333332
 30
0.0
 11
269.63625890315183
 21
104.8333333333332
 31
0.0
  0
LINE
  5
FB3C
  8
0
 10
304.02374109684791
 20
104.8333333333332
 30
0.0
 11
304.02374109684791
 21
105.8333333333332
 31
0.0
  0
ARC
  5
FB3D
  8
0
 10
301.82999999999993
 20
105.3333333333332
 30
0.0
 40
2.250000000000008
 50
12.839588406901219
 51
167.1604115930987
  0
ARC
  5
FB3E
  8
0
 10
301.82999999999993
 20
105.3333333333332
 30
0.0
 40
2.2499999999999898
 50
192.83958840690121
 51
347.16041159309867
  0
LINE
  5
FB3F
  8
0
 10
299.63625890315183
 20
105.8333333333332
 30
0.0
 11
299.63625890315183
 21
104.8333333333332
 31
0.0
  0
ARC
  5
FB40
  8
0
 10
289.82999999999981
 20
105.3333333333332
 30
0.0
 40
2.249999999999996
 50
43.635208627006058
 51
167.1604115930987
  0
ARC
  5
FB41
  8
0
 10
289.82999999999981
 20
105.3333333333332
 30
0.0
 40
2.2500000000000022
 50
192.83958840690121
 51
286.1681491524738
  0
LINE
  5
FB42
  8
0
 10
287.63625890315183
 20
105.8333333333332
 30
0.0
 11
287.63625890315183
 21
104.8333333333332
 31
0.0
  0
LINE
  5
FB43
  8
0
 10
280.02374109684791
 20
104.8333333333332
 30
0.0
 11
280.02374109684791
 21
105.8333333333332
 31
0.0
  0
ARC
  5
FB44
  8
0
 10
277.82999999999993
 20
105.3333333333332
 30
0.0
 40
2.2500000000000022
 50
12.839588406901219
 51
167.1604115930987
  0
ARC
  5
FB45
  8
0
 10
277.82999999999993
 20
105.3333333333332
 30
0.0
 40
2.2499999999999991
 50
192.83958840690121
 51
347.16041159309867
  0
LINE
  5
FB46
  8
0
 10
275.63625890315183
 20
105.8333333333332
 30
0.0
 11
275.63625890315183
 21
104.8333333333332
 31
0.0
  0
LINE
  5
FB47
  8
0
 10
310.02374109684791
 20
104.8333333333332
 30
0.0
 11
310.02374109684791
 21
105.8333333333332
 31
0.0
  0
ARC
  5
FB48
  8
0
 10
307.82999999999993
 20
105.3333333333332
 30
0.0
 40
2.2499999999999858
 50
12.839588406901219
 51
167.1604115930987
  0
ARC
  5
FB49
  8
0
 10
307.82999999999993
 20
105.3333333333332
 30
0.0
 40
2.2499999999999951
 50
192.83958840690121
 51
347.16041159309867
  0
LINE
  5
FB4A
  8
0
 10
305.63625890315183
 20
105.8333333333332
 30
0.0
 11
305.63625890315183
 21
104.8333333333332
 31
0.0
  0
LINE
  5
FB4B
  8
0
 10
286.02374109684791
 20
104.8333333333332
 30
0.0
 11
286.02374109684791
 21
105.8333333333332
 31
0.0
  0
ARC
  5
FB4C
  8
0
 10
283.82999999999993
 20
105.3333333333332
 30
0.0
 40
2.2499999999999969
 50
12.839588406901219
 51
167.1604115930987
  0
ARC
  5
FB4D
  8
0
 10
283.82999999999993
 20
105.3333333333332
 30
0.0
 40
2.2499999999999889
 50
192.83958840690121
 51
347.16041159309867
  0
LINE
  5
FB4E
  8
0
 10
281.63625890315183
 20
105.8333333333332
 30
0.0
 11
281.63625890315183
 21
104.8333333333332
 31
0.0
  0
ARC
  5
FB4F
  8
0
 10
265.82999999999993
 20
105.3333333333332
 30
0.0
 40
2.25
 50
65.209939279444711
 51
294.61952935823098
  0
POLYLINE
  5
FB50
  8
0
 66
     1
 10
0.0
 20
0.0
 30
0.0
  0
VERTEX
  5
10500
  8
0
 10
268.85986376836257
 20
107.2148385224834
 30
0.0
  0
VERTEX
  5
10501
  8
0
 10
269.05605979206001
 20
106.7881454950891
 30
0.0
  0
VERTEX
  5
10502
  8
0
 10
269.20121185626402
 20
106.340169349733
 30
0.0
  0
VERTEX
  5
10503
  8
0
 10
269.2967745365799
 20
105.8478231543595
 30
0.0
  0
VERTEX
  5
10504
  8
0
 10
269.32998260863008
 20
105.34512869916691
 30
0.0
  0
VERTEX
  5
10505
  8
0
 10
269.32999999999993
 20
105.3333333333332
 30
0.0
  0
SEQEND
  5
10506
  8
0
  0
POLYLINE
  5
FB51
  8
0
 66
     1
 10
0.0
 20
0.0
 30
0.0
  0
VERTEX
  5
10507
  8
0
 10
269.32999999999993
 20
105.3333333333332
 30
0.0
  0
VERTEX
  5
10508
  8
0
 10
269.32998260863008
 20
105.32153796749979
 30
0.0
  0
VERTEX
  5
10509
  8
0
 10
269.29773324556612
 20
104.82629004915751
 30
0.0
  0
VERTEX
  5
1050A
  8
0
 10
269.20121185626402
 20
104.3264973169337
 30
0.0
  0
VERTEX
  5
1050B
  8
0
 10
269.06008797630727
 20
103.8888806034019
 30
0.0
  0
VERTEX
  5
1050C
  8
0
 10
268.85986376836257
 20
103.4518281441831
 30
0.0
  0
SEQEND
  5
1050D
  8
0
  0
LINE
  5
FB52
  8
0
 10
322.75139684111599
 20
100.5229652763739
 30
0.0
 11
312.800136231637
 21
102.7291066400644
 31
0.0
  0
LINE
  5
FB53
  8
0
 10
312.800136231637
 20
107.9375600266023
 30
0.0
 11
322.75139684111599
 21
110.1437013902928
 31
0.0
  0
POLYLINE
  5
FB54
  8
0
 66
     1
 10
0.0
 20
0.0
 30
0.0
  0
VERTEX
  5
1050E
  8
0
 10
312.36137303340291
 20
105.3333333333332
 30
0.0
  0
VERTEX
  5
1050F
  8
0
 10
312.35795408405551
 20
105.4981021361141
 30
0.0
  0
VERTEX
  5
10510
  8
0
 10
312.34920979516932
 20
105.6442845431304
 30
0.0
  0
VERTEX
  5
10511
  8
0
 10
312.33890563991281
 20
105.7562212512496
 30
0.0
  0
VERTEX
  5
10512
  8
0
 10
312.33154912809272
 20
105.8207852540943
 30
0.0
  0
VERTEX
  5
10513
  8
0
 10
312.33000000000351
 20
105.8333333333034
 30
0.0
  0
SEQEND
  5
10514
  8
0
  0
POLYLINE
  5
FB55
  8
0
 66
     1
 10
0.0
 20
0.0
 30
0.0
  0
VERTEX
  5
10515
  8
0
 10
312.800136231637
 20
107.9375600266023
 30
0.0
  0
VERTEX
  5
10516
  8
0
 10
312.6039402079395
 20
107.8554539541858
 30
0.0
  0
VERTEX
  5
10517
  8
0
 10
312.45878814373549
 20
107.72321126681619
 30
0.0
  0
VERTEX
  5
10518
  8
0
 10
312.36322546341978
 20
107.54867484139319
 30
0.0
  0
VERTEX
  5
10519
  8
0
 10
312.33001739136938
 20
107.35635072019861
 30
0.0
  0
VERTEX
  5
1051A
  8
0
 10
312.32999999999993
 20
107.3517824223304
 30
0.0
  0
SEQEND
  5
1051B
  8
0
  0
POLYLINE
  5
FB56
  8
0
 66
     1
 10
0.0
 20
0.0
 30
0.0
  0
VERTEX
  5
1051C
  8
0
 10
312.32999999999993
 20
103.3148842443363
 30
0.0
  0
VERTEX
  5
1051D
  8
0
 10
312.33001739136938
 20
103.3103159464699
 30
0.0
  0
VERTEX
  5
1051E
  8
0
 10
312.36226675443339
 20
103.12077354942581
 30
0.0
  0
VERTEX
  5
1051F
  8
0
 10
312.45878814373549
 20
102.94345539985029
 30
0.0
  0
VERTEX
  5
10520
  8
0
 10
312.59991202369241
 20
102.8138433997965
 30
0.0
  0
VERTEX
  5
10521
  8
0
 10
312.69251810792269
 20
102.76388301844349
 30
0.0
  0
VERTEX
  5
10522
  8
0
 10
312.800136231637
 20
102.7291066400644
 30
0.0
  0
SEQEND
  5
10523
  8
0
  0
LINE
  5
FB57
  8
0
 10
312.32999999999993
 20
107.3517824223304
 30
0.0
 11
312.32999999999993
 21
105.8270384659706
 31
0.0
  0
LINE
  5
FB58
  8
0
 10
312.32999999999993
 20
104.8333333333332
 30
0.0
 11
312.32999999999993
 21
103.3148842443363
 31
0.0
  0
POLYLINE
  5
FB59
  8
0
 66
     1
 10
0.0
 20
0.0
 30
0.0
  0
VERTEX
  5
10524
  8
0
 10
312.32999999999993
 20
104.8333333333335
 30
0.0
  0
VERTEX
  5
10525
  8
0
 10
312.33335435983889
 20
104.86091786680321
 30
0.0
  0
VERTEX
  5
10526
  8
0
 10
312.34202227129248
 20
104.94094785364921
 30
0.0
  0
VERTEX
  5
10527
  8
0
 10
312.35233946919487
 20
105.0654092800573
 30
0.0
  0
VERTEX
  5
10528
  8
0
 10
312.3597747277085
 20
105.22068914689
 30
0.0
  0
VERTEX
  5
10529
  8
0
 10
312.36137303340291
 20
105.3333333333332
 30
0.0
  0
SEQEND
  5
1052A
  8
0
  0
CIRCLE
  5
FB5A
  8
0
 10
326.32999999999993
 20
105.3333333333332
 30
0.0
 40
2.5000000000000022
  0
LINE
  5
FB5B
  8
0
 10
324.48291375262068
 20
110.3333333333332
 30
0.0
 11
326.32999999999993
 21
110.3333333333332
 31
0.0
  0
ARC
  5
FB5C
  8
0
 10
326.32999999999993
 20
105.3333333333332
 30
0.0
 40
5.0000000000000018
 50
0.0
 51
90.0
  0
ARC
  5
FB5D
  8
0
 10
326.32999999999993
 20
105.3333333333332
 30
0.0
 40
4.999999999999976
 50
270.0
 51
0.0
  0
ARC
  5
FB5E
  8
0
 10
324.48291375262068
 20
108.333333333331
 30
0.0
 40
7.9999999999977458
 50
257.50000000000227
 51
270.0
  0
CIRCLE
  5
FB5F
  8
0
 10
326.32999999999993
 20
105.3333333333332
 30
0.0
 40
4.0000000000000044
  0
LINE
  5
FB60
  8
0
 10
324.48291375262068
 20
100.3333333333332
 30
0.0
 11
326.32999999999993
 21
100.3333333333332
 31
0.0
  0
ARC
  5
FB61
  8
0
 10
324.48291375262102
 20
102.33333333333231
 30
0.0
 40
8.0000000000009113
 50
90.0
 51
102.4999999999977
  0
LINE
  5
FB62
  8
0
 10
265.32999999999993
 20
101.3333333333332
 30
0.0
 11
250.92999999999981
 21
101.3333333333332
 31
0.0
  0
LINE
  5
FB63
  8
0
 10
250.92999999999981
 20
109.3333333333332
 30
0.0
 11
265.32999999999993
 21
109.3333333333332
 31
0.0
  0
POLYLINE
  5
FB64
  8
0
 66
     1
 10
0.0
 20
0.0
 30
0.0
  0
VERTEX
  5
1052B
  8
0
 10
268.85986376836257
 20
103.4518281441831
 30
0.0
  0
VERTEX
  5
1052C
  8
0
 10
268.68244758878512
 20
103.15133994094001
 30
0.0
  0
VERTEX
  5
1052D
  8
0
 10
268.47951725879369
 20
102.8674580249367
 30
0.0
  0
VERTEX
  5
1052E
  8
0
 10
268.2526172007324
 20
102.60234290896661
 30
0.0
  0
VERTEX
  5
1052F
  8
0
 10
268.00347426104872
 20
102.3580122791429
 30
0.0
  0
VERTEX
  5
10530
  8
0
 10
267.73398456795093
 20
102.13632563908961
 30
0.0
  0
VERTEX
  5
10531
  8
0
 10
267.4461991007251
 20
101.9389701579955
 30
0.0
  0
VERTEX
  5
10532
  8
0
 10
267.14230808054702
 20
101.7674478302383
 30
0.0
  0
VERTEX
  5
10533
  8
0
 10
266.8246243015746
 20
101.62306404430019
 30
0.0
  0
VERTEX
  5
10534
  8
0
 10
266.49556552918818
 20
101.50691764797349
 30
0.0
  0
VERTEX
  5
10535
  8
0
 10
266.15763609933691
 20
101.41989258546531
 30
0.0
  0
VERTEX
  5
10536
  8
0
 10
265.81340785902938
 20
101.3626511700483
 30
0.0
  0
VERTEX
  5
10537
  8
0
 10
265.46550059302479
 20
101.3356290434576
 30
0.0
  0
VERTEX
  5
10538
  8
0
 10
265.32999999999993
 20
101.3333333333332
 30
0.0
  0
SEQEND
  5
10539
  8
0
  0
POLYLINE
  5
FB65
  8
0
 66
     1
 10
0.0
 20
0.0
 30
0.0
  0
VERTEX
  5
1053A
  8
0
 10
265.32999999999993
 20
109.3333333333332
 30
0.0
  0
VERTEX
  5
1053B
  8
0
 10
265.67862297099049
 20
109.3181121257003
 30
0.0
  0
VERTEX
  5
1053C
  8
0
 10
266.02459271066749
 20
109.27256434538209
 30
0.0
  0
VERTEX
  5
1053D
  8
0
 10
266.36527618041009
 20
109.19703663848961
 30
0.0
  0
VERTEX
  5
1053E
  8
0
 10
266.69808057330249
 20
109.09210381647701
 30
0.0
  0
VERTEX
  5
1053F
  8
0
 10
267.02047304696271
 20
108.9585644814799
 30
0.0
  0
VERTEX
  5
10540
  8
0
 10
267.32999999999993
 20
108.79743494847111
 30
0.0
  0
VERTEX
  5
10541
  8
0
 10
267.62430574540389
 20
108.60994151048931
 30
0.0
  0
VERTEX
  5
10542
  8
0
 10
267.90115043874601
 20
108.3975111058091
 30
0.0
  0
VERTEX
  5
10543
  8
0
 10
268.15842712474608
 20
108.1617604580795
 30
0.0
  0
VERTEX
  5
10544
  8
0
 10
268.39417777247581
 20
107.9044837720794
 30
0.0
  0
VERTEX
  5
10545
  8
0
 10
268.60660817715592
 20
107.6276390787375
 30
0.0
  0
VERTEX
  5
10546
  8
0
 10
268.79410161513761
 20
107.3333333333332
 30
0.0
  0
VERTEX
  5
10547
  8
0
 10
268.85986376836257
 20
107.2148385224834
 30
0.0
  0
SEQEND
  5
10548
  8
0
  0
POLYLINE
  5
FB66
  8
0
 66
     1
 10
0.0
 20
0.0
 30
0.0
  0
VERTEX
  5
10549
  8
0
 10
263.78217378102681
 20
107.2965536459471
 30
0.0
  0
VERTEX
  5
1054A
  8
0
 10
263.64057708455618
 20
107.1946086077414
 30
0.0
  0
VERTEX
  5
1054B
  8
0
 10
263.49063411074121
 20
107.1053924664356
 30
0.0
  0
VERTEX
  5
1054C
  8
0
 10
263.33348601614961
 20
107.02958421073551
 30
0.0
  0
VERTEX
  5
1054D
  8
0
 10
263.17032879267038
 20
106.96776078724091
 30
0.0
  0
VERTEX
  5
1054E
  8
0
 10
263.00240416529141
 20
106.9203927095343
 30
0.0
  0
VERTEX
  5
1054F
  8
0
 10
262.83099014182221
 20
106.8878404772895
 30
0.0
  0
VERTEX
  5
10550
  8
0
 10
262.6660098849178
 20
106.87086029919421
 30
0.0
  0
SEQEND
  5
10551
  8
0
  0
POLYLINE
  5
FB67
  8
0
 66
     1
 10
0.0
 20
0.0
 30
0.0
  0
VERTEX
  5
10552
  8
0
 10
263.78217378102681
 20
107.2965536459471
 30
0.0
  0
VERTEX
  5
10553
  8
0
 10
263.9591696516145
 20
107.423984943704
 30
0.0
  0
VERTEX
  5
10554
  8
0
 10
264.14659836888347
 20
107.5355051203362
 30
0.0
  0
VERTEX
  5
10555
  8
0
 10
264.34303348712268
 20
107.63026543996151
 30
0.0
  0
VERTEX
  5
10556
  8
0
 10
264.54698001647188
 20
107.7075447193299
 30
0.0
  0
VERTEX
  5
10557
  8
0
 10
264.75688580069573
 20
107.76675481646269
 30
0.0
  0
VERTEX
  5
10558
  8
0
 10
264.97115333003228
 20
107.80744510676909
 30
0.0
  0
VERTEX
  5
10559
  8
0
 10
265.18815189920491
 20
107.82930591256989
 30
0.0
  0
VERTEX
  5
1055A
  8
0
 10
265.40623001807461
 20
107.8321708599333
 30
0.0
  0
VERTEX
  5
1055B
  8
0
 10
265.6237279804779
 20
107.81601814488
 30
0.0
  0
VERTEX
  5
1055C
  8
0
 10
265.83899049559199
 20
107.7809706993246
 30
0.0
  0
VERTEX
  5
1055D
  8
0
 10
266.05037928569772
 20
107.7272952554904
 30
0.0
  0
VERTEX
  5
1055E
  8
0
 10
266.25628555446241
 20
107.6554003159146
 30
0.0
  0
VERTEX
  5
1055F
  8
0
 10
266.45514223085092
 20
107.5658330444992
 30
0.0
  0
VERTEX
  5
10560
  8
0
 10
266.6454358954835
 20
107.4592751022614
 30
0.0
  0
VERTEX
  5
10561
  8
0
 10
266.82571829866941
 20
107.3365374594834
 30
0.0
  0
VERTEX
  5
10562
  8
0
 10
266.99461738246322
 20
107.1985542237378
 30
0.0
  0
VERTEX
  5
10563
  8
0
 10
267.15084772285257
 20
107.0463755307651
 30
0.0
  0
VERTEX
  5
10564
  8
0
 10
267.29322031261353
 20
106.8811595523066
 30
0.0
  0
VERTEX
  5
10565
  8
0
 10
267.42065161037061
 20
106.7041636817187
 30
0.0
  0
VERTEX
  5
10566
  8
0
 10
267.5321717870026
 20
106.5167349644496
 30
0.0
  0
VERTEX
  5
10567
  8
0
 10
267.62693210662781
 20
106.3202998462104
 30
0.0
  0
VERTEX
  5
10568
  8
0
 10
267.70421138599647
 20
106.11635331686151
 30
0.0
  0
VERTEX
  5
10569
  8
0
 10
267.76342148312932
 20
105.9064475326374
 30
0.0
  0
VERTEX
  5
1056A
  8
0
 10
267.80411177343552
 20
105.69218000330081
 30
0.0
  0
VERTEX
  5
1056B
  8
0
 10
267.82597257923629
 20
105.4751814341284
 30
0.0
  0
VERTEX
  5
1056C
  8
0
 10
267.82883752659973
 20
105.2571033152585
 30
0.0
  0
VERTEX
  5
1056D
  8
0
 10
267.8126848115466
 20
105.0396053528552
 30
0.0
  0
VERTEX
  5
1056E
  8
0
 10
267.77763736599121
 20
104.8243428377411
 30
0.0
  0
VERTEX
  5
1056F
  8
0
 10
267.72396192215678
 20
104.6129540476354
 30
0.0
  0
VERTEX
  5
10570
  8
0
 10
267.65206698258112
 20
104.4070477788709
 30
0.0
  0
VERTEX
  5
10571
  8
0
 10
267.56249971116557
 20
104.2081911024822
 30
0.0
  0
VERTEX
  5
10572
  8
0
 10
267.45594176892791
 20
104.0178974378498
 30
0.0
  0
VERTEX
  5
10573
  8
0
 10
267.33320412615012
 20
103.8376150346637
 30
0.0
  0
VERTEX
  5
10574
  8
0
 10
267.19522089040441
 20
103.66871595087009
 30
0.0
  0
VERTEX
  5
10575
  8
0
 10
267.04304219743148
 20
103.5124856104805
 30
0.0
  0
VERTEX
  5
10576
  8
0
 10
266.87782621897298
 20
103.3701130207196
 30
0.0
  0
VERTEX
  5
10577
  8
0
 10
266.7008303483853
 20
103.2426817229627
 30
0.0
  0
VERTEX
  5
10578
  8
0
 10
266.51340163111621
 20
103.1311615463305
 30
0.0
  0
VERTEX
  5
10579
  8
0
 10
266.31696651287677
 20
103.03640122670519
 30
0.0
  0
VERTEX
  5
1057A
  8
0
 10
266.11301998352781
 20
102.9591219473368
 30
0.0
  0
VERTEX
  5
1057B
  8
0
 10
265.90311419930413
 20
102.89991185020379
 30
0.0
  0
VERTEX
  5
1057C
  8
0
 10
265.6888466699674
 20
102.85922155989761
 30
0.0
  0
VERTEX
  5
1057D
  8
0
 10
265.47184810079477
 20
102.83736075409681
 30
0.0
  0
VERTEX
  5
1057E
  8
0
 10
265.25376998192519
 20
102.8344958067334
 30
0.0
  0
VERTEX
  5
1057F
  8
0
 10
265.03627201952179
 20
102.8506485217867
 30
0.0
  0
VERTEX
  5
10580
  8
0
 10
264.82100950440781
 20
102.8856959673419
 30
0.0
  0
VERTEX
  5
10581
  8
0
 10
264.60962071430203
 20
102.9393714111763
 30
0.0
  0
VERTEX
  5
10582
  8
0
 10
264.40371444553728
 20
103.011266350752
 30
0.0
  0
VERTEX
  5
10583
  8
0
 10
264.2048577691487
 20
103.1008336221675
 30
0.0
  0
VERTEX
  5
10584
  8
0
 10
264.01456410451618
 20
103.2073915644053
 30
0.0
  0
VERTEX
  5
10585
  8
0
 10
263.83428170133033
 20
103.33012920718301
 30
0.0
  0
VERTEX
  5
10586
  8
0
 10
263.78217378102681
 20
103.3701130207196
 30
0.0
  0
SEQEND
  5
10587
  8
0
  0
POLYLINE
  5
FB68
  8
0
 66
     1
 10
0.0
 20
0.0
 30
0.0
  0
VERTEX
  5
10588
  8
0
 10
262.6660098849178
 20
103.7958063674723
 30
0.0
  0
VERTEX
  5
10589
  8
0
 10
262.8395316281073
 20
103.77756849735241
 30
0.0
  0
VERTEX
  5
1058A
  8
0
 10
263.01080353355991
 20
103.7442766114241
 30
0.0
  0
VERTEX
  5
1058B
  8
0
 10
263.17852211865818
 20
103.6961840810411
 30
0.0
  0
VERTEX
  5
1058C
  8
0
 10
263.34141094369841
 20
103.6336569193988
 30
0.0
  0
VERTEX
  5
1058D
  8
0
 10
263.49823032636732
 20
103.5571709959526
 30
0.0
  0
VERTEX
  5
1058E
  8
0
 10
263.64778677647217
 20
103.467308414763
 30
0.0
  0
VERTEX
  5
1058F
  8
0
 10
263.78217378102681
 20
103.3701130207196
 30
0.0
  0
SEQEND
  5
10590
  8
0
  0
LINE
  5
FB69
  8
0
 10
250.52999999999969
 20
104.68333333333339
 30
0.0
 11
256.12999999999982
 21
104.68333333333339
 31
0.0
  0
POLYLINE
  5
FB6A
  8
0
 66
     1
 10
0.0
 20
0.0
 30
0.0
  0
VERTEX
  5
10591
  8
0
 10
250.92999999999981
 20
101.3333333333332
 30
0.0
  0
VERTEX
  5
10592
  8
0
 10
250.820428325667
 20
101.3434231298413
 30
0.0
  0
VERTEX
  5
10593
  8
0
 10
250.72116366673129
 20
101.37085010166599
 30
0.0
  0
VERTEX
  5
10594
  8
0
 10
250.55407161154741
 20
101.4657033014111
 30
0.0
  0
VERTEX
  5
10595
  8
0
 10
250.4574070481105
 20
101.5636633429008
 30
0.0
  0
VERTEX
  5
10596
  8
0
 10
250.38783566814999
 20
101.67631614077639
 30
0.0
  0
VERTEX
  5
10597
  8
0
 10
250.345010322045
 20
101.79996513364669
 30
0.0
  0
VERTEX
  5
10598
  8
0
 10
250.3300178571989
 20
101.9287042591167
 30
0.0
  0
VERTEX
  5
10599
  8
0
 10
250.3299999999999
 20
101.93333333333339
 30
0.0
  0
SEQEND
  5
1059A
  8
0
  0
POLYLINE
  5
FB6B
  8
0
 66
     1
 10
0.0
 20
0.0
 30
0.0
  0
VERTEX
  5
1059B
  8
0
 10
250.3299999999999
 20
104.48333333333331
 30
0.0
  0
VERTEX
  5
1059C
  8
0
 10
250.33001923084009
 20
104.4861067728948
 30
0.0
  0
VERTEX
  5
1059D
  8
0
 10
250.3561572833859
 20
104.5822206928917
 30
0.0
  0
VERTEX
  5
1059E
  8
0
 10
250.4333846549591
 20
104.6584489383112
 30
0.0
  0
VERTEX
  5
1059F
  8
0
 10
250.477616876084
 20
104.6763514887716
 30
0.0
  0
VERTEX
  5
105A0
  8
0
 10
250.52999999999969
 20
104.68333333333339
 30
0.0
  0
SEQEND
  5
105A1
  8
0
  0
LINE
  5
FB6C
  8
0
 10
250.3299999999999
 20
104.48333333333331
 30
0.0
 11
250.3299999999999
 21
101.93333333333339
 31
0.0
  0
LINE
  5
FB6D
  8
0
 10
255.8299999999999
 20
105.98333333333331
 30
0.0
 11
250.5299999970197
 21
105.98333333333331
 31
0.0
  0
POLYLINE
  5
FB6E
  8
0
 66
     1
 10
0.0
 20
0.0
 30
0.0
  0
VERTEX
  5
105A2
  8
0
 10
250.5299999970197
 20
105.98333333333331
 30
0.0
  0
VERTEX
  5
105A3
  8
0
 10
250.4778415346677
 20
105.9902543482153
 30
0.0
  0
VERTEX
  5
105A4
  8
0
 10
250.43338465282699
 20
106.00821772953191
 30
0.0
  0
VERTEX
  5
105A5
  8
0
 10
250.35675813803499
 20
106.0833970673286
 30
0.0
  0
VERTEX
  5
105A6
  8
0
 10
250.33001923084009
 20
106.1805598937719
 30
0.0
  0
VERTEX
  5
105A7
  8
0
 10
250.3299999999999
 20
106.18333333333339
 30
0.0
  0
SEQEND
  5
105A8
  8
0
  0
POLYLINE
  5
FB6F
  8
0
 66
     1
 10
0.0
 20
0.0
 30
0.0
  0
VERTEX
  5
105A9
  8
0
 10
250.3299999999999
 20
108.73333333333331
 30
0.0
  0
VERTEX
  5
105AA
  8
0
 10
250.3300178571989
 20
108.7379624075499
 30
0.0
  0
VERTEX
  5
105AB
  8
0
 10
250.34422240117459
 20
108.86319712626531
 30
0.0
  0
VERTEX
  5
105AC
  8
0
 10
250.3852881672089
 20
108.9849064225491
 30
0.0
  0
VERTEX
  5
105AD
  8
0
 10
250.45493607166389
 20
109.09982243821101
 30
0.0
  0
VERTEX
  5
105AE
  8
0
 10
250.55407161154741
 20
109.2009633652553
 30
0.0
  0
VERTEX
  5
105AF
  8
0
 10
250.71688142495941
 20
109.29420807244421
 30
0.0
  0
VERTEX
  5
105B0
  8
0
 10
250.81722663976251
 20
109.3226398488418
 30
0.0
  0
VERTEX
  5
105B1
  8
0
 10
250.92999999999981
 20
109.3333333333332
 30
0.0
  0
SEQEND
  5
105B2
  8
0
  0
LINE
  5
FB70
  8
0
 10
250.3299999999999
 20
108.73333333333331
 30
0.0
 11
250.3299999999999
 21
106.18333333333339
 31
0.0
  0
ARC
  5
FB71
  8
0
 10
255.8299999999999
 20
106.48333333333331
 30
0.0
 40
0.4999999999999929
 50
270.0
 51
0.0
  0
LINE
  5
FB72
  8
0
 10
256.32999999999993
 20
106.48333333333331
 30
0.0
 11
262.6660098849178
 21
106.87086029919421
 31
0.0
  0
LINE
  5
FB73
  8
0
 10
262.6660098849178
 20
103.7958063674723
 30
0.0
 11
256.32999999999993
 21
104.18333333333339
 31
0.0
  0
LINE
  5
FB74
  8
0
 10
256.32999999999993
 20
104.18333333333339
 30
0.0
 11
256.32999999999993
 21
104.48333333333331
 31
0.0
  0
ARC
  5
FB75
  8
0
 10
256.12999999999982
 20
104.48333333333331
 30
0.0
 40
0.1999999999999886
 50
0.0
 51
90.0
  0
LINE
  5
FB76
  8
0
 10
251.5
 20
117.7341274238422
 30
0.0
 11
251.5
 21
133.29741003458341
 31
0.0
  0
ARC
  5
FB77
  8
0
 10
250.99999999999989
 20
117.73412742384239
 30
0.0
 40
0.4999999999999988
 50
284.99999999999449
 51
0.0
  0
ARC
  5
FB78
  8
0
 10
250.49999999999989
 20
133.29741003458341
 30
0.0
 40
1.0000000000000251
 50
0.0
 51
81.999999999999218
  0
ARC
  5
FB79
  8
0
 10
242.66666119968289
 20
105.3333333333332
 30
0.0
 40
1.333333333333333
 50
270.0
 51
90.0
  0
POLYLINE
  5
FB7A
  8
0
 66
     1
 10
0.0
 20
0.0
 30
0.0
  0
VERTEX
  5
105B3
  8
0
 10
251.00566399878781
 20
117.2511645106979
 30
0.0
  0
VERTEX
  5
105B4
  8
0
 10
251.19396223158239
 20
117.31461602814549
 30
0.0
  0
VERTEX
  5
105B5
  8
0
 10
251.37595831920629
 20
117.441653947174
 30
0.0
  0
VERTEX
  5
105B6
  8
0
 10
251.4806314037088
 20
117.62507878334981
 30
0.0
  0
VERTEX
  5
105B7
  8
0
 10
251.48727639160319
 20
117.6504648189525
 30
0.0
  0
VERTEX
  5
105B8
  8
0
 10
251.4911034469757
 20
117.66963203536029
 30
0.0
  0
VERTEX
  5
105B9
  8
0
 10
251.49341070861411
 20
117.68473348727861
 30
0.0
  0
VERTEX
  5
105BA
  8
0
 10
251.49483540819389
 20
117.6970490542969
 30
0.0
  0
VERTEX
  5
105BB
  8
0
 10
251.49610344987011
 20
117.7135104662493
 30
0.0
  0
VERTEX
  5
105BC
  8
0
 10
251.49645580952091
 20
117.72144555344561
 30
0.0
  0
VERTEX
  5
105BD
  8
0
 10
251.49665607761469
 20
117.7308731124196
 30
0.0
  0
VERTEX
  5
105BE
  8
0
 10
251.49667019251081
 20
117.7341274238422
 30
0.0
  0
SEQEND
  5
105BF
  8
0
  0
POLYLINE
  5
FB7B
  8
0
 66
     1
 10
0.0
 20
0.0
 30
0.0
  0
VERTEX
  5
105C0
  8
0
 10
251.49667019251081
 20
133.29741003458361
 30
0.0
  0
VERTEX
  5
105C1
  8
0
 10
251.49648512485729
 20
133.3140743771614
 30
0.0
  0
VERTEX
  5
105C2
  8
0
 10
251.4958003943411
 20
133.3335325635835
 30
0.0
  0
VERTEX
  5
105C3
  8
0
 10
251.49308915719411
 20
133.37066872512241
 30
0.0
  0
VERTEX
  5
105C4
  8
0
 10
251.4751747081481
 20
133.4763091036809
 30
0.0
  0
VERTEX
  5
105C5
  8
0
 10
251.4177110496789
 20
133.63827172615939
 30
0.0
  0
VERTEX
  5
105C6
  8
0
 10
251.3317754487841
 20
133.7796618143602
 30
0.0
  0
VERTEX
  5
105C7
  8
0
 10
251.17125511559871
 20
133.95374337133649
 30
0.0
  0
VERTEX
  5
105C8
  8
0
 10
250.9585586364928
 20
134.1026559707154
 30
0.0
  0
VERTEX
  5
105C9
  8
0
 10
250.6943857444293
 20
134.21730385212641
 30
0.0
  0
VERTEX
  5
105CA
  8
0
 10
250.36506300635889
 20
134.28767810332511
 30
0.0
  0
SEQEND
  5
105CB
  8
0
  0
LINE
  5
FB7C
  8
0
 10
251.00566399878781
 20
117.2511645106979
 30
0.0
 11
245.2947283813937
 21
116.0
 31
0.0
  0
LINE
  5
FB7D
  8
0
 10
246.77499999999711
 20
116.08440399561501
 30
0.0
 11
251.12940952255121
 21
117.2511645106979
 31
0.0
  0
LINE
  5
FB7E
  8
0
 10
246.77499999999981
 20
116.0844039956157
 30
0.0
 11
246.3654999999998
 21
116.0
 31
0.0
  0
LINE
  5
FB7F
  8
0
 10
227.85714285714261
 20
100.0
 30
0.0
 11
227.85714285714261
 21
100.2999999999999
 31
0.0
  0
LINE
  5
FB80
  8
0
 10
212.1428571428568
 20
100.2999999999999
 30
0.0
 11
212.1428571428568
 21
100.0
 31
0.0
  0
LINE
  5
FB81
  8
0
 10
212.1428571428568
 20
100.0
 30
0.0
 11
227.85714285714261
 21
100.0
 31
0.0
  0
LINE
  5
FB82
  8
0
 10
246.25963519278909
 20
133.75854629092669
 30
0.0
 11
246.25963519278909
 21
117.23511119363179
 31
0.0
  0
ARC
  5
FB83
  8
0
 10
229.92883554083861
 20
105.3333333333332
 30
0.0
 40
1.4455022075055151
 50
97.439754344641614
 51
112.7202782731986
  0
ARC
  5
FB84
  8
0
 10
229.92883554083861
 20
105.3333333333332
 30
0.0
 40
1.445502207505531
 50
247.2797217268014
 51
262.56024565535841
  0
ARC
  5
FB85
  8
0
 10
210.071164459161
 20
105.3333333333332
 30
0.0
 40
1.4455022075055799
 50
67.279721726801412
 51
82.560245655358401
  0
ARC
  5
FB86
  8
0
 10
210.071164459161
 20
105.3333333333332
 30
0.0
 40
1.4455022075054551
 50
277.43975434464159
 51
292.72027827319857
  0
LINE
  5
FB87
  8
0
 10
229.7999999999997
 20
100.2999999999999
 30
0.0
 11
231.0
 21
101.5
 31
0.0
  0
LINE
  5
FB88
  8
0
 10
208.99999999999989
 20
101.5
 30
0.0
 11
210.19999999999979
 21
100.2999999999999
 31
0.0
  0
LINE
  5
FB89
  8
0
 10
210.19999999999979
 20
100.2999999999999
 30
0.0
 11
229.7999999999997
 21
100.2999999999999
 31
0.0
  0
LINE
  5
FB8A
  8
0
 10
231.0
 20
101.5
 30
0.0
 11
231.0
 21
103.90000000000011
 31
0.0
  0
LINE
  5
FB8B
  8
0
 10
208.99999999999989
 20
103.90000000000011
 30
0.0
 11
208.99999999999989
 21
101.5
 31
0.0
  0
LINE
  5
FB8C
  8
0
 10
208.99999999999989
 20
103.90000000000011
 30
0.0
 11
231.0
 21
103.90000000000011
 31
0.0
  0
LINE
  5
FB8D
  8
0
 10
208.99999999999989
 20
101.5
 30
0.0
 11
231.0
 21
101.5
 31
0.0
  0
LINE
  5
FB8E
  8
0
 10
242.66666119968289
 20
106.6666666666667
 30
0.0
 11
210.3333333333332
 21
106.6666666666667
 31
0.0
  0
LINE
  5
FB8F
  8
0
 10
210.3333333333332
 20
104.0
 30
0.0
 11
242.66666119968289
 21
104.0
 31
0.0
  0
ARC
  5
FB90
  8
0
 10
210.3333333333332
 20
105.3333333333332
 30
0.0
 40
1.333333333333333
 50
90.0
 51
270.0
  0
LINE
  5
FB91
  8
0
 10
231.0
 20
106.76666666666659
 30
0.0
 11
231.0
 21
116.0
 31
0.0
  0
LINE
  5
FB92
  8
0
 10
208.99999999999989
 20
116.0
 30
0.0
 11
208.99999999999989
 21
106.76666666666659
 31
0.0
  0
LINE
  5
FB93
  8
0
 10
208.99999999999989
 20
106.76666666666659
 30
0.0
 11
231.0
 21
106.76666666666659
 31
0.0
  0
LINE
  5
FB94
  8
0
 10
246.3654999999998
 20
116.0
 30
0.0
 11
194.97148693690599
 21
116.0
 31
0.0
  0
LINE
  5
FB95
  8
0
 10
193.003883337948
 20
134.32678740290771
 30
0.0
 11
193.003883337948
 21
117.0452281992545
 31
0.0
  0
LINE
  5
FB96
  8
0
 10
193.00388333843591
 20
134.3267874102975
 30
0.0
 11
193.03055351960879
 21
134.28767810332511
 31
0.0
  0
POLYLINE
  5
FB97
  8
0
 66
     1
 10
0.0
 20
0.0
 30
0.0
  0
VERTEX
  5
105CC
  8
0
 10
193.0038833404796
 20
117.0452281799291
 30
0.0
  0
VERTEX
  5
105CD
  8
0
 10
193.00459644400391
 20
117.0397844984634
 30
0.0
  0
VERTEX
  5
105CE
  8
0
 10
193.05713887383439
 20
116.92389302991469
 30
0.0
  0
VERTEX
  5
105CF
  8
0
 10
193.20283325969001
 20
116.7920830948478
 30
0.0
  0
VERTEX
  5
105D0
  8
0
 10
193.4451690157606
 20
116.64233678121261
 30
0.0
  0
VERTEX
  5
105D1
  8
0
 10
193.77828317448251
 20
116.47736887329501
 30
0.0
  0
VERTEX
  5
105D2
  8
0
 10
194.19532393455091
 20
116.29936963156609
 30
0.0
  0
VERTEX
  5
105D3
  8
0
 10
194.39135021035801
 20
116.2221585250968
 30
0.0
  0
SEQEND
  5
105D4
  8
0
  0
LINE
  5
FB98
  8
0
 10
194.24945111591791
 20
133.29741003458361
 30
0.0
 11
194.24945111591771
 21
117.7341274238422
 31
0.0
  0
LINE
  5
FB99
  8
0
 10
194.24945111591771
 20
117.7341274238422
 30
0.0
 11
194.7878659801533
 21
117.7341274238422
 31
0.0
  0
POLYLINE
  5
FB9A
  8
0
 66
     1
 10
0.0
 20
0.0
 30
0.0
  0
VERTEX
  5
105D5
  8
0
 10
193.28602511901849
 20
117.2511645106979
 30
0.0
  0
VERTEX
  5
105D6
  8
0
 10
193.4333052934534
 20
117.3015966850628
 30
0.0
  0
VERTEX
  5
105D7
  8
0
 10
193.60921182756499
 20
117.3761319206364
 30
0.0
  0
VERTEX
  5
105D8
  8
0
 10
193.80031799371349
 20
117.4627808425054
 30
0.0
  0
VERTEX
  5
105D9
  8
0
 10
193.9428891516381
 20
117.52951744319491
 30
0.0
  0
VERTEX
  5
105DA
  8
0
 10
194.04421763095471
 20
117.5788141457062
 30
0.0
  0
VERTEX
  5
105DB
  8
0
 10
194.11420221922111
 20
117.6151202785508
 30
0.0
  0
VERTEX
  5
105DC
  8
0
 10
194.1617160173345
 20
117.6422631354026
 30
0.0
  0
VERTEX
  5
105DD
  8
0
 10
194.1936266208628
 20
117.6630311351807
 30
0.0
  0
VERTEX
  5
105DE
  8
0
 10
194.214892326182
 20
117.6793497331907
 30
0.0
  0
VERTEX
  5
105DF
  8
0
 10
194.2289587563331
 20
117.6925437086861
 30
0.0
  0
VERTEX
  5
105E0
  8
0
 10
194.24170454399419
 20
117.7088959471418
 30
0.0
  0
VERTEX
  5
105E1
  8
0
 10
194.24618790723841
 20
117.71782836955001
 30
0.0
  0
VERTEX
  5
105E2
  8
0
 10
194.2488243076065
 20
117.7270038836354
 30
0.0
  0
VERTEX
  5
105E3
  8
0
 10
194.24945111591771
 20
117.7341274238422
 30
0.0
  0
SEQEND
  5
105E4
  8
0
  0
POLYLINE
  5
FB9B
  8
0
 66
     1
 10
0.0
 20
0.0
 30
0.0
  0
VERTEX
  5
105E5
  8
0
 10
194.24945111591791
 20
133.29741003458361
 30
0.0
  0
VERTEX
  5
105E6
  8
0
 10
194.24774007086069
 20
133.3140743771614
 30
0.0
  0
VERTEX
  5
105E7
  8
0
 10
194.2415180866027
 20
133.3335325635835
 30
0.0
  0
VERTEX
  5
105E8
  8
0
 10
194.21837024579591
 20
133.37066872512219
 30
0.0
  0
VERTEX
  5
105E9
  8
0
 10
194.10121257763751
 20
133.47630910368051
 30
0.0
  0
VERTEX
  5
105EA
  8
0
 10
193.8764821185836
 20
133.63628973782241
 30
0.0
  0
VERTEX
  5
105EB
  8
0
 10
193.67286094639931
 20
133.77966181435909
 30
0.0
  0
VERTEX
  5
105EC
  8
0
 10
193.49468358100731
 20
133.910801843748
 30
0.0
  0
VERTEX
  5
105ED
  8
0
 10
193.34231001974641
 20
134.02904204664421
 30
0.0
  0
VERTEX
  5
105EE
  8
0
 10
193.21478776379939
 20
134.1335125511211
 30
0.0
  0
VERTEX
  5
105EF
  8
0
 10
193.1162994209075
 20
134.21730385212501
 30
0.0
  0
VERTEX
  5
105F0
  8
0
 10
193.03055351960879
 20
134.28767810332511
 30
0.0
  0
SEQEND
  5
105F1
  8
0
  0
LINE
  5
FB9C
  8
0
 10
194.24945111591791
 20
133.29741003458361
 30
0.0
 11
194.78786598015299
 21
133.29741003458361
 31
0.0
  0
LINE
  5
FB9D
  8
0
 10
204.1007828058022
 20
116.0
 30
0.0
 11
203.11966751553581
 21
116.2221585250968
 31
0.0
  0
POLYLINE
  5
FB9E
  8
0
 66
     1
 10
0.0
 20
0.0
 30
0.0
  0
VERTEX
  5
105F2
  8
0
 10
193.28602511901849
 20
117.2511645106979
 30
0.0
  0
VERTEX
  5
105F3
  8
0
 10
193.14044032623309
 20
117.199738138501
 30
0.0
  0
VERTEX
  5
105F4
  8
0
 10
193.0468882990007
 20
117.13823092033751
 30
0.0
  0
VERTEX
  5
105F5
  8
0
 10
193.0038833404796
 20
117.0452281799291
 30
0.0
  0
SEQEND
  5
105F6
  8
0
  0
LINE
  5
FB9F
  8
0
 10
194.39135021035801
 20
116.2221585250968
 30
0.0
 11
194.97148693690579
 21
116.0
 31
0.0
  0
LINE
  5
FBA0
  8
0
 10
203.11966751553581
 20
133.75189195460351
 30
0.0
 11
203.11966751553581
 21
117.24607950836911
 31
0.0
  0
POLYLINE
  5
FBA1
  8
0
 66
     1
 10
0.0
 20
0.0
 30
0.0
  0
VERTEX
  5
105F7
  8
0
 10
197.83774246556999
 20
134.28767810332511
 30
0.0
  0
VERTEX
  5
105F8
  8
0
 10
197.25228878614141
 20
134.2233304194578
 30
0.0
  0
VERTEX
  5
105F9
  8
0
 10
196.6946319863645
 20
134.1121841665165
 30
0.0
  0
VERTEX
  5
105FA
  8
0
 10
196.17103111503951
 20
133.96773148616009
 30
0.0
  0
VERTEX
  5
105FB
  8
0
 10
195.664706657164
 20
133.7925582009718
 30
0.0
  0
VERTEX
  5
105FC
  8
0
 10
195.34258160715481
 20
133.6604832113666
 30
0.0
  0
VERTEX
  5
105FD
  8
0
 10
195.13772613783919
 20
133.56525933968959
 30
0.0
  0
VERTEX
  5
105FE
  8
0
 10
195.00714847581429
 20
133.49703264025331
 30
0.0
  0
VERTEX
  5
105FF
  8
0
 10
194.9235947261495
 20
133.44737049220149
 30
0.0
  0
VERTEX
  5
10600
  8
0
 10
194.86996571605999
 20
133.41018670597279
 30
0.0
  0
VERTEX
  5
10601
  8
0
 10
194.8355396957144
 20
133.38135275536951
 30
0.0
  0
VERTEX
  5
10602
  8
0
 10
194.80599042889341
 20
133.34806513446529
 30
0.0
  0
VERTEX
  5
10603
  8
0
 10
194.79535729734991
 20
133.32971417583511
 30
0.0
  0
VERTEX
  5
10604
  8
0
 10
194.7892663693116
 20
133.31131132446171
 30
0.0
  0
VERTEX
  5
10605
  8
0
 10
194.78786598015299
 20
133.29741003458361
 30
0.0
  0
SEQEND
  5
10606
  8
0
  0
LINE
  5
FBA2
  8
0
 10
194.7878659801533
 20
117.7341274238422
 30
0.0
 11
194.78786598015299
 21
133.29741003458361
 31
0.0
  0
POLYLINE
  5
FBA3
  8
0
 66
     1
 10
0.0
 20
0.0
 30
0.0
  0
VERTEX
  5
10607
  8
0
 10
194.7878659801533
 20
117.7341274238422
 30
0.0
  0
VERTEX
  5
10608
  8
0
 10
194.7888126548263
 20
117.7260484659809
 30
0.0
  0
VERTEX
  5
10609
  8
0
 10
194.7923000600303
 20
117.7165963815189
 30
0.0
  0
VERTEX
  5
1060A
  8
0
 10
194.8021704308093
 20
117.7024062244263
 30
0.0
  0
VERTEX
  5
1060B
  8
0
 10
194.84952357206291
 20
117.6660434302664
 30
0.0
  0
VERTEX
  5
1060C
  8
0
 10
195.05603268425909
 20
117.5752727182939
 30
0.0
  0
VERTEX
  5
1060D
  8
0
 10
195.50513164966279
 20
117.4353257515511
 30
0.0
  0
VERTEX
  5
1060E
  8
0
 10
195.99428758909639
 20
117.326710282842
 30
0.0
  0
VERTEX
  5
1060F
  8
0
 10
196.54575668719659
 20
117.2511645106967
 30
0.0
  0
SEQEND
  5
10610
  8
0
  0
POLYLINE
  5
FBA4
  8
0
 66
     1
 10
0.0
 20
0.0
 30
0.0
  0
VERTEX
  5
10611
  8
0
 10
203.11966751553581
 20
116.2221585250968
 30
0.0
  0
VERTEX
  5
10612
  8
0
 10
202.48572214988769
 20
116.36164693435209
 30
0.0
  0
VERTEX
  5
10613
  8
0
 10
201.83923661393499
 20
116.49389518335489
 30
0.0
  0
VERTEX
  5
10614
  8
0
 10
201.16574204627611
 20
116.62176841010751
 30
0.0
  0
VERTEX
  5
10615
  8
0
 10
200.48854334396799
 20
116.74083614884491
 30
0.0
  0
VERTEX
  5
10616
  8
0
 10
199.8312163753468
 20
116.8476555136296
 30
0.0
  0
VERTEX
  5
10617
  8
0
 10
199.1798453930127
 20
116.9452100994699
 30
0.0
  0
VERTEX
  5
10618
  8
0
 10
198.52014491859691
 20
117.03555041847061
 30
0.0
  0
VERTEX
  5
10619
  8
0
 10
197.87692359619439
 20
117.1152307353443
 30
0.0
  0
VERTEX
  5
1061A
  8
0
 10
197.19814862641999
 20
117.1897445614229
 30
0.0
  0
VERTEX
  5
1061B
  8
0
 10
196.54575668719659
 20
117.2511645106967
 30
0.0
  0
SEQEND
  5
1061C
  8
0
  0
LINE
  5
FBA5
  8
0
 10
235.1760305728439
 20
134.7584992030952
 30
0.0
 11
235.1760305728439
 21
116.2221585250968
 31
0.0
  0
LINE
  5
FBA6
  8
0
 10
230.1685931308989
 20
117.7341274238422
 30
0.0
 11
230.1685931308989
 21
133.29741003458361
 31
0.0
  0
LINE
  5
FBA7
  8
0
 10
198.24119485299559
 20
135.5357324280385
 30
0.0
 11
194.39135021035801
 21
134.7584992030952
 31
0.0
  0
POLYLINE
  5
FBA8
  8
0
 66
     1
 10
0.0
 20
0.0
 30
0.0
  0
VERTEX
  5
1061D
  8
0
 10
194.39135021035801
 20
134.7584992030952
 30
0.0
  0
VERTEX
  5
1061E
  8
0
 10
194.0432778030671
 20
134.6852956446605
 30
0.0
  0
VERTEX
  5
1061F
  8
0
 10
193.74211265833441
 20
134.6160043465627
 30
0.0
  0
VERTEX
  5
10620
  8
0
 10
193.48365745043509
 20
134.54909078766829
 30
0.0
  0
VERTEX
  5
10621
  8
0
 10
193.2791509662456
 20
134.48687383844501
 30
0.0
  0
VERTEX
  5
10622
  8
0
 10
193.13075129471909
 20
134.42977111006749
 30
0.0
  0
VERTEX
  5
10623
  8
0
 10
193.03878147788001
 20
134.37779916750381
 30
0.0
  0
VERTEX
  5
10624
  8
0
 10
193.00408317754039
 20
134.32981396517721
 30
0.0
  0
VERTEX
  5
10625
  8
0
 10
193.00388333843591
 20
134.3267874102975
 30
0.0
  0
SEQEND
  5
10626
  8
0
  0
POLYLINE
  5
FBA9
  8
0
 66
     1
 10
0.0
 20
0.0
 30
0.0
  0
VERTEX
  5
10627
  8
0
 10
197.83774246556999
 20
134.28767810332511
 30
0.0
  0
VERTEX
  5
10628
  8
0
 10
198.45113276211521
 20
134.3271741977519
 30
0.0
  0
VERTEX
  5
10629
  8
0
 10
199.08092177493009
 20
134.37186290742119
 30
0.0
  0
VERTEX
  5
1062A
  8
0
 10
199.7415841938604
 20
134.42312560989649
 30
0.0
  0
VERTEX
  5
1062B
  8
0
 10
200.41011539274871
 20
134.47953032878121
 30
0.0
  0
VERTEX
  5
1062C
  8
0
 10
201.08539035255299
 20
134.54123526318199
 30
0.0
  0
VERTEX
  5
1062D
  8
0
 10
201.75870452122351
 20
134.60768066143319
 30
0.0
  0
VERTEX
  5
1062E
  8
0
 10
202.4455092520806
 20
134.68087388893741
 30
0.0
  0
VERTEX
  5
1062F
  8
0
 10
203.11966751553581
 20
134.7584992030952
 30
0.0
  0
SEQEND
  5
10630
  8
0
  0
LINE
  5
FBAA
  8
0
 10
203.11966751553581
 20
134.7584992030952
 30
0.0
 11
205.95557355686441
 21
135.08976064332879
 31
0.0
  0
POLYLINE
  5
FBAB
  8
0
 66
     1
 10
0.0
 20
0.0
 30
0.0
  0
VERTEX
  5
10631
  8
0
 10
219.2537797051472
 20
135.08976064332879
 30
0.0
  0
VERTEX
  5
10632
  8
0
 10
218.59832778544899
 20
135.19583725370711
 30
0.0
  0
VERTEX
  5
10633
  8
0
 10
217.87680286582619
 20
135.290723002199
 30
0.0
  0
VERTEX
  5
10634
  8
0
 10
217.0968202661258
 20
135.37241907254949
 30
0.0
  0
VERTEX
  5
10635
  8
0
 10
216.2659953061949
 20
135.43892664850429
 30
0.0
  0
VERTEX
  5
10636
  8
0
 10
215.38585655770379
 20
135.4886745966607
 30
0.0
  0
VERTEX
  5
10637
  8
0
 10
214.4606848302148
 20
135.52090657889971
 30
0.0
  0
VERTEX
  5
10638
  8
0
 10
213.5006528679852
 20
135.53495315399871
 30
0.0
  0
VERTEX
  5
10639
  8
0
 10
212.5159334152722
 20
135.5301448807347
 30
0.0
  0
VERTEX
  5
1063A
  8
0
 10
211.52195950516571
 20
135.50652618840471
 30
0.0
  0
VERTEX
  5
1063B
  8
0
 10
210.51106876946051
 20
135.46512662833399
 30
0.0
  0
VERTEX
  5
1063C
  8
0
 10
209.49387635839949
 20
135.40726496871321
 30
0.0
  0
VERTEX
  5
1063D
  8
0
 10
208.4809974222261
 20
135.33425997773239
 30
0.0
  0
VERTEX
  5
1063E
  8
0
 10
207.62854283288189
 20
135.26134619659231
 30
0.0
  0
VERTEX
  5
1063F
  8
0
 10
206.78470781001801
 20
135.17943762132651
 30
0.0
  0
VERTEX
  5
10640
  8
0
 10
205.95557355686441
 20
135.08976064332879
 30
0.0
  0
SEQEND
  5
10641
  8
0
  0
LINE
  5
FBAC
  8
0
 10
219.2537797051472
 20
135.08976064332879
 30
0.0
 11
221.05331650847251
 21
134.7584992030952
 31
0.0
  0
POLYLINE
  5
FBAD
  8
0
 66
     1
 10
0.0
 20
0.0
 30
0.0
  0
VERTEX
  5
10642
  8
0
 10
233.2724180566847
 20
134.28767810332511
 30
0.0
  0
VERTEX
  5
10643
  8
0
 10
233.8007749672212
 20
134.34114571154029
 30
0.0
  0
VERTEX
  5
10644
  8
0
 10
234.255221377623
 20
134.40449305681821
 30
0.0
  0
VERTEX
  5
10645
  8
0
 10
234.5373546204091
 20
134.45738311001901
 30
0.0
  0
VERTEX
  5
10646
  8
0
 10
234.7698918850773
 20
134.5149860126196
 30
0.0
  0
VERTEX
  5
10647
  8
0
 10
234.95559414855751
 20
134.57895729354459
 30
0.0
  0
VERTEX
  5
10648
  8
0
 10
235.08599306407169
 20
134.64744480322591
 30
0.0
  0
VERTEX
  5
10649
  8
0
 10
235.1469631598888
 20
134.7017181621631
 30
0.0
  0
VERTEX
  5
1064A
  8
0
 10
235.1760305728439
 20
134.7584992030952
 30
0.0
  0
SEQEND
  5
1064B
  8
0
  0
LINE
  5
FBAE
  8
0
 10
235.1760305728439
 20
134.7584992030952
 30
0.0
 11
235.25183624330151
 21
135.08976064332879
 31
0.0
  0
POLYLINE
  5
FBAF
  8
0
 66
     1
 10
0.0
 20
0.0
 30
0.0
  0
VERTEX
  5
1064C
  8
0
 10
243.4705796323432
 20
135.08976064332879
 30
0.0
  0
VERTEX
  5
1064D
  8
0
 10
242.52198386553479
 20
135.19583820873231
 30
0.0
  0
VERTEX
  5
1064E
  8
0
 10
241.60398411516681
 20
135.29072468446111
 30
0.0
  0
VERTEX
  5
1064F
  8
0
 10
240.72604051183359
 20
135.3724212002642
 30
0.0
  0
VERTEX
  5
10650
  8
0
 10
239.89761318612989
 20
135.43892888589011
 30
0.0
  0
VERTEX
  5
10651
  8
0
 10
239.12192121119409
 20
135.48867617139311
 30
0.0
  0
VERTEX
  5
10652
  8
0
 10
238.40186382002631
 20
135.52090745574509
 30
0.0
  0
VERTEX
  5
10653
  8
0
 10
237.74497150664041
 20
135.5349533177054
 30
0.0
  0
VERTEX
  5
10654
  8
0
 10
237.15877476505079
 20
135.5301443360317
 30
0.0
  0
VERTEX
  5
10655
  8
0
 10
236.65200379960049
 20
135.50652496234261
 30
0.0
  0
VERTEX
  5
10656
  8
0
 10
236.21810137237611
 20
135.46512475230679
 30
0.0
  0
VERTEX
  5
10657
  8
0
 10
235.86102792108309
 20
135.4072624878558
 30
0.0
  0
VERTEX
  5
10658
  8
0
 10
235.58474388342799
 20
135.33425695092109
 30
0.0
  0
VERTEX
  5
10659
  8
0
 10
235.4148318712993
 20
135.2613438993896
 30
0.0
  0
VERTEX
  5
1065A
  8
0
 10
235.30364842810101
 20
135.1794363509232
 30
0.0
  0
VERTEX
  5
1065B
  8
0
 10
235.25183624330151
 20
135.08976064332879
 30
0.0
  0
SEQEND
  5
1065C
  8
0
  0
LINE
  5
FBB0
  8
0
 10
243.4705796323432
 20
135.08976064332879
 30
0.0
 11
250.36506300635889
 21
134.28767810332511
 31
0.0
  0
LINE
  5
FBB1
  8
0
 10
208.6599999999998
 20
137.0
 30
0.0
 11
198.23288206808039
 21
135.5345641423078
 31
0.0
  0
LINE
  5
FBB2
  8
0
 10
250.63917310095979
 20
134.28767810332511
 30
0.0
 11
231.33999999999989
 21
137.0
 31
0.0
  0
LINE
  5
FBB3
  8
0
 10
208.6599999999998
 20
137.0
 30
0.0
 11
231.33999999999989
 21
137.0
 31
0.0
  0
LINE
  5
FBB4
  8
0
 10
229.29741958051841
 20
133.29741003458361
 30
0.0
 11
229.29741958051861
 21
117.7341274238422
 31
0.0
  0
POLYLINE
  5
FBB5
  8
0
 66
     1
 10
0.0
 20
0.0
 30
0.0
  0
VERTEX
  5
1065D
  8
0
 10
221.05331650847251
 20
134.7584992030952
 30
0.0
  0
VERTEX
  5
1065E
  8
0
 10
221.47249705805461
 20
134.6852978722504
 30
0.0
  0
VERTEX
  5
1065F
  8
0
 10
221.9321521186136
 20
134.61600854893621
 30
0.0
  0
VERTEX
  5
10660
  8
0
 10
222.44423210426859
 20
134.54909685053869
 30
0.0
  0
VERTEX
  5
10661
  8
0
 10
222.9922107418115
 20
134.4868814274468
 30
0.0
  0
VERTEX
  5
10662
  8
0
 10
223.57058008918281
 20
134.4297764012847
 30
0.0
  0
VERTEX
  5
10663
  8
0
 10
224.1765371963333
 20
134.3778024519315
 30
0.0
  0
VERTEX
  5
10664
  8
0
 10
224.82557645586019
 20
134.32981542174409
 30
0.0
  0
VERTEX
  5
10665
  8
0
 10
225.49422295177689
 20
134.28767810332511
 30
0.0
  0
SEQEND
  5
10666
  8
0
  0
LINE
  5
FBB6
  8
0
 10
221.05331650847251
 20
133.74336596234181
 30
0.0
 11
221.05331650847251
 21
117.2734649948836
 31
0.0
  0
POLYLINE
  5
FBB7
  8
0
 66
     1
 10
0.0
 20
0.0
 30
0.0
  0
VERTEX
  5
10667
  8
0
 10
226.9440988617589
 20
117.2511645106979
 30
0.0
  0
VERTEX
  5
10668
  8
0
 10
227.4934729657256
 20
117.3084510239007
 30
0.0
  0
VERTEX
  5
10669
  8
0
 10
228.28865562747339
 20
117.435723831898
 30
0.0
  0
VERTEX
  5
1066A
  8
0
 10
229.0624921369571
 20
117.6194006461251
 30
0.0
  0
VERTEX
  5
1066B
  8
0
 10
229.1493681176855
 20
117.64631954912009
 30
0.0
  0
VERTEX
  5
1066C
  8
0
 10
229.20485245959159
 20
117.6664365289716
 30
0.0
  0
VERTEX
  5
1066D
  8
0
 10
229.2409589677408
 20
117.6821774258128
 30
0.0
  0
VERTEX
  5
1066E
  8
0
 10
229.2645141315933
 20
117.69493464599709
 30
0.0
  0
VERTEX
  5
1066F
  8
0
 10
229.2862338109241
 20
117.71153176943039
 30
0.0
  0
VERTEX
  5
10670
  8
0
 10
229.2927955545571
 20
117.7196496971216
 30
0.0
  0
VERTEX
  5
10671
  8
0
 10
229.29693257019329
 20
117.72943922711281
 30
0.0
  0
VERTEX
  5
10672
  8
0
 10
229.29741958051861
 20
117.7341274238422
 30
0.0
  0
SEQEND
  5
10673
  8
0
  0
POLYLINE
  5
FBB8
  8
0
 66
     1
 10
0.0
 20
0.0
 30
0.0
  0
VERTEX
  5
10674
  8
0
 10
230.1685931308989
 20
117.7341274238422
 30
0.0
  0
VERTEX
  5
10675
  8
0
 10
230.1699841220761
 20
117.7260484659809
 30
0.0
  0
VERTEX
  5
10676
  8
0
 10
230.1751046595588
 20
117.7165963815189
 30
0.0
  0
VERTEX
  5
10677
  8
0
 10
230.1895661548032
 20
117.7024062244261
 30
0.0
  0
VERTEX
  5
10678
  8
0
 10
230.25831503467489
 20
117.6660434302662
 30
0.0
  0
VERTEX
  5
10679
  8
0
 10
230.54665368059881
 20
117.57527271829299
 30
0.0
  0
VERTEX
  5
1067A
  8
0
 10
231.11777883638021
 20
117.4353257515492
 30
0.0
  0
VERTEX
  5
1067B
  8
0
 10
231.66894821751879
 20
117.3267102828399
 30
0.0
  0
VERTEX
  5
1067C
  8
0
 10
232.21845533326311
 20
117.2511645106967
 30
0.0
  0
SEQEND
  5
1067D
  8
0
  0
LINE
  5
FBB9
  8
0
 10
229.29741958051861
 20
117.7341274238422
 30
0.0
 11
230.1685931308989
 21
117.7341274238422
 31
0.0
  0
LINE
  5
FBBA
  8
0
 10
235.2022564425628
 20
116.0
 30
0.0
 11
235.1760305728439
 21
116.2221585250968
 31
0.0
  0
POLYLINE
  5
FBBB
  8
0
 66
     1
 10
0.0
 20
0.0
 30
0.0
  0
VERTEX
  5
1067E
  8
0
 10
235.1760305728439
 20
116.2221585250968
 30
0.0
  0
VERTEX
  5
1067F
  8
0
 10
235.1321164312202
 20
116.3616473506947
 30
0.0
  0
VERTEX
  5
10680
  8
0
 10
235.03405147506959
 20
116.4938959700323
 30
0.0
  0
VERTEX
  5
10681
  8
0
 10
234.87680776135099
 20
116.62176954661049
 30
0.0
  0
VERTEX
  5
10682
  8
0
 10
234.66335586638741
 20
116.7408375731754
 30
0.0
  0
VERTEX
  5
10683
  8
0
 10
234.40281401921351
 20
116.8476568143214
 30
0.0
  0
VERTEX
  5
10684
  8
0
 10
234.09175988028699
 20
116.9452112725087
 30
0.0
  0
VERTEX
  5
10685
  8
0
 10
233.72038209971871
 20
117.0355514563682
 30
0.0
  0
VERTEX
  5
10686
  8
0
 10
233.30000295456099
 20
117.1152316350981
 30
0.0
  0
VERTEX
  5
10687
  8
0
 10
232.7873483914247
 20
117.1897449422661
 30
0.0
  0
VERTEX
  5
10688
  8
0
 10
232.21845533326311
 20
117.2511645106967
 30
0.0
  0
SEQEND
  5
10689
  8
0
  0
POLYLINE
  5
FBBC
  8
0
 66
     1
 10
0.0
 20
0.0
 30
0.0
  0
VERTEX
  5
1068A
  8
0
 10
226.9440988617589
 20
117.2511645106979
 30
0.0
  0
VERTEX
  5
1068B
  8
0
 10
226.1358049123123
 20
117.1848072823457
 30
0.0
  0
VERTEX
  5
1068C
  8
0
 10
225.34129081942771
 20
117.1026043596803
 30
0.0
  0
VERTEX
  5
1068D
  8
0
 10
224.51495828379981
 20
116.9973260110696
 30
0.0
  0
VERTEX
  5
1068E
  8
0
 10
223.7218137699731
 20
116.87483561814901
 30
0.0
  0
VERTEX
  5
1068F
  8
0
 10
222.97605196824861
 20
116.736745787065
 30
0.0
  0
VERTEX
  5
10690
  8
0
 10
222.2740408856688
 20
116.5808148065307
 30
0.0
  0
VERTEX
  5
10691
  8
0
 10
221.6336179419142
 20
116.41002130068701
 30
0.0
  0
VERTEX
  5
10692
  8
0
 10
221.06580976092479
 20
116.2266410294269
 30
0.0
  0
VERTEX
  5
10693
  8
0
 10
221.05331650847251
 20
116.2221585250968
 30
0.0
  0
SEQEND
  5
10694
  8
0
  0
LINE
  5
FBBD
  8
0
 10
221.05331650847251
 20
116.2221585250968
 30
0.0
 11
220.43074543333469
 21
116.0
 31
0.0
  0
POLYLINE
  5
FBBE
  8
0
 66
     1
 10
0.0
 20
0.0
 30
0.0
  0
VERTEX
  5
10695
  8
0
 10
233.2724180566847
 20
134.28767810332511
 30
0.0
  0
VERTEX
  5
10696
  8
0
 10
232.9482309706199
 20
134.24448579645619
 30
0.0
  0
VERTEX
  5
10697
  8
0
 10
232.60540978521081
 20
134.17386819662781
 30
0.0
  0
VERTEX
  5
10698
  8
0
 10
232.23687250214101
 20
134.0796174242698
 30
0.0
  0
VERTEX
  5
10699
  8
0
 10
231.8526631408435
 20
133.96773148616009
 30
0.0
  0
VERTEX
  5
1069A
  8
0
 10
231.3050303943937
 20
133.79255820097109
 30
0.0
  0
VERTEX
  5
1069B
  8
0
 10
230.91914538783379
 20
133.66048321136529
 30
0.0
  0
VERTEX
  5
1069C
  8
0
 10
230.6559289612768
 20
133.565259339688
 30
0.0
  0
VERTEX
  5
1069D
  8
0
 10
230.48001003108141
 20
133.49703264025189
 30
0.0
  0
VERTEX
  5
1069E
  8
0
 10
230.36382590558421
 20
133.44737049220021
 30
0.0
  0
VERTEX
  5
1069F
  8
0
 10
230.28767721413209
 20
133.4101867059714
 30
0.0
  0
VERTEX
  5
106A0
  8
0
 10
230.23812017874749
 20
133.3813527553684
 30
0.0
  0
VERTEX
  5
106A1
  8
0
 10
230.19515070425351
 20
133.3480651344637
 30
0.0
  0
VERTEX
  5
106A2
  8
0
 10
230.17958885425421
 20
133.32971417583349
 30
0.0
  0
VERTEX
  5
106A3
  8
0
 10
230.1706506343566
 20
133.3113113244608
 30
0.0
  0
VERTEX
  5
106A4
  8
0
 10
230.1685931308989
 20
133.29741003458361
 30
0.0
  0
SEQEND
  5
106A5
  8
0
  0
POLYLINE
  5
FBBF
  8
0
 66
     1
 10
0.0
 20
0.0
 30
0.0
  0
VERTEX
  5
106A6
  8
0
 10
229.29741958051841
 20
133.29741003458361
 30
0.0
  0
VERTEX
  5
106A7
  8
0
 10
229.29529796252561
 20
133.31126077908689
 30
0.0
  0
VERTEX
  5
106A8
  8
0
 10
229.28603233595771
 20
133.32965921727529
 30
0.0
  0
VERTEX
  5
106A9
  8
0
 10
229.25922737548169
 20
133.35731143860241
 30
0.0
  0
VERTEX
  5
106AA
  8
0
 10
229.12645539509731
 20
133.43250530556151
 30
0.0
  0
VERTEX
  5
106AB
  8
0
 10
228.84508489555969
 20
133.5425399200312
 30
0.0
  0
VERTEX
  5
106AC
  8
0
 10
228.55565574534
 20
133.639770127151
 30
0.0
  0
VERTEX
  5
106AD
  8
0
 10
227.9679306701737
 20
133.81728073142099
 30
0.0
  0
VERTEX
  5
106AE
  8
0
 10
227.37099547081581
 20
133.97535806822361
 30
0.0
  0
VERTEX
  5
106AF
  8
0
 10
226.7506940902237
 20
134.11506886105411
 30
0.0
  0
VERTEX
  5
106B0
  8
0
 10
226.12773205088109
 20
134.22278842499031
 30
0.0
  0
VERTEX
  5
106B1
  8
0
 10
225.49422295177689
 20
134.28767810332511
 30
0.0
  0
SEQEND
  5
106B2
  8
0
  0
LINE
  5
FBC0
  8
0
 10
229.29741958051841
 20
133.29741003458361
 30
0.0
 11
230.1685931308989
 21
133.29741003458361
 31
0.0
  0
POLYLINE
  5
FBC1
  8
4
 66
     1
 10
0.0
 20
0.0
 30
0.0
  0
VERTEX
  5
FBC2
  8
4
 10
293.08472035798991
 20
102.2614453550116
 30
0.0
 42
-0.0744127175610667
  0
VERTEX
  5
FBC3
  8
4
 10
292.56022520080057
 20
102.9554113489814
 30
0.0
 42
-0.1536795722212451
  0
VERTEX
  5
FBC4
  8
4
 10
292.2964924250345
 20
104.3000783693153
 30
0.0
 42
-0.1847247553159499
  0
VERTEX
  5
FBC5
  8
4
 10
292.82999866070782
 20
105.3333333333332
 30
0.0
 42
0.1729818233278114
  0
VERTEX
  5
FBC6
  8
4
 10
293.42226764483411
 20
106.4190529155141
 30
0.0
 42
0.1305645647028073
  0
VERTEX
  5
FBC7
  8
4
 10
293.2668534890737
 20
107.9248593467252
 30
0.0
 42
0.0267269543158863
  0
VERTEX
  5
FBC8
  8
4
 10
293.11817661047212
 20
108.2614453550116
 30
0.0
  0
SEQEND
  5
FBC9
  8
4
  0
POLYLINE
  5
FBCA
  8
4
 66
     1
 10
0.0
 20
0.0
 30
0.0
  0
VERTEX
  5
FBCB
  8
4
 10
291.08472035798991
 20
102.2614453550116
 30
0.0
 42
-0.0744127175610667
  0
VERTEX
  5
FBCC
  8
4
 10
290.56022520080069
 20
102.9554113489814
 30
0.0
 42
-0.1536795722212451
  0
VERTEX
  5
FBCD
  8
4
 10
290.2964924250345
 20
104.3000783693153
 30
0.0
 42
-0.1847247553159499
  0
VERTEX
  5
FBCE
  8
4
 10
290.82999866070782
 20
105.3333333333332
 30
0.0
 42
0.1729818233278114
  0
VERTEX
  5
FBCF
  8
4
 10
291.42226764483411
 20
106.4190529155141
 30
0.0
 42
0.1305645647028073
  0
VERTEX
  5
FBD0
  8
4
 10
291.2668534890737
 20
107.9248593467252
 30
0.0
 42
0.0267269543158863
  0
VERTEX
  5
FBD1
  8
4
 10
291.11817661047212
 20
108.2614453550116
 30
0.0
  0
SEQEND
  5
FBD2
  8
4
  0
ENDSEC
  0
EOF
