  0
SECTION
  2
HEADER
  9
$ACADVER
  1
AC1009
  9
$INSBASE
 10
0.0
 20
0.0
 30
0.0
  9
$EXTMIN
 10
0.0
 20
-2.960436562073669
 30
0.0
  9
$EXTMAX
 10
291.00000133929149
 20
203.0
 30
0.0
  9
$LIMMIN
 10
0.0
 20
0.0
  9
$LIMMAX
 10
385.0
 20
270.0
  9
$ORTHOMODE
 70
     1
  9
$REGENMODE
 70
     1
  9
$FILLMODE
 70
     1
  9
$QTEXTMODE
 70
     0
  9
$MIRRTEXT
 70
     0
  9
$DRAGMODE
 70
     2
  9
$LTSCALE
 40
5.0
  9
$OSMODE
 70
    37
  9
$ATTMODE
 70
     1
  9
$TEXTSIZE
 40
4.0
  9
$TRACEWID
 40
0.05
  9
$TEXTSTYLE
  7
STANDARD
  9
$CLAYER
  8
0
  9
$CELTYPE
  6
BYLAYER
  9
$CECOLOR
 62
   256
  9
$DIMSCALE
 40
1.0
  9
$DIMASZ
 40
3.0
  9
$DIMEXO
 40
1.0
  9
$DIMDLI
 40
6.0
  9
$DIMRND
 40
0.0
  9
$DIMDLE
 40
0.0
  9
$DIMEXE
 40
1.0
  9
$DIMTP
 40
495.0
  9
$DIMTM
 40
0.0
  9
$DIMTXT
 40
3.0
  9
$DIMCEN
 40
0.0
  9
$DIMTSZ
 40
0.0
  9
$DIMTOL
 70
     0
  9
$DIMLIM
 70
     0
  9
$DIMTIH
 70
     0
  9
$DIMTOH
 70
     0
  9
$DIMSE1
 70
     0
  9
$DIMSE2
 70
     0
  9
$DIMTAD
 70
     1
  9
$DIMZIN
 70
     8
  9
$DIMBLK
  1

  9
$DIMASO
 70
     1
  9
$DIMSHO
 70
     0
  9
$DIMPOST
  1

  9
$DIMAPOST
  1

  9
$DIMALT
 70
     0
  9
$DIMALTD
 70
     2
  9
$DIMALTF
 40
25.399999999999999
  9
$DIMLFAC
 40
1.0
  9
$DIMTOFL
 70
     1
  9
$DIMTVP
 40
0.0
  9
$DIMTIX
 70
     0
  9
$DIMSOXD
 70
     0
  9
$DIMSAH
 70
     0
  9
$DIMBLK1
  1

  9
$DIMBLK2
  1

  9
$DIMSTYLE
  2
STANDARD
  9
$DIMCLRD
 70
     0
  9
$DIMCLRE
 70
     0
  9
$DIMCLRT
 70
     0
  9
$DIMTFAC
 40
1.0
  9
$DIMGAP
 40
1.0
  9
$LUNITS
 70
     2
  9
$LUPREC
 70
     1
  9
$SKETCHINC
 40
0.1
  9
$FILLETRAD
 40
2.0
  9
$AUNITS
 70
     0
  9
$AUPREC
 70
     1
  9
$MENU
  1
E:\r13\win\SUPPORT\ACAD
  9
$ELEVATION
 40
0.0
  9
$PELEVATION
 40
0.0
  9
$THICKNESS
 40
0.0
  9
$LIMCHECK
 70
     0
  9
$BLIPMODE
 70
     0
  9
$CHAMFERA
 40
0.0
  9
$CHAMFERB
 40
0.0
  9
$SKPOLY
 70
     0
  9
$TDCREATE
 40
2450541.3939600689
  9
$TDUPDATE
 40
2457892.426621886
  9
$TDINDWG
 40
1.2721149884
  9
$TDUSRTIMER
 40
1.2721149884
  9
$USRTIMER
 70
     1
  9
$ANGBASE
 50
0.0
  9
$ANGDIR
 70
     0
  9
$PDMODE
 70
     0
  9
$PDSIZE
 40
0.0
  9
$PLINEWID
 40
0.0
  9
$COORDS
 70
     1
  9
$SPLFRAME
 70
     0
  9
$SPLINETYPE
 70
     6
  9
$SPLINESEGS
 70
     8
  9
$ATTDIA
 70
     0
  9
$ATTREQ
 70
     1
  9
$HANDLING
 70
     1
  9
$HANDSEED
  5
1082D
  9
$SURFTAB1
 70
     6
  9
$SURFTAB2
 70
     6
  9
$SURFTYPE
 70
     6
  9
$SURFU
 70
     6
  9
$SURFV
 70
     6
  9
$UCSNAME
  2

  9
$UCSORG
 10
0.0
 20
0.0
 30
0.0
  9
$UCSXDIR
 10
1.0
 20
0.0
 30
0.0
  9
$UCSYDIR
 10
0.0
 20
1.0
 30
0.0
  9
$PUCSNAME
  2

  9
$PUCSORG
 10
0.0
 20
0.0
 30
0.0
  9
$PUCSXDIR
 10
1.0
 20
0.0
 30
0.0
  9
$PUCSYDIR
 10
0.0
 20
1.0
 30
0.0
  9
$USERI1
 70
     3
  9
$USERI2
 70
     1
  9
$USERI3
 70
     1
  9
$USERI4
 70
     0
  9
$USERI5
 70
     0
  9
$USERR1
 40
1.0
  9
$USERR2
 40
3.0
  9
$USERR3
 40
3.0
  9
$USERR4
 40
3.0
  9
$USERR5
 40
10.0
  9
$WORLDVIEW
 70
     1
  9
$SHADEDGE
 70
     3
  9
$SHADEDIF
 70
    70
  9
$TILEMODE
 70
     1
  9
$MAXACTVP
 70
    16
  9
$PLIMCHECK
 70
     0
  9
$PEXTMIN
 10
1.0000000000000000E+020
 20
1.0000000000000000E+020
 30
1.0000000000000000E+020
  9
$PEXTMAX
 10
-1.0000000000000000E+020
 20
-1.0000000000000000E+020
 30
-1.0000000000000000E+020
  9
$PLIMMIN
 10
0.0
 20
0.0
  9
$PLIMMAX
 10
12.0
 20
9.0
  9
$UNITMODE
 70
     0
  9
$VISRETAIN
 70
     0
  9
$PLINEGEN
 70
     0
  9
$PSLTSCALE
 70
     0
  0
ENDSEC
  0
SECTION
  2
TABLES
  0
TABLE
  2
VPORT
 70
     1
  0
VPORT
  2
*ACTIVE
 70
     0
 10
0.0
 20
0.0
 11
1.0
 21
1.0
 12
227.02991452991449
 22
125.0
 13
0.0
 23
0.0
 14
5.0
 24
5.0
 15
10.0
 25
10.0
 16
0.0
 26
0.0
 36
1.0
 17
0.0
 27
0.0
 37
0.0
 40
250.0
 41
1.816239316239316
 42
50.0
 43
0.0
 44
0.0
 50
0.0
 51
0.0
 71
     0
 72
   100
 73
     1
 74
     0
 75
     0
 76
     0
 77
     0
 78
     0
  0
ENDTAB
  0
TABLE
  2
LTYPE
 70
     4
  0
LTYPE
  2
CONTINUOUS
 70
     0
  3
Solid Line
 72
    65
 73
     0
 40
0.0
  0
LTYPE
  2
CENTER
 70
     0
  3
____ _ ____ _ ____ _ ____ _ ____ _ ____ _ ____
 72
    65
 73
     4
 40
2.0
 49
1.25
 49
-0.25
 49
0.25
 49
-0.25
  0
LTYPE
  2
HIDDEN
 70
     0
  3
_ _ _ _ _ _ _ _ _ _ _ _ _ _ _ _ _ _ _ _ _ _ _
 72
    65
 73
     2
 40
0.375
 49
0.25
 49
-0.125
  0
LTYPE
  2
PHANTOM2
 70
     0
  3
___ _ _ ___ _ _ ___ _ _ ___ _ _
 72
    65
 73
     6
 40
1.25
 49
0.625
 49
-0.125
 49
0.125
 49
-0.125
 49
0.125
 49
-0.125
  0
ENDTAB
  0
TABLE
  2
LAYER
 70
     6
  0
LAYER
  2
0
 70
     0
 62
     7
  6
CONTINUOUS
  0
LAYER
  2
1
 70
     0
 62
     1
  6
CENTER
  0
LAYER
  2
2
 70
     0
 62
     2
  6
HIDDEN
  0
LAYER
  2
DEFPOINTS
 70
     0
 62
     7
  6
CONTINUOUS
  0
LAYER
  2
4
 70
     0
 62
     4
  6
CONTINUOUS
  0
LAYER
  2
3
 70
     0
 62
     3
  6
CONTINUOUS
  0
ENDTAB
  0
TABLE
  2
STYLE
 70
     2
  0
STYLE
  2
STANDARD
 70
     0
 40
0.0
 41
1.0
 50
0.0
 71
     0
 42
4.0
  3
SIMPLEX
  4
BIGFONT
  0
STYLE
  2
STANDARD1
 70
     0
 40
0.0
 41
1.0
 50
0.0
 71
     0
 42
3.0
  3
txt
  4

  0
ENDTAB
  0
TABLE
  2
VIEW
 70
     0
  0
ENDTAB
  0
TABLE
  2
UCS
 70
     0
  0
ENDTAB
  0
TABLE
  2
APPID
 70
    18
  0
APPID
  2
ACAD
 70
     0
  0
APPID
  2
ASM_BASE
 70
     0
  0
APPID
  2
ASM_EXPLO_VER_2_00
 70
     0
  0
APPID
  2
ASM_CADM_VER_12_00
 70
     0
  0
APPID
  2
ASM_BASEFORO
 70
     0
  0
APPID
  2
ASM_BASETRAVI
 70
     0
  0
APPID
  2
ASM_BASETRAVI1
 70
     0
  0
APPID
  2
ASM_GRUPPI
 70
     0
  0
APPID
  2
ASM_CADM_ALBERO
 70
     0
  0
APPID
  2
ASM_GOLE
 70
     0
  0
APPID
  2
ACAD_EXEMPT_FROM_CAD_STANDARDS
 70
     0
  0
APPID
  2
ACAD_DSTYLE_DIMJAG
 70
     0
  0
APPID
  2
ACAD_DSTYLE_DIMTALN
 70
     0
  0
APPID
  2
ACAD_MLEADERVER
 70
     0
  0
APPID
  2
ACAD_NAV_VCDISPLAY
 70
     0
  0
APPID
  2
ACAD_DSTYLE_DIMRADIAL_EXTENSION
 70
     0
  0
APPID
  2
DCO15
 70
     0
  0
APPID
  2
ACADANNOTATIVE
 70
     0
  0
ENDTAB
  0
TABLE
  2
DIMSTYLE
 70
     1
  0
DIMSTYLE
  2
STANDARD
 70
     0
  3

  4

  5

  6

  7

 40
1.0
 41
0.18
 42
0.0625
 43
0.38
 44
0.18
 45
0.0
 46
0.0
 47
0.0
 48
0.0
140
0.18
141
0.09
142
0.0
143
25.399999999999999
144
1.0
145
0.0
146
1.0
147
0.09
 71
     0
 72
     0
 73
     1
 74
     1
 75
     0
 76
     0
 77
     0
 78
     0
170
     0
171
     2
172
     0
173
     0
174
     0
175
     0
176
     0
177
     0
178
     0
  0
ENDTAB
  0
ENDSEC
  0
SECTION
  2
BLOCKS
  0
BLOCK
  8
0
  2
$MODEL_SPACE
 70
     0
 10
0.0
 20
0.0
 30
0.0
  3
$MODEL_SPACE
  1

  0
ENDBLK
  5
1CD3
  8
0
  0
BLOCK
 67
     1
  8
0
  2
$PAPER_SPACE
 70
     0
 10
0.0
 20
0.0
 30
0.0
  3
$PAPER_SPACE
  1

  0
ENDBLK
  5
1CD1
 67
     1
  8
0
  0
ENDSEC
  0
SECTION
  2
ENTITIES
  0
TEXT
  5
8A60
  8
0
 62
     3
 10
0.0
 20
0.0
 30
0.0
 40
10.0
  1
STK40X30N-LP
  7
STANDARD1
  0
LINE
  5
A2EB
  8
0
 10
183.23299999999981
 20
50.0
 30
0.0
 11
183.99999999999989
 21
50.767000000000053
 31
0.0
  0
LINE
  5
A2EC
  8
0
 10
175.99999999999989
 20
50.767000000000053
 30
0.0
 11
176.76699999999991
 21
50.0
 31
0.0
  0
LINE
  5
A2ED
  8
0
 10
176.76699999999991
 20
50.0
 30
0.0
 11
183.23299999999981
 21
50.0
 31
0.0
  0
LINE
  5
A2EE
  8
0
 10
183.99999999999989
 20
50.767000000000053
 30
0.0
 11
183.99999999999989
 21
80.0
 31
0.0
  0
LINE
  5
A2EF
  8
0
 10
175.99999999999989
 20
80.0
 30
0.0
 11
175.99999999999989
 21
50.767000000000053
 31
0.0
  0
LINE
  5
A2F0
  8
0
 10
175.99999999999989
 20
50.767000000000053
 30
0.0
 11
183.99999999999989
 21
50.767000000000053
 31
0.0
  0
LINE
  5
A34A
  8
3
 10
176.76699999999991
 20
50.0
 30
0.0
 11
176.76699999999991
 21
77.600000000000023
 31
0.0
  0
LINE
  5
A34B
  8
3
 10
175.99999999999989
 20
80.0
 30
0.0
 11
176.76699999999991
 21
77.600000000000023
 31
0.0
  0
LINE
  5
A34C
  8
0
 10
175.99999999999989
 20
77.600000000000023
 30
0.0
 11
183.99999999999989
 21
77.600000000000023
 31
0.0
  0
LINE
  5
A34D
  8
3
 10
183.23299999999981
 20
50.0
 30
0.0
 11
183.23299999999981
 21
77.600000000000023
 31
0.0
  0
LINE
  5
A34E
  8
3
 10
183.99999999999989
 20
80.0
 30
0.0
 11
183.23299999999981
 21
77.600000000000023
 31
0.0
  0
LINE
  5
A632
  8
0
 10
84.0
 20
50.767000000000053
 30
0.0
 11
84.0
 21
80.0
 31
0.0
  0
LINE
  5
A633
  8
0
 10
76.0
 20
80.0
 30
0.0
 11
76.0
 21
50.767000000000053
 31
0.0
  0
LINE
  5
A634
  8
0
 10
76.0
 20
50.767000000000053
 30
0.0
 11
84.0
 21
50.767000000000053
 31
0.0
  0
LINE
  5
A635
  8
0
 10
76.767000000000053
 20
50.0
 30
0.0
 11
83.232999999999933
 21
50.0
 31
0.0
  0
LINE
  5
A636
  8
0
 10
83.232999999999933
 20
50.0
 30
0.0
 11
84.0
 21
50.767000000000053
 31
0.0
  0
LINE
  5
A637
  8
0
 10
76.0
 20
50.767000000000053
 30
0.0
 11
76.767000000000053
 21
50.0
 31
0.0
  0
LINE
  5
A68E
  8
3
 10
76.767000000000053
 20
50.0
 30
0.0
 11
76.767000000000053
 21
77.600000000000023
 31
0.0
  0
LINE
  5
A68F
  8
3
 10
76.0
 20
80.0
 30
0.0
 11
76.767000000000053
 21
77.600000000000023
 31
0.0
  0
LINE
  5
A690
  8
0
 10
76.0
 20
77.600000000000023
 30
0.0
 11
84.0
 21
77.600000000000023
 31
0.0
  0
LINE
  5
A691
  8
3
 10
83.232999999999933
 20
50.0
 30
0.0
 11
83.232999999999933
 21
77.600000000000023
 31
0.0
  0
LINE
  5
A692
  8
3
 10
84.0
 20
80.0
 30
0.0
 11
83.232999999999933
 21
77.600000000000023
 31
0.0
  0
LINE
  5
A949
  8
1
 10
90.0
 20
84.0
 30
0.0
 11
70.0
 21
84.0
 31
0.0
  0
LINE
  5
A94A
  8
1
 10
80.0
 20
47.0
 30
0.0
 11
80.0
 21
110.0
 31
0.0
  0
POLYLINE
  5
A95A
  8
0
 66
     1
 10
0.0
 20
0.0
 30
0.0
  0
VERTEX
  5
1035E
  8
0
 10
62.682358317047139
 20
92.142177445122911
 30
0.0
  0
VERTEX
  5
1035F
  8
0
 10
62.363765271084041
 20
92.230725849663486
 30
0.0
  0
VERTEX
  5
10360
  8
0
 10
62.06764461226453
 20
92.314677805721999
 30
0.0
  0
VERTEX
  5
10361
  8
0
 10
61.788900152268411
 20
92.395851635259532
 30
0.0
  0
VERTEX
  5
10362
  8
0
 10
61.53850891308366
 20
92.471435475724533
 30
0.0
  0
VERTEX
  5
10363
  8
0
 10
61.324253041586978
 20
92.53925162625103
 30
0.0
  0
VERTEX
  5
10364
  8
0
 10
61.140497418246689
 20
92.601184874763234
 30
0.0
  0
VERTEX
  5
10365
  8
0
 10
60.984826765744167
 20
92.658536915851755
 30
0.0
  0
VERTEX
  5
10366
  8
0
 10
60.864523204302721
 20
92.709120154705829
 30
0.0
  0
VERTEX
  5
10367
  8
0
 10
60.772199278849712
 20
92.758137996625805
 30
0.0
  0
SEQEND
  5
10368
  8
0
  0
POLYLINE
  5
A95B
  8
0
 66
     1
 10
0.0
 20
0.0
 30
0.0
  0
VERTEX
  5
10369
  8
0
 10
61.06896939298008
 20
105.3220586467348
 30
0.0
  0
VERTEX
  5
1036A
  8
0
 10
60.96284879592087
 20
105.2887971995269
 30
0.0
  0
VERTEX
  5
1036B
  8
0
 10
60.875866224877662
 20
105.23596304768991
 30
0.0
  0
VERTEX
  5
1036C
  8
0
 10
60.80769508045114
 20
105.1659266991707
 30
0.0
  0
VERTEX
  5
1036D
  8
0
 10
60.759849021707282
 20
105.08220177647119
 30
0.0
  0
VERTEX
  5
1036E
  8
0
 10
60.728307705490579
 20
104.9599338609457
 30
0.0
  0
VERTEX
  5
1036F
  8
0
 10
60.724641720262753
 20
104.89588639089629
 30
0.0
  0
SEQEND
  5
10370
  8
0
  0
LINE
  5
A95C
  8
0
 10
60.724641690409733
 20
104.8958858693417
 30
0.0
 11
60.724641690409733
 21
92.861669825635317
 31
0.0
  0
POLYLINE
  5
A95D
  8
0
 66
     1
 10
0.0
 20
0.0
 30
0.0
  0
VERTEX
  5
10371
  8
0
 10
60.724641693939141
 20
92.861669697205343
 30
0.0
  0
VERTEX
  5
10372
  8
0
 10
60.72493777668069
 20
92.850895676921368
 30
0.0
  0
VERTEX
  5
10373
  8
0
 10
60.738426863909361
 20
92.796400361496694
 30
0.0
  0
VERTEX
  5
10374
  8
0
 10
60.772199278849712
 20
92.758137996625805
 30
0.0
  0
SEQEND
  5
10375
  8
0
  0
POLYLINE
  5
A95E
  8
0
 66
     1
 10
0.0
 20
0.0
 30
0.0
  0
VERTEX
  5
10376
  8
0
 10
99.227800721148455
 20
92.758137996624555
 30
0.0
  0
VERTEX
  5
10377
  8
0
 10
99.117759346281218
 20
92.701088851777513
 30
0.0
  0
VERTEX
  5
10378
  8
0
 10
98.951138225053015
 20
92.634251740531681
 30
0.0
  0
VERTEX
  5
10379
  8
0
 10
98.728044098381815
 20
92.556485594987521
 30
0.0
  0
VERTEX
  5
1037A
  8
0
 10
98.45299059109891
 20
92.468814293872356
 30
0.0
  0
VERTEX
  5
1037B
  8
0
 10
98.122570201306075
 20
92.369814659200856
 30
0.0
  0
VERTEX
  5
1037C
  8
0
 10
97.745051376395168
 20
92.261377867149577
 30
0.0
  0
VERTEX
  5
1037D
  8
0
 10
97.327691962354834
 20
92.144948890395995
 30
0.0
  0
VERTEX
  5
1037E
  8
0
 10
97.317641682952853
 20
92.142177445122911
 30
0.0
  0
SEQEND
  5
1037F
  8
0
  0
POLYLINE
  5
A95F
  8
0
 66
     1
 10
0.0
 20
0.0
 30
0.0
  0
VERTEX
  5
10380
  8
0
 10
99.227800721148455
 20
92.758137996624555
 30
0.0
  0
VERTEX
  5
10381
  8
0
 10
99.261561540810817
 20
92.796402819368495
 30
0.0
  0
VERTEX
  5
10382
  8
0
 10
99.27507669119997
 20
92.851156723472855
 30
0.0
  0
VERTEX
  5
10383
  8
0
 10
99.275358306272437
 20
92.861668548993407
 30
0.0
  0
SEQEND
  5
10384
  8
0
  0
LINE
  5
A960
  8
0
 10
99.275358309590274
 20
92.86166867283805
 30
0.0
 11
99.275358309590274
 21
104.89596502682021
 31
0.0
  0
POLYLINE
  5
A961
  8
0
 66
     1
 10
0.0
 20
0.0
 30
0.0
  0
VERTEX
  5
10385
  8
0
 10
99.275358299613686
 20
104.89596530613861
 30
0.0
  0
VERTEX
  5
10386
  8
0
 10
99.273903325378114
 20
104.9367007809178
 30
0.0
  0
VERTEX
  5
10387
  8
0
 10
99.255323581636731
 20
105.0398217542065
 30
0.0
  0
VERTEX
  5
10388
  8
0
 10
99.213001688064665
 20
105.1353886174881
 30
0.0
  0
VERTEX
  5
10389
  8
0
 10
99.146178795840356
 20
105.21704742282731
 30
0.0
  0
VERTEX
  5
1038A
  8
0
 10
99.052265831407681
 20
105.28161390827989
 30
0.0
  0
VERTEX
  5
1038B
  8
0
 10
98.931030607020148
 20
105.3220586467348
 30
0.0
  0
SEQEND
  5
1038C
  8
0
  0
LINE
  5
A962
  8
0
 10
97.317641682952853
 20
92.142177445122911
 30
0.0
 11
96.797800563293663
 21
92.0
 31
0.0
  0
LINE
  5
A963
  8
0
 10
97.317641682952853
 20
104.5656651498505
 30
0.0
 11
97.317641682952853
 21
93.180327215262977
 31
0.0
  0
LINE
  5
A964
  8
0
 10
62.682358317047139
 20
104.56561881677339
 30
0.0
 11
62.682358317047139
 21
93.180083170119147
 31
0.0
  0
LINE
  5
A965
  8
0
 10
63.20219943670633
 20
92.0
 30
0.0
 11
62.682358317047139
 21
92.142177445122911
 31
0.0
  0
LINE
  5
A966
  8
0
 10
73.928571428571445
 20
80.0
 30
0.0
 11
86.071428571428555
 21
80.0
 31
0.0
  0
LINE
  5
A967
  8
0
 10
86.071428571428555
 20
80.0
 30
0.0
 11
86.071428571428555
 21
80.299999999999955
 31
0.0
  0
LINE
  5
A968
  8
0
 10
73.928571428571445
 20
80.299999999999955
 30
0.0
 11
73.928571428571445
 21
80.0
 31
0.0
  0
ARC
  5
A969
  8
0
 10
87.766554054054055
 20
84.0
 30
0.0
 40
1.1165540540540331
 50
243.58723897328881
 51
260.12156891575188
  0
ARC
  5
A96A
  8
0
 10
87.766554054054055
 20
84.000000000000114
 30
0.0
 40
1.1165540540539849
 50
99.878431084248106
 51
116.4127610267078
  0
ARC
  5
A96B
  8
0
 10
72.233445945945959
 20
84.000000000000114
 30
0.0
 40
1.1165540540539871
 50
63.587238973292223
 51
80.121568915751908
  0
ARC
  5
A96C
  8
0
 10
72.233445945945959
 20
84.0
 30
0.0
 40
1.1165540540540599
 50
279.87843108424812
 51
296.41276102670781
  0
LINE
  5
A96D
  8
0
 10
87.5
 20
85.0
 30
0.0
 11
72.5
 21
85.0
 31
0.0
  0
LINE
  5
A96E
  8
0
 10
72.5
 20
83.0
 30
0.0
 11
87.5
 21
83.0
 31
0.0
  0
ARC
  5
A96F
  8
0
 10
87.5
 20
84.0
 30
0.0
 40
1.0
 50
270.0
 51
90.0
  0
ARC
  5
A970
  8
0
 10
72.5
 20
84.0
 30
0.0
 40
1.0
 50
90.0
 51
270.0
  0
LINE
  5
A971
  8
0
 10
71.5
 20
85.100000000000037
 30
0.0
 11
88.499999999999986
 21
85.100000000000037
 31
0.0
  0
LINE
  5
A972
  8
0
 10
88.499999999999986
 20
85.100000000000037
 30
0.0
 11
88.499999999999986
 21
92.0
 31
0.0
  0
LINE
  5
A973
  8
0
 10
71.5
 20
92.0
 30
0.0
 11
71.5
 21
85.100000000000037
 31
0.0
  0
LINE
  5
A974
  8
0
 10
72.299999999999955
 20
80.299999999999955
 30
0.0
 11
87.700000000000045
 21
80.299999999999955
 31
0.0
  0
LINE
  5
A975
  8
0
 10
87.700000000000045
 20
80.299999999999955
 30
0.0
 11
88.499999999999986
 21
81.100000000000023
 31
0.0
  0
LINE
  5
A976
  8
0
 10
71.5
 20
81.100000000000023
 30
0.0
 11
72.299999999999955
 21
80.299999999999955
 31
0.0
  0
LINE
  5
A977
  8
0
 10
71.5
 20
82.899999999999963
 30
0.0
 11
88.499999999999986
 21
82.899999999999963
 31
0.0
  0
LINE
  5
A978
  8
0
 10
71.5
 20
81.100000000000023
 30
0.0
 11
88.499999999999986
 21
81.100000000000023
 31
0.0
  0
LINE
  5
A979
  8
0
 10
88.499999999999986
 20
81.100000000000023
 30
0.0
 11
88.499999999999986
 21
82.899999999999963
 31
0.0
  0
LINE
  5
A97A
  8
0
 10
71.5
 20
82.899999999999963
 30
0.0
 11
71.5
 21
81.100000000000023
 31
0.0
  0
POLYLINE
  5
A97B
  8
0
 66
     1
 10
0.0
 20
0.0
 30
0.0
  0
VERTEX
  5
1038D
  8
0
 10
67.062086747503372
 20
105.9358791055931
 30
0.0
  0
VERTEX
  5
1038E
  8
0
 10
67.053122681867535
 20
105.9614082372982
 30
0.0
  0
VERTEX
  5
1038F
  8
0
 10
66.989607498863506
 20
105.9989867146776
 30
0.0
  0
VERTEX
  5
10390
  8
0
 10
66.86563797990209
 20
106.0235664310437
 30
0.0
  0
VERTEX
  5
10391
  8
0
 10
66.67534280436621
 20
106.03448003288599
 30
0.0
  0
VERTEX
  5
10392
  8
0
 10
66.423132779532466
 20
106.0305572569721
 30
0.0
  0
VERTEX
  5
10393
  8
0
 10
66.125287357543016
 20
106.0129119350113
 30
0.0
  0
VERTEX
  5
10394
  8
0
 10
65.774587671551444
 20
105.9822615796831
 30
0.0
  0
VERTEX
  5
10395
  8
0
 10
65.361075252657656
 20
105.9379310813935
 30
0.0
  0
VERTEX
  5
10396
  8
0
 10
64.897366164912341
 20
105.8818277015443
 30
0.0
  0
VERTEX
  5
10397
  8
0
 10
64.584633363897183
 20
105.84149374947511
 30
0.0
  0
VERTEX
  5
10398
  8
0
 10
64.254613187787186
 20
105.79743328222609
 30
0.0
  0
VERTEX
  5
10399
  8
0
 10
64.240902839472923
 20
105.7955551066877
 30
0.0
  0
SEQEND
  5
1039A
  8
0
  0
POLYLINE
  5
A97C
  8
0
 66
     1
 10
0.0
 20
0.0
 30
0.0
  0
VERTEX
  5
1039B
  8
0
 10
92.937913251739474
 20
105.9358895358755
 30
0.0
  0
VERTEX
  5
1039C
  8
0
 10
92.966673969574003
 20
105.8818311061536
 30
0.0
  0
VERTEX
  5
1039D
  8
0
 10
93.016019890582115
 20
105.84149657796659
 30
0.0
  0
VERTEX
  5
1039E
  8
0
 10
93.089285310337118
 20
105.797435349303
 30
0.0
  0
VERTEX
  5
1039F
  8
0
 10
93.187460600594576
 20
105.7494421882682
 30
0.0
  0
VERTEX
  5
103A0
  8
0
 10
93.309518030345984
 20
105.6983375866668
 30
0.0
  0
SEQEND
  5
103A1
  8
0
  0
LINE
  5
A97D
  8
0
 10
66.177343363090017
 20
105.4264501931106
 30
0.0
 11
66.177343363090017
 21
92.427296729807836
 31
0.0
  0
POLYLINE
  5
A97E
  8
0
 66
     1
 10
0.0
 20
0.0
 30
0.0
  0
VERTEX
  5
103A2
  8
0
 10
66.177343363481441
 20
105.4260757604991
 30
0.0
  0
VERTEX
  5
103A3
  8
0
 10
66.183360819681184
 20
105.40382437680201
 30
0.0
  0
VERTEX
  5
103A4
  8
0
 10
66.23458689731342
 20
105.3607741717976
 30
0.0
  0
VERTEX
  5
103A5
  8
0
 10
66.339069346391625
 20
105.3220586467348
 30
0.0
  0
SEQEND
  5
103A6
  8
0
  0
POLYLINE
  5
A97F
  8
0
 66
     1
 10
0.0
 20
0.0
 30
0.0
  0
VERTEX
  5
103A7
  8
0
 10
66.17734337282775
 20
92.428420802804908
 30
0.0
  0
VERTEX
  5
103A8
  8
0
 10
66.181573281669785
 20
92.39305441234535
 30
0.0
  0
VERTEX
  5
103A9
  8
0
 10
66.234044444399373
 20
92.286792263855773
 30
0.0
  0
VERTEX
  5
103AA
  8
0
 10
66.34608005385121
 20
92.172369766825113
 30
0.0
  0
VERTEX
  5
103AB
  8
0
 10
66.383790462348543
 20
92.142177445122911
 30
0.0
  0
SEQEND
  5
103AC
  8
0
  0
LINE
  5
A980
  8
0
 10
93.822656636910096
 20
92.427746742632962
 30
0.0
 11
93.822656636910096
 21
105.4261243715527
 31
0.0
  0
POLYLINE
  5
A981
  8
0
 66
     1
 10
0.0
 20
0.0
 30
0.0
  0
VERTEX
  5
103AD
  8
0
 10
93.822656636864622
 20
105.42606798027821
 30
0.0
  0
VERTEX
  5
103AE
  8
0
 10
93.805699946451114
 20
105.46567940821041
 30
0.0
  0
VERTEX
  5
103AF
  8
0
 10
93.737458438874668
 20
105.5187229514965
 30
0.0
  0
VERTEX
  5
103B0
  8
0
 10
93.616209537651443
 20
105.5762351298458
 30
0.0
  0
SEQEND
  5
103B1
  8
0
  0
POLYLINE
  5
A982
  8
0
 66
     1
 10
0.0
 20
0.0
 30
0.0
  0
VERTEX
  5
103B2
  8
0
 10
93.822656634525984
 20
92.428448686173851
 30
0.0
  0
VERTEX
  5
103B3
  8
0
 10
93.816473332949727
 20
92.471455460045036
 30
0.0
  0
VERTEX
  5
103B4
  8
0
 10
93.778080239689643
 20
92.539269875535524
 30
0.0
  0
VERTEX
  5
103B5
  8
0
 10
93.704737588928424
 20
92.601201332691971
 30
0.0
  0
VERTEX
  5
103B6
  8
0
 10
93.592841120371304
 20
92.658551477347245
 30
0.0
  0
VERTEX
  5
103B7
  8
0
 10
93.444833893622217
 20
92.709132777640207
 30
0.0
  0
VERTEX
  5
103B8
  8
0
 10
93.233650218240655
 20
92.758137996625805
 30
0.0
  0
SEQEND
  5
103B9
  8
0
  0
LINE
  5
A983
  8
0
 10
92.048901870258419
 20
93.241100909769102
 30
0.0
 11
92.048901870258533
 21
104.33179057799769
 31
0.0
  0
LINE
  5
A984
  8
0
 10
67.951098129741581
 20
104.3317905779934
 30
0.0
 11
67.951098129741453
 21
93.241100909769102
 31
0.0
  0
POLYLINE
  5
A985
  8
0
 66
     1
 10
0.0
 20
0.0
 30
0.0
  0
VERTEX
  5
103BA
  8
0
 10
92.048901870258419
 20
93.241100909769102
 30
0.0
  0
VERTEX
  5
103BB
  8
0
 10
92.050287082065097
 20
93.2311238159092
 30
0.0
  0
VERTEX
  5
103BC
  8
0
 10
92.055482279926537
 20
93.219252334626731
 30
0.0
  0
VERTEX
  5
103BD
  8
0
 10
92.074171981290405
 20
93.197566245684683
 30
0.0
  0
VERTEX
  5
103BE
  8
0
 10
92.162891623437872
 20
93.14165648081223
 30
0.0
  0
VERTEX
  5
103BF
  8
0
 10
92.341580211605105
 20
93.060020791816427
 30
0.0
  0
VERTEX
  5
103C0
  8
0
 10
92.514694774007225
 20
92.991600548452993
 30
0.0
  0
VERTEX
  5
103C1
  8
0
 10
92.77952296612898
 20
92.891707544178757
 30
0.0
  0
VERTEX
  5
103C2
  8
0
 10
93.020421097257895
 20
92.811540128687625
 30
0.0
  0
VERTEX
  5
103C3
  8
0
 10
93.233650218240655
 20
92.758137996625805
 30
0.0
  0
SEQEND
  5
103C4
  8
0
  0
LINE
  5
A986
  8
0
 10
91.458596179688129
 20
93.241100909769102
 30
0.0
 11
92.048901870258419
 21
93.241100909769102
 31
0.0
  0
POLYLINE
  5
A987
  8
0
 66
     1
 10
0.0
 20
0.0
 30
0.0
  0
VERTEX
  5
103C5
  8
0
 10
93.660930653608375
 20
105.3220586467348
 30
0.0
  0
VERTEX
  5
103C6
  8
0
 10
93.571343366242886
 20
105.2887971995269
 30
0.0
  0
VERTEX
  5
103C7
  8
0
 10
93.462731590561816
 20
105.23596304768991
 30
0.0
  0
VERTEX
  5
103C8
  8
0
 10
93.333990958833269
 20
105.1659266991707
 30
0.0
  0
VERTEX
  5
103C9
  8
0
 10
93.187410662560524
 20
105.08220177647119
 30
0.0
  0
VERTEX
  5
103CA
  8
0
 10
92.977297415107387
 20
104.9599338609457
 30
0.0
  0
VERTEX
  5
103CB
  8
0
 10
92.741355626048517
 20
104.822575931568
 30
0.0
  0
VERTEX
  5
103CC
  8
0
 10
92.477520727573392
 20
104.6691616068763
 30
0.0
  0
VERTEX
  5
103CD
  8
0
 10
92.193540577091525
 20
104.4944439793946
 30
0.0
  0
VERTEX
  5
103CE
  8
0
 10
92.134178158698873
 20
104.4509366917375
 30
0.0
  0
VERTEX
  5
103CF
  8
0
 10
92.095961092211837
 20
104.41748165116471
 30
0.0
  0
VERTEX
  5
103D0
  8
0
 10
92.062061387460631
 20
104.3757557351171
 30
0.0
  0
VERTEX
  5
103D1
  8
0
 10
92.052437576521925
 20
104.35437857680741
 30
0.0
  0
VERTEX
  5
103D2
  8
0
 10
92.048901870258533
 20
104.33179057799769
 30
0.0
  0
SEQEND
  5
103D3
  8
0
  0
LINE
  5
A988
  8
0
 10
91.458596179688129
 20
104.3317905779934
 30
0.0
 11
92.048901870258533
 21
104.33179057799769
 31
0.0
  0
LINE
  5
A989
  8
0
 10
93.429923391458829
 20
92.0
 30
0.0
 11
93.616209537651443
 21
92.142177445122911
 31
0.0
  0
POLYLINE
  5
A98A
  8
0
 66
     1
 10
0.0
 20
0.0
 30
0.0
  0
VERTEX
  5
103D4
  8
0
 10
93.616209537651443
 20
92.142177445122911
 30
0.0
  0
VERTEX
  5
103D5
  8
0
 10
93.717603109002312
 20
92.230731691391824
 30
0.0
  0
VERTEX
  5
103D6
  8
0
 10
93.785435099404594
 20
92.314688843573876
 30
0.0
  0
VERTEX
  5
103D7
  8
0
 10
93.819332459522911
 20
92.395867581318385
 30
0.0
  0
VERTEX
  5
103D8
  8
0
 10
93.822656634525984
 20
92.428448686173851
 30
0.0
  0
SEQEND
  5
103D9
  8
0
  0
LINE
  5
A98B
  8
0
 10
85.989043018149005
 20
92.142177445122911
 30
0.0
 11
85.449339733963583
 21
92.0
 31
0.0
  0
LINE
  5
A98C
  8
0
 10
74.550660266036402
 20
92.0
 30
0.0
 11
74.010956981850995
 21
92.142177445122911
 31
0.0
  0
POLYLINE
  5
A98D
  8
0
 66
     1
 10
0.0
 20
0.0
 30
0.0
  0
VERTEX
  5
103DA
  8
0
 10
66.766349781752865
 20
92.758137996624555
 30
0.0
  0
VERTEX
  5
103DB
  8
0
 10
66.574998746370056
 20
92.714647545641697
 30
0.0
  0
VERTEX
  5
103DC
  8
0
 10
66.388485610616954
 20
92.650366588051838
 30
0.0
  0
VERTEX
  5
103DD
  8
0
 10
66.259574226926588
 20
92.575067955887107
 30
0.0
  0
VERTEX
  5
103DE
  8
0
 10
66.190170300752584
 20
92.489743340516952
 30
0.0
  0
VERTEX
  5
103DF
  8
0
 10
66.17734337282775
 20
92.428420802804908
 30
0.0
  0
SEQEND
  5
103E0
  8
0
  0
LINE
  5
A98E
  8
0
 10
66.383790462348543
 20
92.142177445122911
 30
0.0
 11
66.570076608541171
 21
92.0
 31
0.0
  0
LINE
  5
A98F
  8
0
 10
63.20219943670633
 20
92.0
 30
0.0
 11
96.797800563293563
 21
92.0
 31
0.0
  0
LINE
  5
A990
  8
0
 10
74.010956981850995
 20
104.5677576809326
 30
0.0
 11
74.010956981850995
 21
93.173429581799155
 31
0.0
  0
LINE
  5
A991
  8
0
 10
68.541403820312098
 20
93.241100909769102
 30
0.0
 11
68.541403820312098
 21
104.33179057799769
 31
0.0
  0
POLYLINE
  5
A992
  8
0
 66
     1
 10
0.0
 20
0.0
 30
0.0
  0
VERTEX
  5
103E1
  8
0
 10
74.010956981850995
 20
92.142177445122911
 30
0.0
  0
VERTEX
  5
103E2
  8
0
 10
73.659494094061756
 20
92.230730031069015
 30
0.0
  0
VERTEX
  5
103E3
  8
0
 10
73.290094318258184
 20
92.314685706425621
 30
0.0
  0
VERTEX
  5
103E4
  8
0
 10
72.893907267981149
 20
92.395863049176114
 30
0.0
  0
VERTEX
  5
103E5
  8
0
 10
72.484131108201154
 20
92.471449780171838
 30
0.0
  0
VERTEX
  5
103E6
  8
0
 10
72.075351132494234
 20
92.539264688793764
 30
0.0
  0
VERTEX
  5
103E7
  8
0
 10
71.659372358011865
 20
92.601196655088515
 30
0.0
  0
VERTEX
  5
103E8
  8
0
 10
71.226455317036653
 20
92.658547338746985
 30
0.0
  0
VERTEX
  5
103E9
  8
0
 10
70.792335103179312
 20
92.709129190016355
 30
0.0
  0
VERTEX
  5
103EA
  8
0
 10
70.301260752609892
 20
92.758137996625805
 30
0.0
  0
SEQEND
  5
103EB
  8
0
  0
POLYLINE
  5
A993
  8
0
 66
     1
 10
0.0
 20
0.0
 30
0.0
  0
VERTEX
  5
103EC
  8
0
 10
68.541403820312098
 20
93.241100909769102
 30
0.0
  0
VERTEX
  5
103ED
  8
0
 10
68.542944968789016
 20
93.2311238159092
 30
0.0
  0
VERTEX
  5
103EE
  8
0
 10
68.548732307320961
 20
93.219252334626731
 30
0.0
  0
VERTEX
  5
103EF
  8
0
 10
68.569648152213063
 20
93.197566245684683
 30
0.0
  0
VERTEX
  5
103F0
  8
0
 10
68.671036226137858
 20
93.141656480812117
 30
0.0
  0
VERTEX
  5
103F1
  8
0
 10
68.886593139832243
 20
93.0600207918161
 30
0.0
  0
VERTEX
  5
103F2
  8
0
 10
69.111499034650024
 20
92.991600548452539
 30
0.0
  0
VERTEX
  5
103F3
  8
0
 10
69.493268039128665
 20
92.89170754417853
 30
0.0
  0
VERTEX
  5
103F4
  8
0
 10
69.891361227012112
 20
92.811540128687625
 30
0.0
  0
VERTEX
  5
103F5
  8
0
 10
70.301260752609892
 20
92.758137996625805
 30
0.0
  0
SEQEND
  5
103F6
  8
0
  0
LINE
  5
A994
  8
0
 10
67.951098129741453
 20
93.241100909769102
 30
0.0
 11
68.541403820312098
 21
93.241100909769102
 31
0.0
  0
POLYLINE
  5
A995
  8
0
 66
     1
 10
0.0
 20
0.0
 30
0.0
  0
VERTEX
  5
103F7
  8
0
 10
66.766349781752865
 20
92.758137996624555
 30
0.0
  0
VERTEX
  5
103F8
  8
0
 10
66.911092326863013
 20
92.792415608829515
 30
0.0
  0
VERTEX
  5
103F9
  8
0
 10
67.069235764056202
 20
92.840535129279488
 30
0.0
  0
VERTEX
  5
103FA
  8
0
 10
67.316190077547731
 20
92.920787196612082
 30
0.0
  0
VERTEX
  5
103FB
  8
0
 10
67.58588773946326
 20
93.020987905735865
 30
0.0
  0
VERTEX
  5
103FC
  8
0
 10
67.86869274031892
 20
93.158620493597127
 30
0.0
  0
VERTEX
  5
103FD
  8
0
 10
67.901342904222247
 20
93.17871187913056
 30
0.0
  0
VERTEX
  5
103FE
  8
0
 10
67.92261900824974
 20
93.194754579025826
 30
0.0
  0
VERTEX
  5
103FF
  8
0
 10
67.942262790313976
 20
93.215732519755207
 30
0.0
  0
VERTEX
  5
10400
  8
0
 10
67.94782017707098
 20
93.225726570399161
 30
0.0
  0
VERTEX
  5
10401
  8
0
 10
67.950921550561134
 20
93.237542662656892
 30
0.0
  0
VERTEX
  5
10402
  8
0
 10
67.951098129741453
 20
93.241100909769102
 30
0.0
  0
SEQEND
  5
10403
  8
0
  0
LINE
  5
A996
  8
0
 10
72.799999999999955
 20
107.0
 30
0.0
 11
87.200000000000045
 21
107.0
 31
0.0
  0
LINE
  5
A997
  8
0
 10
85.100504513769692
 20
105.6983375866668
 30
0.0
 11
85.989043018149005
 21
105.5762351298458
 31
0.0
  0
POLYLINE
  5
A998
  8
0
 66
     1
 10
0.0
 20
0.0
 30
0.0
  0
VERTEX
  5
10404
  8
0
 10
93.660930653608375
 20
105.3220586467348
 30
0.0
  0
VERTEX
  5
10405
  8
0
 10
93.749008603386756
 20
105.3527796875053
 30
0.0
  0
VERTEX
  5
10406
  8
0
 10
93.803026084458338
 20
105.38663686664199
 30
0.0
  0
VERTEX
  5
10407
  8
0
 10
93.822599121038138
 20
105.4246355637826
 30
0.0
  0
VERTEX
  5
10408
  8
0
 10
93.822656636864622
 20
105.42606798027821
 30
0.0
  0
SEQEND
  5
10409
  8
0
  0
LINE
  5
A999
  8
0
 10
93.616209537651443
 20
105.5762351298458
 30
0.0
 11
93.309518030345984
 21
105.6983375866668
 31
0.0
  0
POLYLINE
  5
A99A
  8
0
 66
     1
 10
0.0
 20
0.0
 30
0.0
  0
VERTEX
  5
1040A
  8
0
 10
97.317641682952853
 20
105.5762351298458
 30
0.0
  0
VERTEX
  5
1040B
  8
0
 10
97.636354932465338
 20
105.52977324780591
 30
0.0
  0
VERTEX
  5
1040C
  8
0
 10
97.932113614596105
 20
105.4857941259051
 30
0.0
  0
VERTEX
  5
1040D
  8
0
 10
98.210179872407494
 20
105.4433244224108
 30
0.0
  0
VERTEX
  5
1040E
  8
0
 10
98.459652668573995
 20
105.4038350061612
 30
0.0
  0
VERTEX
  5
1040F
  8
0
 10
98.717544738569032
 20
105.3607790227959
 30
0.0
  0
VERTEX
  5
10410
  8
0
 10
98.931030607020148
 20
105.3220586467348
 30
0.0
  0
SEQEND
  5
10411
  8
0
  0
POLYLINE
  5
A99B
  8
0
 66
     1
 10
0.0
 20
0.0
 30
0.0
  0
VERTEX
  5
10412
  8
0
 10
61.068969392979959
 20
105.3220586467348
 30
0.0
  0
VERTEX
  5
10413
  8
0
 10
61.23667578856589
 20
105.3527796946703
 30
0.0
  0
VERTEX
  5
10414
  8
0
 10
61.435267641792507
 20
105.3866368823348
 30
0.0
  0
VERTEX
  5
10415
  8
0
 10
61.670484795617313
 20
105.4246355901134
 30
0.0
  0
VERTEX
  5
10416
  8
0
 10
61.935111085620058
 20
105.4656794465034
 30
0.0
  0
VERTEX
  5
10417
  8
0
 10
62.288710180977773
 20
105.5187229724749
 30
0.0
  0
VERTEX
  5
10418
  8
0
 10
62.682358317047139
 20
105.5762351298458
 30
0.0
  0
SEQEND
  5
10419
  8
0
  0
POLYLINE
  5
A99C
  8
0
 66
     1
 10
0.0
 20
0.0
 30
0.0
  0
VERTEX
  5
1041A
  8
0
 10
66.690481969654002
 20
105.6983375866668
 30
0.0
  0
VERTEX
  5
1041B
  8
0
 10
66.870954853669204
 20
105.77697625527161
 30
0.0
  0
VERTEX
  5
1041C
  8
0
 10
66.992527181095397
 20
105.84751038105669
 30
0.0
  0
VERTEX
  5
1041D
  8
0
 10
67.05485229945532
 20
105.910168549932
 30
0.0
  0
VERTEX
  5
1041E
  8
0
 10
67.062086747503372
 20
105.9358791055931
 30
0.0
  0
SEQEND
  5
1041F
  8
0
  0
LINE
  5
A99D
  8
0
 10
66.690481969654002
 20
105.6983375866668
 30
0.0
 11
66.383790462348543
 21
105.5762351298458
 31
0.0
  0
POLYLINE
  5
A99E
  8
0
 66
     1
 10
0.0
 20
0.0
 30
0.0
  0
VERTEX
  5
10420
  8
0
 10
66.383790462348543
 20
105.5762351298458
 30
0.0
  0
VERTEX
  5
10421
  8
0
 10
66.282364125010531
 20
105.52977012779481
 30
0.0
  0
VERTEX
  5
10422
  8
0
 10
66.214607976245702
 20
105.48578823993741
 30
0.0
  0
VERTEX
  5
10423
  8
0
 10
66.180721431194229
 20
105.443315930632
 30
0.0
  0
VERTEX
  5
10424
  8
0
 10
66.177343363481441
 20
105.4260757604991
 30
0.0
  0
SEQEND
  5
10425
  8
0
  0
POLYLINE
  5
A99F
  8
0
 66
     1
 10
0.0
 20
0.0
 30
0.0
  0
VERTEX
  5
10426
  8
0
 10
71.472799151270692
 20
105.3220586467348
 30
0.0
  0
VERTEX
  5
10427
  8
0
 10
71.886666875987643
 20
105.35277968954161
 30
0.0
  0
VERTEX
  5
10428
  8
0
 10
72.295397302428114
 20
105.3866368711021
 30
0.0
  0
VERTEX
  5
10429
  8
0
 10
72.707656400127917
 20
105.42463557126641
 30
0.0
  0
VERTEX
  5
1042A
  8
0
 10
73.108487180084467
 20
105.4656794190944
 30
0.0
  0
VERTEX
  5
1042B
  8
0
 10
73.570205580522497
 20
105.5187229574592
 30
0.0
  0
VERTEX
  5
1042C
  8
0
 10
74.010956981850995
 20
105.5762351298458
 30
0.0
  0
SEQEND
  5
1042D
  8
0
  0
LINE
  5
A9A0
  8
0
 10
74.010956981850995
 20
105.5762351298458
 30
0.0
 11
74.899495486230293
 21
105.6983375866668
 31
0.0
  0
POLYLINE
  5
A9A1
  8
0
 66
     1
 10
0.0
 20
0.0
 30
0.0
  0
VERTEX
  5
1042E
  8
0
 10
85.100504513769692
 20
105.6983375866668
 30
0.0
  0
VERTEX
  5
1042F
  8
0
 10
84.478711771502745
 20
105.7767253038696
 30
0.0
  0
VERTEX
  5
10430
  8
0
 10
83.821808678094385
 20
105.84750894488501
 30
0.0
  0
VERTEX
  5
10431
  8
0
 10
83.123301159153698
 20
105.9099692262746
 30
0.0
  0
VERTEX
  5
10432
  8
0
 10
82.396482545155095
 20
105.961406246457
 30
0.0
  0
VERTEX
  5
10433
  8
0
 10
81.677690151361489
 20
105.9988949502922
 30
0.0
  0
VERTEX
  5
10434
  8
0
 10
80.941855518051057
 20
106.0235656305606
 30
0.0
  0
VERTEX
  5
10435
  8
0
 10
80.182583476782384
 20
106.0344951433319
 30
0.0
  0
VERTEX
  5
10436
  8
0
 10
79.416147623663392
 20
106.030557750076
 30
0.0
  0
VERTEX
  5
10437
  8
0
 10
78.6918864840884
 20
106.01301789812079
 30
0.0
  0
VERTEX
  5
10438
  8
0
 10
77.963990683871089
 20
105.98184417892141
 30
0.0
  0
VERTEX
  5
10439
  8
0
 10
77.2504616446613
 20
105.93812877584899
 30
0.0
  0
VERTEX
  5
1043A
  8
0
 10
76.543979795213659
 20
105.881830379014
 30
0.0
  0
VERTEX
  5
1043B
  8
0
 10
76.11837573931939
 20
105.8415547505594
 30
0.0
  0
VERTEX
  5
1043C
  8
0
 10
75.700659369607479
 20
105.7972437256373
 30
0.0
  0
VERTEX
  5
1043D
  8
0
 10
75.294895287530153
 20
105.7495107511142
 30
0.0
  0
VERTEX
  5
1043E
  8
0
 10
74.899495486230293
 20
105.6983375866668
 30
0.0
  0
SEQEND
  5
1043F
  8
0
  0
LINE
  5
A9A2
  8
0
 10
72.799999999999955
 20
107.0
 30
0.0
 11
62.682358317047139
 21
105.5762351298458
 31
0.0
  0
LINE
  5
A9A3
  8
0
 10
97.317641682952853
 20
105.5762351298458
 30
0.0
 11
87.200000000000045
 21
107.0
 31
0.0
  0
POLYLINE
  5
A9A4
  8
0
 66
     1
 10
0.0
 20
0.0
 30
0.0
  0
VERTEX
  5
10440
  8
0
 10
95.799681145670547
 20
105.7898440868525
 30
0.0
  0
VERTEX
  5
10441
  8
0
 10
95.369485457056044
 20
105.84750855485071
 30
0.0
  0
VERTEX
  5
10442
  8
0
 10
94.873826890563009
 20
105.9101661757793
 30
0.0
  0
VERTEX
  5
10443
  8
0
 10
94.427988519269093
 20
105.96140570578309
 30
0.0
  0
VERTEX
  5
10444
  8
0
 10
94.045660053915526
 20
105.9989849192575
 30
0.0
  0
VERTEX
  5
10445
  8
0
 10
93.716457494618453
 20
106.0235654131618
 30
0.0
  0
VERTEX
  5
10446
  8
0
 10
93.435699190875766
 20
106.0344798385606
 30
0.0
  0
VERTEX
  5
10447
  8
0
 10
93.216016589501336
 20
106.0305578839877
 30
0.0
  0
VERTEX
  5
10448
  8
0
 10
93.064700715478807
 20
106.01291332591261
 30
0.0
  0
VERTEX
  5
10449
  8
0
 10
92.971826298957012
 20
105.9822636933538
 30
0.0
  0
VERTEX
  5
1044A
  8
0
 10
92.938021957578485
 20
105.9379338768688
 30
0.0
  0
VERTEX
  5
1044B
  8
0
 10
92.937913251739474
 20
105.9358895358755
 30
0.0
  0
SEQEND
  5
1044C
  8
0
  0
POLYLINE
  5
A9A5
  8
0
 66
     1
 10
0.0
 20
0.0
 30
0.0
  0
VERTEX
  5
1044D
  8
0
 10
89.698739247376579
 20
92.758137996624555
 30
0.0
  0
VERTEX
  5
1044E
  8
0
 10
90.185214659127254
 20
92.825380956363574
 30
0.0
  0
VERTEX
  5
1044F
  8
0
 10
90.652880505313647
 20
92.927851398843146
 30
0.0
  0
VERTEX
  5
10450
  8
0
 10
90.937195307417696
 20
93.005852026718571
 30
0.0
  0
VERTEX
  5
10451
  8
0
 10
91.123502076283785
 20
93.064478449386456
 30
0.0
  0
VERTEX
  5
10452
  8
0
 10
91.245003845633377
 20
93.107591155619616
 30
0.0
  0
VERTEX
  5
10453
  8
0
 10
91.324123991299416
 20
93.139536033310378
 30
0.0
  0
VERTEX
  5
10454
  8
0
 10
91.375630225140625
 20
93.163742305252754
 30
0.0
  0
VERTEX
  5
10455
  8
0
 10
91.409115880158296
 20
93.182639272073402
 30
0.0
  0
VERTEX
  5
10456
  8
0
 10
91.43077359774361
 20
93.197905185031104
 30
0.0
  0
VERTEX
  5
10457
  8
0
 10
91.450613187732529
 20
93.218286728865095
 30
0.0
  0
VERTEX
  5
10458
  8
0
 10
91.456263817555737
 20
93.228819963287947
 30
0.0
  0
VERTEX
  5
10459
  8
0
 10
91.458500515630917
 20
93.238617806254396
 30
0.0
  0
VERTEX
  5
1045A
  8
0
 10
91.458596179688129
 20
93.241100909769102
 30
0.0
  0
SEQEND
  5
1045B
  8
0
  0
LINE
  5
A9A6
  8
0
 10
91.458596179688129
 20
104.3317905779934
 30
0.0
 11
91.458596179688129
 21
93.241100909769102
 31
0.0
  0
POLYLINE
  5
A9A7
  8
0
 66
     1
 10
0.0
 20
0.0
 30
0.0
  0
VERTEX
  5
1045C
  8
0
 10
91.458596179688129
 20
104.3317905779934
 30
0.0
  0
VERTEX
  5
1045D
  8
0
 10
91.455324761947864
 20
104.3523749892465
 30
0.0
  0
VERTEX
  5
1045E
  8
0
 10
91.443065840232862
 20
104.37704860991759
 30
0.0
  0
VERTEX
  5
1045F
  8
0
 10
91.394134240537142
 20
104.42720188846781
 30
0.0
  0
VERTEX
  5
10460
  8
0
 10
91.267000952570115
 20
104.5093470739791
 30
0.0
  0
VERTEX
  5
10461
  8
0
 10
91.130690099456956
 20
104.5801373163592
 30
0.0
  0
VERTEX
  5
10462
  8
0
 10
90.850920405329362
 20
104.7070003571734
 30
0.0
  0
VERTEX
  5
10463
  8
0
 10
90.558604093958465
 20
104.825098878872
 30
0.0
  0
VERTEX
  5
10464
  8
0
 10
90.252581310016012
 20
104.9367007809178
 30
0.0
  0
VERTEX
  5
10465
  8
0
 10
89.936282673817686
 20
105.0398217542065
 30
0.0
  0
VERTEX
  5
10466
  8
0
 10
89.599804271541075
 20
105.1353886174881
 30
0.0
  0
VERTEX
  5
10467
  8
0
 10
89.253883545261473
 20
105.21704742282731
 30
0.0
  0
VERTEX
  5
10468
  8
0
 10
88.8942123356303
 20
105.28161390827989
 30
0.0
  0
VERTEX
  5
10469
  8
0
 10
88.527200848729308
 20
105.3220586467348
 30
0.0
  0
SEQEND
  5
1046A
  8
0
  0
POLYLINE
  5
A9A8
  8
0
 66
     1
 10
0.0
 20
0.0
 30
0.0
  0
VERTEX
  5
1046B
  8
0
 10
85.989043018149005
 20
105.5762351298458
 30
0.0
  0
VERTEX
  5
1046C
  8
0
 10
86.340647871056277
 20
105.5297710145573
 30
0.0
  0
VERTEX
  5
1046D
  8
0
 10
86.709584980771865
 20
105.485789912831
 30
0.0
  0
VERTEX
  5
1046E
  8
0
 10
87.104692374043438
 20
105.44331834414039
 30
0.0
  0
VERTEX
  5
1046F
  8
0
 10
87.512627005992044
 20
105.4038273978406
 30
0.0
  0
VERTEX
  5
10470
  8
0
 10
88.012745499905122
 20
105.3607755505338
 30
0.0
  0
VERTEX
  5
10471
  8
0
 10
88.527200848729308
 20
105.3220586467348
 30
0.0
  0
SEQEND
  5
10472
  8
0
  0
LINE
  5
A9A9
  8
0
 10
85.989043018149005
 20
104.567541285216
 30
0.0
 11
85.989043018149005
 21
93.17374509099659
 31
0.0
  0
POLYLINE
  5
A9AA
  8
0
 66
     1
 10
0.0
 20
0.0
 30
0.0
  0
VERTEX
  5
10473
  8
0
 10
89.698739247376579
 20
92.758137996624555
 30
0.0
  0
VERTEX
  5
10474
  8
0
 10
89.344975856183297
 20
92.723707653775918
 30
0.0
  0
VERTEX
  5
10475
  8
0
 10
88.795453927122367
 20
92.661208833240153
 30
0.0
  0
VERTEX
  5
10476
  8
0
 10
88.245903163001444
 20
92.587633021440297
 30
0.0
  0
VERTEX
  5
10477
  8
0
 10
87.706356814373734
 20
92.503949467184157
 30
0.0
  0
VERTEX
  5
10478
  8
0
 10
87.174006529467874
 20
92.408877112134064
 30
0.0
  0
VERTEX
  5
10479
  8
0
 10
86.661778967175323
 20
92.304139586438055
 30
0.0
  0
VERTEX
  5
1047A
  8
0
 10
86.178763302298194
 20
92.191127569414334
 30
0.0
  0
VERTEX
  5
1047B
  8
0
 10
85.989043018149005
 20
92.142177445122911
 30
0.0
  0
SEQEND
  5
1047C
  8
0
  0
POLYLINE
  5
A9AB
  8
0
 66
     1
 10
0.0
 20
0.0
 30
0.0
  0
VERTEX
  5
1047D
  8
0
 10
71.472799151270692
 20
105.3220586467348
 30
0.0
  0
VERTEX
  5
1047E
  8
0
 10
71.156137142405441
 20
105.2887971995269
 30
0.0
  0
VERTEX
  5
1047F
  8
0
 10
70.839658841398204
 20
105.23596304768991
 30
0.0
  0
VERTEX
  5
10480
  8
0
 10
70.521048894794149
 20
105.1659266991707
 30
0.0
  0
VERTEX
  5
10481
  8
0
 10
70.206460444068625
 20
105.08220177647119
 30
0.0
  0
VERTEX
  5
10482
  8
0
 10
69.815455146514296
 20
104.9599338609457
 30
0.0
  0
VERTEX
  5
10483
  8
0
 10
69.434832775679752
 20
104.822575931568
 30
0.0
  0
VERTEX
  5
10484
  8
0
 10
69.061722360323529
 20
104.6691616068763
 30
0.0
  0
VERTEX
  5
10485
  8
0
 10
68.706894686776195
 20
104.4944439793948
 30
0.0
  0
VERTEX
  5
10486
  8
0
 10
68.637835889335065
 20
104.4509366917375
 30
0.0
  0
VERTEX
  5
10487
  8
0
 10
68.594224052816344
 20
104.41748165116471
 30
0.0
  0
VERTEX
  5
10488
  8
0
 10
68.556077891532141
 20
104.37575573511729
 30
0.0
  0
VERTEX
  5
10489
  8
0
 10
68.545339173189632
 20
104.3543785768076
 30
0.0
  0
VERTEX
  5
1048A
  8
0
 10
68.541403820312098
 20
104.33179057799769
 30
0.0
  0
SEQEND
  5
1048B
  8
0
  0
POLYLINE
  5
A9AC
  8
0
 66
     1
 10
0.0
 20
0.0
 30
0.0
  0
VERTEX
  5
1048C
  8
0
 10
67.951098129741581
 20
104.3317905779934
 30
0.0
  0
VERTEX
  5
1048D
  8
0
 10
67.94815859774701
 20
104.3523749892465
 30
0.0
  0
VERTEX
  5
1048E
  8
0
 10
67.937172774456371
 20
104.37704860991759
 30
0.0
  0
VERTEX
  5
1048F
  8
0
 10
67.893781317503453
 20
104.42720188846781
 30
0.0
  0
VERTEX
  5
10490
  8
0
 10
67.78438188918642
 20
104.5093470739791
 30
0.0
  0
VERTEX
  5
10491
  8
0
 10
67.672226513896817
 20
104.5801373163592
 30
0.0
  0
VERTEX
  5
10492
  8
0
 10
67.457653398465254
 20
104.7070003571734
 30
0.0
  0
VERTEX
  5
10493
  8
0
 10
67.254300412766611
 20
104.825098878872
 30
0.0
  0
VERTEX
  5
10494
  8
0
 10
67.062540396633835
 20
104.9367007809176
 30
0.0
  0
VERTEX
  5
10495
  8
0
 10
66.885636832609634
 20
105.0398217542063
 30
0.0
  0
VERTEX
  5
10496
  8
0
 10
66.720003637094351
 20
105.13538861748791
 30
0.0
  0
VERTEX
  5
10497
  8
0
 10
66.573035763064809
 20
105.21704742282731
 30
0.0
  0
VERTEX
  5
10498
  8
0
 10
66.444659695170458
 20
105.28161390827989
 30
0.0
  0
VERTEX
  5
10499
  8
0
 10
66.339069346391625
 20
105.3220586467348
 30
0.0
  0
SEQEND
  5
1049A
  8
0
  0
LINE
  5
A9AD
  8
0
 10
67.951098129741581
 20
104.3317905779934
 30
0.0
 11
68.541403820312098
 21
104.33179057799769
 31
0.0
  0
LINE
  5
AB67
  8
2
 10
282.0
 20
182.5
 30
0.0
 11
282.0
 21
181.24174393022571
 31
0.0
  0
LINE
  5
AB68
  8
2
 10
287.0
 20
180.65000000000009
 30
0.0
 11
287.0
 21
182.5
 31
0.0
  0
LINE
  5
AB69
  8
2
 10
282.0
 20
178.75825606977421
 30
0.0
 11
282.0
 21
177.5
 31
0.0
  0
LINE
  5
AB6A
  8
2
 10
287.0
 20
177.5
 30
0.0
 11
287.0
 21
179.34999999999991
 31
0.0
  0
LINE
  5
AB6B
  8
2
 10
287.0
 20
182.5
 30
0.0
 11
282.0
 21
182.5
 31
0.0
  0
LINE
  5
AB6C
  8
2
 10
287.0
 20
182.5
 30
0.0
 11
288.5
 21
184.0
 31
0.0
  0
LINE
  5
AB6D
  8
2
 10
280.5
 20
184.0
 30
0.0
 11
282.0
 21
182.5
 31
0.0
  0
LINE
  5
AB6E
  8
2
 10
287.0
 20
177.5
 30
0.0
 11
282.0
 21
177.5
 31
0.0
  0
LINE
  5
AB6F
  8
2
 10
282.0
 20
177.5
 30
0.0
 11
280.5
 21
176.0
 31
0.0
  0
LINE
  5
AB70
  8
2
 10
288.5
 20
176.0
 30
0.0
 11
287.0
 21
177.5
 31
0.0
  0
CIRCLE
  5
AB71
  8
2
 10
180.0
 20
180.0
 30
0.0
 40
3.2329999999999468
  0
LINE
  5
AB72
  8
1
 10
157.0
 20
180.0
 30
0.0
 11
291.0
 21
180.0
 31
0.0
  0
LINE
  5
AB73
  8
1
 10
284.49999999999977
 20
174.5
 30
0.0
 11
284.5
 21
185.49999999999969
 31
0.0
  0
LINE
  5
AB74
  8
1
 10
274.0
 20
176.25
 30
0.0
 11
274.0
 21
183.75
 31
0.0
  0
LINE
  5
AB75
  8
1
 10
224.0
 20
175.18764940927781
 30
0.0
 11
224.0
 21
184.81235059072219
 31
0.0
  0
LINE
  5
AB76
  8
1
 10
213.5
 20
174.5
 30
0.0
 11
213.5
 21
185.5
 31
0.0
  0
LINE
  5
AB77
  8
1
 10
180.0
 20
157.0
 30
0.0
 11
180.0
 21
203.0
 31
0.0
  0
LINE
  5
AB78
  8
0
 10
257.80625890315201
 20
180.5
 30
0.0
 11
256.19374109684799
 21
180.5
 31
0.0
  0
LINE
  5
AB79
  8
0
 10
256.19374109684799
 20
179.5
 30
0.0
 11
257.80625890315201
 21
179.5
 31
0.0
  0
LINE
  5
AB7A
  8
0
 10
239.8062589031519
 20
180.5
 30
0.0
 11
238.19374109684799
 21
180.5
 31
0.0
  0
LINE
  5
AB7B
  8
0
 10
238.19374109684799
 20
179.5
 30
0.0
 11
239.8062589031519
 21
179.5
 31
0.0
  0
LINE
  5
AB7C
  8
0
 10
263.80625890315201
 20
180.5
 30
0.0
 11
262.19374109684799
 21
180.5
 31
0.0
  0
LINE
  5
AB7D
  8
0
 10
262.19374109684799
 20
179.5
 30
0.0
 11
263.80625890315201
 21
179.5
 31
0.0
  0
LINE
  5
AB7E
  8
0
 10
251.80625890315201
 20
180.5
 30
0.0
 11
251.394573782225
 21
180.5
 31
0.0
  0
LINE
  5
AB7F
  8
0
 10
250.62141562118401
 20
179.5
 30
0.0
 11
251.80625890315201
 21
179.5
 31
0.0
  0
LINE
  5
AB80
  8
0
 10
233.8062589031519
 20
180.5
 30
0.0
 11
232.19374109684799
 21
180.5
 31
0.0
  0
LINE
  5
AB81
  8
0
 10
232.19374109684799
 20
179.5
 30
0.0
 11
233.8062589031519
 21
179.5
 31
0.0
  0
LINE
  5
AB82
  8
0
 10
245.8062589031519
 20
180.5
 30
0.0
 11
244.19374109684799
 21
180.5
 31
0.0
  0
LINE
  5
AB83
  8
0
 10
244.19374109684799
 20
179.5
 30
0.0
 11
245.8062589031519
 21
179.5
 31
0.0
  0
LINE
  5
AB84
  8
0
 10
227.80625890315201
 20
180.5
 30
0.0
 11
227.5
 21
180.5
 31
0.0
  0
LINE
  5
AB85
  8
0
 10
227.5
 20
179.5
 30
0.0
 11
227.80625890315201
 21
179.5
 31
0.0
  0
LINE
  5
AB86
  8
0
 10
270.53059068524891
 20
180.5
 30
0.0
 11
268.1937410968481
 21
180.5
 31
0.0
  0
LINE
  5
AB87
  8
0
 10
268.1937410968481
 20
179.5
 30
0.0
 11
270.53137303340299
 21
179.5
 31
0.0
  0
LINE
  5
AB88
  8
0
 10
245.8062589031519
 20
180.5
 30
0.0
 11
245.8062589031519
 21
179.5
 31
0.0
  0
ARC
  5
AB89
  8
0
 10
248.0
 20
180.0
 30
0.0
 40
2.2499999999999929
 50
43.635208626992693
 51
167.1604115930987
  0
ARC
  5
AB8A
  8
0
 10
248.0
 20
180.0
 30
0.0
 40
2.2500000000000022
 50
192.83958840690121
 51
286.1681491524771
  0
LINE
  5
AB8B
  8
0
 10
257.80625890315201
 20
180.5
 30
0.0
 11
257.80625890315201
 21
179.5
 31
0.0
  0
LINE
  5
AB8C
  8
0
 10
262.19374109684799
 20
179.5
 30
0.0
 11
262.19374109684799
 21
180.5
 31
0.0
  0
ARC
  5
AB8D
  8
0
 10
260.0
 20
180.0
 30
0.0
 40
2.2500000000000031
 50
12.83958840690125
 51
167.1604115930987
  0
ARC
  5
AB8E
  8
0
 10
260.0
 20
180.0
 30
0.0
 40
2.2499999999999938
 50
192.83958840690121
 51
347.16041159309867
  0
LINE
  5
AB8F
  8
0
 10
251.80625890315201
 20
180.5
 30
0.0
 11
251.80625890315201
 21
179.5
 31
0.0
  0
LINE
  5
AB90
  8
0
 10
256.19374109684799
 20
179.5
 30
0.0
 11
256.19374109684799
 21
180.5
 31
0.0
  0
ARC
  5
AB91
  8
0
 10
254.0
 20
180.0
 30
0.0
 40
2.2499999999999898
 50
12.83958840690125
 51
167.1604115930987
  0
ARC
  5
AB92
  8
0
 10
254.0
 20
180.0
 30
0.0
 40
2.2500000000000049
 50
192.83958840690121
 51
347.16041159309867
  0
LINE
  5
AB93
  8
0
 10
239.8062589031519
 20
180.5
 30
0.0
 11
239.8062589031519
 21
179.5
 31
0.0
  0
LINE
  5
AB94
  8
0
 10
244.19374109684799
 20
179.5
 30
0.0
 11
244.19374109684799
 21
180.5
 31
0.0
  0
ARC
  5
AB95
  8
0
 10
242.0
 20
180.0
 30
0.0
 40
2.249999999999996
 50
12.83958840690125
 51
167.1604115930987
  0
ARC
  5
AB96
  8
0
 10
242.0
 20
180.0
 30
0.0
 40
2.2499999999999969
 50
192.83958840690121
 51
347.16041159309867
  0
LINE
  5
AB97
  8
0
 10
233.8062589031519
 20
180.5
 30
0.0
 11
233.8062589031519
 21
179.5
 31
0.0
  0
LINE
  5
AB98
  8
0
 10
238.19374109684799
 20
179.5
 30
0.0
 11
238.19374109684799
 21
180.5
 31
0.0
  0
ARC
  5
AB99
  8
0
 10
236.0
 20
180.0
 30
0.0
 40
2.25
 50
12.83958840690125
 51
167.1604115930987
  0
ARC
  5
AB9A
  8
0
 10
236.0
 20
180.0
 30
0.0
 40
2.2499999999999991
 50
192.83958840690121
 51
347.16041159309867
  0
LINE
  5
AB9B
  8
0
 10
227.80625890315201
 20
180.5
 30
0.0
 11
227.80625890315201
 21
179.5
 31
0.0
  0
LINE
  5
AB9C
  8
0
 10
232.19374109684799
 20
179.5
 30
0.0
 11
232.19374109684799
 21
180.5
 31
0.0
  0
ARC
  5
AB9D
  8
0
 10
230.0
 20
180.0
 30
0.0
 40
2.249999999999996
 50
12.83958840690125
 51
167.1604115930987
  0
ARC
  5
AB9E
  8
0
 10
230.0
 20
180.0
 30
0.0
 40
2.2499999999999938
 50
192.83958840690121
 51
347.16041159309867
  0
LINE
  5
AB9F
  8
0
 10
263.80625890315201
 20
180.5
 30
0.0
 11
263.80625890315201
 21
179.5
 31
0.0
  0
LINE
  5
ABA0
  8
0
 10
268.1937410968481
 20
179.5
 30
0.0
 11
268.1937410968481
 21
180.5
 31
0.0
  0
ARC
  5
ABA1
  8
0
 10
266.0
 20
180.0
 30
0.0
 40
2.2499999999999858
 50
12.83958840690125
 51
167.1604115930987
  0
ARC
  5
ABA2
  8
0
 10
266.0
 20
180.0
 30
0.0
 40
2.2499999999999911
 50
192.83958840690121
 51
347.16041159309867
  0
ARC
  5
ABA3
  8
0
 10
274.0
 20
180.0
 30
0.0
 40
2.2500000000000142
 50
245.21113018802919
 51
114.6319135917375
  0
POLYLINE
  5
ABA4
  8
0
 66
     1
 10
0.0
 20
0.0
 30
0.0
  0
VERTEX
  5
1049B
  8
0
 10
270.97013623163713
 20
178.1184948108498
 30
0.0
  0
VERTEX
  5
1049C
  8
0
 10
270.77394020793992
 20
178.54518783824409
 30
0.0
  0
VERTEX
  5
1049D
  8
0
 10
270.62878814373579
 20
178.9931639836002
 30
0.0
  0
VERTEX
  5
1049E
  8
0
 10
270.53322546342002
 20
179.4855101789737
 30
0.0
  0
VERTEX
  5
1049F
  8
0
 10
270.50001739136968
 20
179.98820463416649
 30
0.0
  0
VERTEX
  5
104A0
  8
0
 10
270.5
 20
180.0
 30
0.0
  0
SEQEND
  5
104A1
  8
0
  0
POLYLINE
  5
ABA5
  8
0
 66
     1
 10
0.0
 20
0.0
 30
0.0
  0
VERTEX
  5
104A2
  8
0
 10
270.5
 20
180.0
 30
0.0
  0
VERTEX
  5
104A3
  8
0
 10
270.50001739136968
 20
180.01179536583339
 30
0.0
  0
VERTEX
  5
104A4
  8
0
 10
270.53226675443369
 20
180.50704328417601
 30
0.0
  0
VERTEX
  5
104A5
  8
0
 10
270.62878814373579
 20
181.0068360163998
 30
0.0
  0
VERTEX
  5
104A6
  8
0
 10
270.7699120236926
 20
181.4444527299313
 30
0.0
  0
VERTEX
  5
104A7
  8
0
 10
270.86251810792282
 20
181.66394876267569
 30
0.0
  0
VERTEX
  5
104A8
  8
0
 10
270.97013623163713
 20
181.88150518915009
 30
0.0
  0
SEQEND
  5
104A9
  8
0
  0
LINE
  5
ABA6
  8
0
 10
217.07860315888391
 20
175.18963194304041
 30
0.0
 11
227.0298637683629
 21
177.39577330673089
 31
0.0
  0
LINE
  5
ABA7
  8
0
 10
227.0298637683629
 20
182.60422669326911
 30
0.0
 11
217.07860315888391
 21
184.8103680569595
 31
0.0
  0
POLYLINE
  5
ABA8
  8
0
 66
     1
 10
0.0
 20
0.0
 30
0.0
  0
VERTEX
  5
104AA
  8
0
 10
227.5
 20
179.5
 30
0.0
  0
VERTEX
  5
104AB
  8
0
 10
227.49660471826439
 20
179.52793085882149
 30
0.0
  0
VERTEX
  5
104AC
  8
0
 10
227.4878944588061
 20
179.60846173293589
 30
0.0
  0
VERTEX
  5
104AD
  8
0
 10
227.4775825318724
 20
179.73323643829031
 30
0.0
  0
VERTEX
  5
104AE
  8
0
 10
227.47018752380609
 20
179.88869423112209
 30
0.0
  0
VERTEX
  5
104AF
  8
0
 10
227.46902249581979
 20
180.0560318866651
 30
0.0
  0
VERTEX
  5
104B0
  8
0
 10
227.47450771086861
 20
180.2161285352594
 30
0.0
  0
VERTEX
  5
104B1
  8
0
 10
227.48424564846351
 20
180.3524391965984
 30
0.0
  0
VERTEX
  5
104B2
  8
0
 10
227.4940598103386
 20
180.45001529814181
 30
0.0
  0
VERTEX
  5
104B3
  8
0
 10
227.49960346016769
 20
180.49681771162611
 30
0.0
  0
VERTEX
  5
104B4
  8
0
 10
227.4999999999965
 20
180.49999999997129
 30
0.0
  0
SEQEND
  5
104B5
  8
0
  0
POLYLINE
  5
ABA9
  8
0
 66
     1
 10
0.0
 20
0.0
 30
0.0
  0
VERTEX
  5
104B6
  8
0
 10
227.5
 20
182.0184490889971
 30
0.0
  0
VERTEX
  5
104B7
  8
0
 10
227.49998260863049
 20
182.02301738686489
 30
0.0
  0
VERTEX
  5
104B8
  8
0
 10
227.46773324556631
 20
182.21255978390781
 30
0.0
  0
VERTEX
  5
104B9
  8
0
 10
227.37121185626421
 20
182.38987793348289
 30
0.0
  0
VERTEX
  5
104BA
  8
0
 10
227.2300879763076
 20
182.51948993353699
 30
0.0
  0
VERTEX
  5
104BB
  8
0
 10
227.0298637683629
 20
182.60422669326911
 30
0.0
  0
SEQEND
  5
104BC
  8
0
  0
POLYLINE
  5
ABAA
  8
0
 66
     1
 10
0.0
 20
0.0
 30
0.0
  0
VERTEX
  5
104BD
  8
0
 10
227.0298637683629
 20
177.39577330673089
 30
0.0
  0
VERTEX
  5
104BE
  8
0
 10
227.2260597920602
 20
177.4778793791474
 30
0.0
  0
VERTEX
  5
104BF
  8
0
 10
227.37121185626421
 20
177.61012206651699
 30
0.0
  0
VERTEX
  5
104C0
  8
0
 10
227.46677453658009
 20
177.78465849194021
 30
0.0
  0
VERTEX
  5
104C1
  8
0
 10
227.49998260863049
 20
177.97698261313479
 30
0.0
  0
VERTEX
  5
104C2
  8
0
 10
227.5
 20
177.98155091100281
 30
0.0
  0
SEQEND
  5
104C3
  8
0
  0
LINE
  5
ABAB
  8
0
 10
227.5
 20
177.98155091100281
 30
0.0
 11
227.5
 21
179.5
 31
0.0
  0
LINE
  5
ABAC
  8
0
 10
227.5
 20
180.49371150637299
 30
0.0
 11
227.5
 21
182.0184490889971
 31
0.0
  0
POLYLINE
  5
ABAD
  8
0
 66
     1
 10
0.0
 20
0.0
 30
0.0
  0
VERTEX
  5
104C4
  8
0
 10
208.5250708748585
 20
179.49991980661159
 30
0.0
  0
VERTEX
  5
104C5
  8
0
 10
208.555288167209
 20
179.25849821938371
 30
0.0
  0
VERTEX
  5
104C6
  8
0
 10
208.62493607166411
 20
178.8892562425842
 30
0.0
  0
VERTEX
  5
104C7
  8
0
 10
208.72407161154749
 20
178.5199635043779
 30
0.0
  0
VERTEX
  5
104C8
  8
0
 10
208.8868814249596
 20
178.07149357983531
 30
0.0
  0
VERTEX
  5
104C9
  8
0
 10
208.98722663976261
 20
177.84712364518259
 30
0.0
  0
VERTEX
  5
104CA
  8
0
 10
209.10000000000011
 20
177.6251315825925
 30
0.0
  0
SEQEND
  5
104CB
  8
0
  0
POLYLINE
  5
ABAE
  8
0
 66
     1
 10
0.0
 20
0.0
 30
0.0
  0
VERTEX
  5
104CC
  8
0
 10
209.10000000000011
 20
182.37486841740741
 30
0.0
  0
VERTEX
  5
104CD
  8
0
 10
208.99042832566721
 20
182.1595747993656
 30
0.0
  0
VERTEX
  5
104CE
  8
0
 10
208.89116366673159
 20
181.93871804374541
 30
0.0
  0
VERTEX
  5
104CF
  8
0
 10
208.72407161154749
 20
181.48003649562199
 30
0.0
  0
VERTEX
  5
104D0
  8
0
 10
208.6274070481108
 20
181.12153373787831
 30
0.0
  0
VERTEX
  5
104D1
  8
0
 10
208.55783566815009
 20
180.75829527032079
 30
0.0
  0
VERTEX
  5
104D2
  8
0
 10
208.52507039006059
 20
180.50007537046599
 30
0.0
  0
SEQEND
  5
104D3
  8
0
  0
ARC
  5
ABAF
  8
0
 10
213.5
 20
180.0
 30
0.0
 40
2.499999999999996
 50
191.53695903281809
 51
168.4630409671818
  0
ARC
  5
ABB0
  8
0
 10
213.5
 20
180.0
 30
0.0
 40
4.9999999999999831
 50
208.35763657632691
 51
270.0
  0
ARC
  5
ABB1
  8
0
 10
213.5
 20
180.0
 30
0.0
 40
5.0000000000000009
 50
90.0
 51
151.6423634236728
  0
LINE
  5
ABB2
  8
0
 10
215.34708624737891
 20
175.0
 30
0.0
 11
213.5
 21
175.0
 31
0.0
  0
ARC
  5
ABB3
  8
0
 10
215.34708624737891
 20
183.0
 30
0.0
 40
8.0000000000000426
 50
270.0
 51
282.49999999999773
  0
ARC
  5
ABB4
  8
0
 10
215.34708624737911
 20
177.0000000000004
 30
0.0
 40
7.999999999999523
 50
77.500000000002274
 51
90.0
  0
ARC
  5
ABB5
  8
0
 10
213.5
 20
180.0
 30
0.0
 40
4.0000000000000044
 50
187.18075578145809
 51
172.8192442185418
  0
LINE
  5
ABB6
  8
0
 10
215.34708624737891
 20
185.0
 30
0.0
 11
213.5
 21
185.0
 31
0.0
  0
POLYLINE
  5
ABB7
  8
0
 66
     1
 10
0.0
 20
0.0
 30
0.0
  0
VERTEX
  5
104D4
  8
0
 10
270.97013623163713
 20
178.1184948108498
 30
0.0
  0
VERTEX
  5
104D5
  8
0
 10
271.14755241121469
 20
177.8180066076068
 30
0.0
  0
VERTEX
  5
104D6
  8
0
 10
271.35048274120618
 20
177.53412469160341
 30
0.0
  0
VERTEX
  5
104D7
  8
0
 10
271.5773827992677
 20
177.26900957563311
 30
0.0
  0
VERTEX
  5
104D8
  8
0
 10
271.82652573895098
 20
177.02467894580971
 30
0.0
  0
VERTEX
  5
104D9
  8
0
 10
272.09601543204889
 20
176.80299230575631
 30
0.0
  0
VERTEX
  5
104DA
  8
0
 10
272.38380089927449
 20
176.6056368246623
 30
0.0
  0
VERTEX
  5
104DB
  8
0
 10
272.68769191945279
 20
176.43411449690501
 30
0.0
  0
VERTEX
  5
104DC
  8
0
 10
273.0053756984255
 20
176.28973071096701
 30
0.0
  0
VERTEX
  5
104DD
  8
0
 10
273.33443447081191
 20
176.17358431464001
 30
0.0
  0
VERTEX
  5
104DE
  8
0
 10
273.67236390066302
 20
176.08655925213199
 30
0.0
  0
VERTEX
  5
104DF
  8
0
 10
274.01659214097049
 20
176.02931783671511
 30
0.0
  0
VERTEX
  5
104E0
  8
0
 10
274.36449940697503
 20
176.00229571012429
 30
0.0
  0
VERTEX
  5
104E1
  8
0
 10
274.5
 20
176.0
 30
0.0
  0
SEQEND
  5
104E2
  8
0
  0
POLYLINE
  5
ABB8
  8
0
 66
     1
 10
0.0
 20
0.0
 30
0.0
  0
VERTEX
  5
104E3
  8
0
 10
277.16399011508219
 20
178.46247303413901
 30
0.0
  0
VERTEX
  5
104E4
  8
0
 10
276.99046837189258
 20
178.44423516401909
 30
0.0
  0
VERTEX
  5
104E5
  8
0
 10
276.81919646644002
 20
178.4109432780906
 30
0.0
  0
VERTEX
  5
104E6
  8
0
 10
276.65147788134158
 20
178.3628507477076
 30
0.0
  0
VERTEX
  5
104E7
  8
0
 10
276.48858905630141
 20
178.30032358606559
 30
0.0
  0
VERTEX
  5
104E8
  8
0
 10
276.33176967363261
 20
178.22383766261919
 30
0.0
  0
VERTEX
  5
104E9
  8
0
 10
276.1822132235277
 20
178.1339750814295
 30
0.0
  0
VERTEX
  5
104EA
  8
0
 10
276.04782634058103
 20
178.0367797832632
 30
0.0
  0
SEQEND
  5
104EB
  8
0
  0
POLYLINE
  5
ABB9
  8
0
 66
     1
 10
0.0
 20
0.0
 30
0.0
  0
VERTEX
  5
104EC
  8
0
 10
276.04782621897328
 20
181.9632203126136
 30
0.0
  0
VERTEX
  5
104ED
  8
0
 10
275.87083034838543
 20
182.09065161037071
 30
0.0
  0
VERTEX
  5
104EE
  8
0
 10
275.68340163111628
 20
182.2021717870027
 30
0.0
  0
VERTEX
  5
104EF
  8
0
 10
275.48696651287702
 20
182.29693210662819
 30
0.0
  0
VERTEX
  5
104F0
  8
0
 10
275.28301998352799
 20
182.3742113859966
 30
0.0
  0
VERTEX
  5
104F1
  8
0
 10
275.0731141993042
 20
182.43342148312939
 30
0.0
  0
VERTEX
  5
104F2
  8
0
 10
274.85884666996759
 20
182.4741117734356
 30
0.0
  0
VERTEX
  5
104F3
  8
0
 10
274.64184810079502
 20
182.49597257923659
 30
0.0
  0
VERTEX
  5
104F4
  8
0
 10
274.42376998192532
 20
182.4988375266
 30
0.0
  0
VERTEX
  5
104F5
  8
0
 10
274.20627201952198
 20
182.48268481154651
 30
0.0
  0
VERTEX
  5
104F6
  8
0
 10
273.99100950440788
 20
182.44763736599131
 30
0.0
  0
VERTEX
  5
104F7
  8
0
 10
273.77962071430221
 20
182.3939619221569
 30
0.0
  0
VERTEX
  5
104F8
  8
0
 10
273.57371444553752
 20
182.32206698258119
 30
0.0
  0
VERTEX
  5
104F9
  8
0
 10
273.37485776914878
 20
182.2324997111657
 30
0.0
  0
VERTEX
  5
104FA
  8
0
 10
273.18456410451631
 20
182.12594176892799
 30
0.0
  0
VERTEX
  5
104FB
  8
0
 10
273.00428170133051
 20
182.00320412615019
 30
0.0
  0
VERTEX
  5
104FC
  8
0
 10
272.83538261753688
 20
181.86522089040449
 30
0.0
  0
VERTEX
  5
104FD
  8
0
 10
272.67915227714701
 20
181.71304219743161
 30
0.0
  0
VERTEX
  5
104FE
  8
0
 10
272.5367796873864
 20
181.54782621897311
 30
0.0
  0
VERTEX
  5
104FF
  8
0
 10
272.40934838962932
 20
181.3708303483854
 30
0.0
  0
VERTEX
  5
10500
  8
0
 10
272.29782821299727
 20
181.18340163111631
 30
0.0
  0
VERTEX
  5
10501
  8
0
 10
272.20306789337178
 20
180.9869665128769
 30
0.0
  0
VERTEX
  5
10502
  8
0
 10
272.12578861400362
 20
180.78301998352799
 30
0.0
  0
VERTEX
  5
10503
  8
0
 10
272.06657851687049
 20
180.573114199304
 30
0.0
  0
VERTEX
  5
10504
  8
0
 10
272.02588822656429
 20
180.35884666996751
 30
0.0
  0
VERTEX
  5
10505
  8
0
 10
272.00402742076329
 20
180.1418481007949
 30
0.0
  0
VERTEX
  5
10506
  8
0
 10
272.00116247339997
 20
179.9237699819252
 30
0.0
  0
VERTEX
  5
10507
  8
0
 10
272.01731518845349
 20
179.706272019522
 30
0.0
  0
VERTEX
  5
10508
  8
0
 10
272.0523626340086
 20
179.49100950440791
 30
0.0
  0
VERTEX
  5
10509
  8
0
 10
272.1060380778431
 20
179.2796207143021
 30
0.0
  0
VERTEX
  5
1050A
  8
0
 10
272.17793301741881
 20
179.07371444553741
 30
0.0
  0
VERTEX
  5
1050B
  8
0
 10
272.2675002888343
 20
178.87485776914869
 30
0.0
  0
VERTEX
  5
1050C
  8
0
 10
272.37405823107201
 20
178.68456410451631
 30
0.0
  0
VERTEX
  5
1050D
  8
0
 10
272.49679587384998
 20
178.5042817013304
 30
0.0
  0
VERTEX
  5
1050E
  8
0
 10
272.63477910959551
 20
178.3353826175366
 30
0.0
  0
VERTEX
  5
1050F
  8
0
 10
272.78695780256839
 20
178.17915227714701
 30
0.0
  0
VERTEX
  5
10510
  8
0
 10
272.95217378102689
 20
178.03677968738631
 30
0.0
  0
VERTEX
  5
10511
  8
0
 10
273.12916965161457
 20
177.9093483896292
 30
0.0
  0
VERTEX
  5
10512
  8
0
 10
273.31659836888389
 20
177.79782821299699
 30
0.0
  0
VERTEX
  5
10513
  8
0
 10
273.5130334871231
 20
177.70306789337181
 30
0.0
  0
VERTEX
  5
10514
  8
0
 10
273.71698001647201
 20
177.62578861400331
 30
0.0
  0
VERTEX
  5
10515
  8
0
 10
273.92688580069603
 20
177.56657851687049
 30
0.0
  0
VERTEX
  5
10516
  8
0
 10
274.14115333003252
 20
177.52588822656429
 30
0.0
  0
VERTEX
  5
10517
  8
0
 10
274.35815189920498
 20
177.50402742076329
 30
0.0
  0
VERTEX
  5
10518
  8
0
 10
274.57623001807468
 20
177.50116247339989
 30
0.0
  0
VERTEX
  5
10519
  8
0
 10
274.79372798047802
 20
177.51731518845321
 30
0.0
  0
VERTEX
  5
1051A
  8
0
 10
275.00899049559212
 20
177.5523626340086
 30
0.0
  0
VERTEX
  5
1051B
  8
0
 10
275.22037928569779
 20
177.6060380778431
 30
0.0
  0
VERTEX
  5
1051C
  8
0
 10
275.42628555446259
 20
177.67793301741881
 30
0.0
  0
VERTEX
  5
1051D
  8
0
 10
275.62514223085122
 20
177.7675002888343
 30
0.0
  0
VERTEX
  5
1051E
  8
0
 10
275.81543589548369
 20
177.87405823107201
 30
0.0
  0
VERTEX
  5
1051F
  8
0
 10
275.9957182986696
 20
177.99679587384981
 30
0.0
  0
VERTEX
  5
10520
  8
0
 10
276.04782634058103
 20
178.0367797832632
 30
0.0
  0
SEQEND
  5
10521
  8
0
  0
POLYLINE
  5
ABBA
  8
0
 66
     1
 10
0.0
 20
0.0
 30
0.0
  0
VERTEX
  5
10522
  8
0
 10
276.04782621897328
 20
181.9632203126136
 30
0.0
  0
VERTEX
  5
10523
  8
0
 10
276.18942291544357
 20
181.8612752744082
 30
0.0
  0
VERTEX
  5
10524
  8
0
 10
276.33936588925872
 20
181.7720591331024
 30
0.0
  0
VERTEX
  5
10525
  8
0
 10
276.49651398385032
 20
181.69625087740221
 30
0.0
  0
VERTEX
  5
10526
  8
0
 10
276.65967120732921
 20
181.63442745390739
 30
0.0
  0
VERTEX
  5
10527
  8
0
 10
276.82759583470852
 20
181.58705937620101
 30
0.0
  0
VERTEX
  5
10528
  8
0
 10
276.99900985817771
 20
181.55450714395619
 30
0.0
  0
VERTEX
  5
10529
  8
0
 10
277.16399011508202
 20
181.53752696586091
 30
0.0
  0
SEQEND
  5
1052A
  8
0
  0
POLYLINE
  5
ABBB
  8
0
 66
     1
 10
0.0
 20
0.0
 30
0.0
  0
VERTEX
  5
1052B
  8
0
 10
274.5
 20
184.0
 30
0.0
  0
VERTEX
  5
1052C
  8
0
 10
274.15137702900938
 20
183.984778792367
 30
0.0
  0
VERTEX
  5
1052D
  8
0
 10
273.80540728933238
 20
183.93923101204879
 30
0.0
  0
VERTEX
  5
1052E
  8
0
 10
273.46472381959012
 20
183.86370330515629
 30
0.0
  0
VERTEX
  5
1052F
  8
0
 10
273.13191942669732
 20
183.75877048314371
 30
0.0
  0
VERTEX
  5
10530
  8
0
 10
272.80952695303722
 20
183.62523114814661
 30
0.0
  0
VERTEX
  5
10531
  8
0
 10
272.5
 20
183.46410161513771
 30
0.0
  0
VERTEX
  5
10532
  8
0
 10
272.2056942545957
 20
183.27660817715599
 30
0.0
  0
VERTEX
  5
10533
  8
0
 10
271.92884956125391
 20
183.06417777247589
 30
0.0
  0
VERTEX
  5
10534
  8
0
 10
271.67157287525401
 20
182.82842712474621
 30
0.0
  0
VERTEX
  5
10535
  8
0
 10
271.43582222752411
 20
182.57115043874609
 30
0.0
  0
VERTEX
  5
10536
  8
0
 10
271.22339182284418
 20
182.29430574540419
 30
0.0
  0
VERTEX
  5
10537
  8
0
 10
271.03589838486232
 20
182.0
 30
0.0
  0
VERTEX
  5
10538
  8
0
 10
270.97013623163713
 20
181.88150518915009
 30
0.0
  0
SEQEND
  5
10539
  8
0
  0
LINE
  5
ABBC
  8
0
 10
283.5
 20
179.15000000000009
 30
0.0
 11
283.5
 21
178.84999999999991
 31
0.0
  0
ARC
  5
ABBD
  8
0
 10
283.7000000000001
 20
179.15000000000009
 30
0.0
 40
0.1999999999999489
 50
90.0
 51
180.0
  0
LINE
  5
ABBE
  8
0
 10
283.5
 20
178.84999999999991
 30
0.0
 11
277.16399011508219
 21
178.46247303413901
 31
0.0
  0
LINE
  5
ABBF
  8
0
 10
289.30000000000001
 20
179.34999999999991
 30
0.0
 11
283.7000000000001
 21
179.34999999999991
 31
0.0
  0
ARC
  5
ABC0
  8
0
 10
284.0
 20
181.15000000000009
 30
0.0
 40
0.5
 50
180.0
 51
270.0
  0
LINE
  5
ABC1
  8
0
 10
277.16399011508202
 20
181.53752696586091
 30
0.0
 11
283.5
 21
181.15000000000009
 31
0.0
  0
LINE
  5
ABC2
  8
0
 10
284.0
 20
180.65000000000009
 30
0.0
 11
289.30000000000001
 21
180.65000000000009
 31
0.0
  0
LINE
  5
ABC3
  8
0
 10
288.90000000000009
 20
176.0
 30
0.0
 11
274.5
 21
176.0
 31
0.0
  0
POLYLINE
  5
ABC4
  8
0
 66
     1
 10
0.0
 20
0.0
 30
0.0
  0
VERTEX
  5
1053A
  8
0
 10
289.30000000000001
 20
179.34999999999991
 30
0.0
  0
VERTEX
  5
1053B
  8
0
 10
289.35215846276992
 20
179.34307898581031
 30
0.0
  0
VERTEX
  5
1053C
  8
0
 10
289.3966153450408
 20
179.32511560497801
 30
0.0
  0
VERTEX
  5
1053D
  8
0
 10
289.47324186141418
 20
179.24993626695959
 30
0.0
  0
VERTEX
  5
1053E
  8
0
 10
289.49998076915972
 20
179.15277343956171
 30
0.0
  0
VERTEX
  5
1053F
  8
0
 10
289.5
 20
179.15000000000009
 30
0.0
  0
SEQEND
  5
10540
  8
0
  0
POLYLINE
  5
ABC5
  8
0
 66
     1
 10
0.0
 20
0.0
 30
0.0
  0
VERTEX
  5
10541
  8
0
 10
289.5
 20
176.59999999999991
 30
0.0
  0
VERTEX
  5
10542
  8
0
 10
289.499982142801
 20
176.5953709257833
 30
0.0
  0
VERTEX
  5
10543
  8
0
 10
289.48577759882511
 20
176.4701362070679
 30
0.0
  0
VERTEX
  5
10544
  8
0
 10
289.44471183279097
 20
176.3484269107839
 30
0.0
  0
VERTEX
  5
10545
  8
0
 10
289.37506392833598
 20
176.23351089512221
 30
0.0
  0
VERTEX
  5
10546
  8
0
 10
289.27592838845248
 20
176.13236996807791
 30
0.0
  0
VERTEX
  5
10547
  8
0
 10
289.11311857504052
 20
176.03912526088899
 30
0.0
  0
VERTEX
  5
10548
  8
0
 10
289.01277336023742
 20
176.01069348449141
 30
0.0
  0
VERTEX
  5
10549
  8
0
 10
288.90000000000009
 20
176.0
 30
0.0
  0
SEQEND
  5
1054A
  8
0
  0
LINE
  5
ABC6
  8
0
 10
289.5
 20
176.59999999999991
 30
0.0
 11
289.5
 21
179.15000000000009
 31
0.0
  0
POLYLINE
  5
ABC7
  8
0
 66
     1
 10
0.0
 20
0.0
 30
0.0
  0
VERTEX
  5
1054B
  8
0
 10
288.89999999999992
 20
184.0
 30
0.0
  0
VERTEX
  5
1054C
  8
0
 10
289.10883633326853
 20
183.96248323166739
 30
0.0
  0
VERTEX
  5
1054D
  8
0
 10
289.27592838845248
 20
183.86763003192209
 30
0.0
  0
VERTEX
  5
1054E
  8
0
 10
289.37259295188937
 20
183.76966999043239
 30
0.0
  0
VERTEX
  5
1054F
  8
0
 10
289.44216433184988
 20
183.65701719255679
 30
0.0
  0
VERTEX
  5
10550
  8
0
 10
289.499982142801
 20
183.4046290742169
 30
0.0
  0
VERTEX
  5
10551
  8
0
 10
289.5
 20
183.39999999999981
 30
0.0
  0
SEQEND
  5
10552
  8
0
  0
LINE
  5
ABC8
  8
0
 10
274.5
 20
184.0
 30
0.0
 11
288.89999999999992
 21
184.0
 31
0.0
  0
POLYLINE
  5
ABC9
  8
0
 66
     1
 10
0.0
 20
0.0
 30
0.0
  0
VERTEX
  5
10553
  8
0
 10
289.5
 20
180.84999999999991
 30
0.0
  0
VERTEX
  5
10554
  8
0
 10
289.49998076915972
 20
180.84722656043911
 30
0.0
  0
VERTEX
  5
10555
  8
0
 10
289.47384271661417
 20
180.75111264044151
 30
0.0
  0
VERTEX
  5
10556
  8
0
 10
289.3966153450408
 20
180.67488439502199
 30
0.0
  0
VERTEX
  5
10557
  8
0
 10
289.35238312391579
 20
180.65698184456161
 30
0.0
  0
VERTEX
  5
10558
  8
0
 10
289.30000000000001
 20
180.65000000000009
 30
0.0
  0
SEQEND
  5
10559
  8
0
  0
LINE
  5
ABCA
  8
0
 10
289.5
 20
180.84999999999991
 30
0.0
 11
289.5
 21
183.39999999999981
 31
0.0
  0
LINE
  5
ABCB
  8
0
 10
212.0
 20
180.5
 30
0.0
 11
199.97574057497039
 21
180.5
 31
0.0
  0
LINE
  5
ABCC
  8
0
 10
199.982487876596
 20
179.5
 30
0.0
 11
212.0
 21
179.5
 31
0.0
  0
ARC
  5
ABCD
  8
0
 10
212.0
 20
180.0
 30
0.0
 40
0.5
 50
270.0
 51
90.0
  0
LINE
  5
ABCE
  8
0
 10
198.52901472802651
 20
183.86540518038919
 30
0.0
 11
197.9980183168463
 21
184.00669736294699
 31
0.0
  0
ARC
  5
ABCF
  8
0
 10
197.50044982255801
 20
179.99990983887869
 30
0.0
 40
4.0000000000000009
 50
7.1820574556019219
 51
75.099499999997846
  0
ARC
  5
ABD0
  8
0
 10
197.50044982255801
 20
179.99990983887869
 30
0.0
 40
3.9999999999999929
 50
284.90149999999619
 51
352.82054588895932
  0
LINE
  5
ABD1
  8
0
 10
197.9909139583981
 20
175.9914122470432
 30
0.0
 11
198.5290821934905
 21
176.1344324498011
 31
0.0
  0
POLYLINE
  5
ABD2
  8
0
 66
     1
 10
0.0
 20
0.0
 30
0.0
  0
VERTEX
  5
1055A
  8
0
 10
199.9966722185211
 20
179.63517101947491
 30
0.0
  0
VERTEX
  5
1055B
  8
0
 10
199.99645187221509
 20
179.63217160783549
 30
0.0
  0
VERTEX
  5
1055C
  8
0
 10
199.99550358778811
 20
179.61953452698981
 30
0.0
  0
VERTEX
  5
1055D
  8
0
 10
199.9915711337573
 20
179.57110719367691
 30
0.0
  0
VERTEX
  5
1055E
  8
0
 10
199.97928223500699
 20
179.4466158035832
 30
0.0
  0
VERTEX
  5
1055F
  8
0
 10
199.96280940720811
 20
179.31466871085991
 30
0.0
  0
VERTEX
  5
10560
  8
0
 10
199.8607945629922
 20
178.78765017109549
 30
0.0
  0
VERTEX
  5
10561
  8
0
 10
199.6969510695919
 20
178.25859548890801
 30
0.0
  0
VERTEX
  5
10562
  8
0
 10
199.56006793198239
 20
177.9271450115827
 30
0.0
  0
VERTEX
  5
10563
  8
0
 10
199.3979408259672
 20
177.60292359157839
 30
0.0
  0
VERTEX
  5
10564
  8
0
 10
199.20438536676119
 20
177.278460663304
 30
0.0
  0
VERTEX
  5
10565
  8
0
 10
198.9844243263021
 20
176.96619854398841
 30
0.0
  0
VERTEX
  5
10566
  8
0
 10
198.87435199828491
 20
176.82718049152621
 30
0.0
  0
SEQEND
  5
10567
  8
0
  0
POLYLINE
  5
ABD3
  8
0
 66
     1
 10
0.0
 20
0.0
 30
0.0
  0
VERTEX
  5
10568
  8
0
 10
198.87435199828491
 20
183.17281950847379
 30
0.0
  0
VERTEX
  5
10569
  8
0
 10
199.06820596124311
 20
182.9207426646569
 30
0.0
  0
VERTEX
  5
1056A
  8
0
 10
199.244335121484
 20
182.65902351982231
 30
0.0
  0
VERTEX
  5
1056B
  8
0
 10
199.5487638800596
 20
182.09752769733021
 30
0.0
  0
VERTEX
  5
1056C
  8
0
 10
199.75692243145261
 20
181.57058187617599
 30
0.0
  0
VERTEX
  5
1056D
  8
0
 10
199.9039047342344
 20
181.0245469497483
 30
0.0
  0
VERTEX
  5
1056E
  8
0
 10
199.9473354142294
 20
180.78912546999641
 30
0.0
  0
VERTEX
  5
1056F
  8
0
 10
199.97027120155411
 20
180.62905453422781
 30
0.0
  0
VERTEX
  5
10570
  8
0
 10
199.982476299891
 20
180.52390786119659
 30
0.0
  0
VERTEX
  5
10571
  8
0
 10
199.9891432194583
 20
180.45621573857301
 30
0.0
  0
VERTEX
  5
10572
  8
0
 10
199.99397991362841
 20
180.39993026960789
 30
0.0
  0
VERTEX
  5
10573
  8
0
 10
199.99559294575491
 20
180.37929273554869
 30
0.0
  0
VERTEX
  5
10574
  8
0
 10
199.99648190540319
 20
180.36742102156239
 30
0.0
  0
VERTEX
  5
10575
  8
0
 10
199.9966722185211
 20
180.36482898052509
 30
0.0
  0
SEQEND
  5
10576
  8
0
  0
ARC
  5
ABD4
  8
0
 10
180.00000000000759
 20
179.9999999999998
 30
0.0
 40
19.99999999999244
 50
358.95478398711322
 51
1.045216012886776
  0
POLYLINE
  5
ABD5
  8
0
 66
     1
 10
0.0
 20
0.0
 30
0.0
  0
VERTEX
  5
10577
  8
0
 10
162.8653919603062
 20
188.52720084872931
 30
0.0
  0
VERTEX
  5
10578
  8
0
 10
162.856699885014
 20
188.8438628575945
 30
0.0
  0
VERTEX
  5
10579
  8
0
 10
162.86807103082239
 20
189.1603411586018
 30
0.0
  0
VERTEX
  5
1057A
  8
0
 10
162.8999142947421
 20
189.47895110520579
 30
0.0
  0
VERTEX
  5
1057B
  8
0
 10
162.95182195524251
 20
189.79353955593129
 30
0.0
  0
VERTEX
  5
1057C
  8
0
 10
163.04570277524459
 20
190.1845448534857
 30
0.0
  0
VERTEX
  5
1057D
  8
0
 10
163.17011494844829
 20
190.56516722432019
 30
0.0
  0
VERTEX
  5
1057E
  8
0
 10
163.32629645481191
 20
190.93827763967639
 30
0.0
  0
VERTEX
  5
1057F
  8
0
 10
163.50960035557279
 20
191.2931053132238
 30
0.0
  0
VERTEX
  5
10580
  8
0
 10
163.5495791325653
 20
191.36216411066491
 30
0.0
  0
VERTEX
  5
10581
  8
0
 10
163.57559258962399
 20
191.4057759471836
 30
0.0
  0
VERTEX
  5
10582
  8
0
 10
163.59884240944569
 20
191.4439221084678
 30
0.0
  0
VERTEX
  5
10583
  8
0
 10
163.6054722619991
 20
191.45466082681031
 30
0.0
  0
VERTEX
  5
10584
  8
0
 10
163.60791124990959
 20
191.4585961796879
 30
0.0
  0
SEQEND
  5
10585
  8
0
  0
POLYLINE
  5
ABD6
  8
0
 66
     1
 10
0.0
 20
0.0
 30
0.0
  0
VERTEX
  5
10586
  8
0
 10
164.03679343863271
 20
192.0489018702585
 30
0.0
  0
VERTEX
  5
10587
  8
0
 10
164.03927809896351
 20
192.0518414022531
 30
0.0
  0
VERTEX
  5
10588
  8
0
 10
164.0485983816902
 20
192.06282722554349
 30
0.0
  0
VERTEX
  5
10589
  8
0
 10
164.0859493713296
 20
192.10621868249649
 30
0.0
  0
VERTEX
  5
1058A
  8
0
 10
164.1840791920533
 20
192.21561811081341
 30
0.0
  0
VERTEX
  5
1058B
  8
0
 10
164.29096341438549
 20
192.3277734861031
 30
0.0
  0
VERTEX
  5
1058C
  8
0
 10
164.7566978163552
 20
192.7456995872335
 30
0.0
  0
VERTEX
  5
1058D
  8
0
 10
165.29125922249051
 20
193.11436316739031
 30
0.0
  0
VERTEX
  5
1058E
  8
0
 10
165.9072058834621
 20
193.42696423693519
 30
0.0
  0
VERTEX
  5
1058F
  8
0
 10
166.2453695354898
 20
193.55587813176999
 30
0.0
  0
VERTEX
  5
10590
  8
0
 10
166.5952649908395
 20
193.6609306536084
 30
0.0
  0
SEQEND
  5
10591
  8
0
  0
ARC
  5
ABD7
  8
0
 10
180.00000000003629
 20
179.9999999999734
 30
0.0
 40
20.000000000044981
 50
142.95478398711359
 51
145.04521601288911
  0
POLYLINE
  5
ABD8
  8
0
 66
     1
 10
0.0
 20
0.0
 30
0.0
  0
VERTEX
  5
10592
  8
0
 10
166.5952649908395
 20
166.3390693463916
 30
0.0
  0
VERTEX
  5
10593
  8
0
 10
166.29026678914019
 20
166.4290592964023
 30
0.0
  0
VERTEX
  5
10594
  8
0
 10
165.99394065172461
 20
166.53726840943821
 30
0.0
  0
VERTEX
  5
10595
  8
0
 10
165.41761364877721
 20
166.81258933743939
 30
0.0
  0
VERTEX
  5
10596
  8
0
 10
165.07356743149961
 20
167.02352588039861
 30
0.0
  0
VERTEX
  5
10597
  8
0
 10
164.75120837125581
 20
167.25864437395151
 30
0.0
  0
VERTEX
  5
10598
  8
0
 10
164.44276240790219
 20
167.5244733318429
 30
0.0
  0
VERTEX
  5
10599
  8
0
 10
164.16380486848831
 20
167.80645942290849
 30
0.0
  0
VERTEX
  5
1059A
  8
0
 10
164.11048017067969
 20
167.86582184130111
 30
0.0
  0
VERTEX
  5
1059B
  8
0
 10
164.0770414496844
 20
167.90403890778811
 30
0.0
  0
VERTEX
  5
1059C
  8
0
 10
164.04794688386451
 20
167.93793861253951
 30
0.0
  0
VERTEX
  5
1059D
  8
0
 10
164.0397824929174
 20
167.9475624234781
 30
0.0
  0
VERTEX
  5
1059E
  8
0
 10
164.03679343863271
 20
167.95109812974141
 30
0.0
  0
SEQEND
  5
1059F
  8
0
  0
POLYLINE
  5
ABD9
  8
0
 66
     1
 10
0.0
 20
0.0
 30
0.0
  0
VERTEX
  5
105A0
  8
0
 10
163.60791124990959
 20
168.54140382031181
 30
0.0
  0
VERTEX
  5
105A1
  8
0
 10
163.60588339111899
 20
168.54467523805209
 30
0.0
  0
VERTEX
  5
105A2
  8
0
 10
163.59831537804641
 20
168.5569341597672
 30
0.0
  0
VERTEX
  5
105A3
  8
0
 10
163.5685897407152
 20
168.6058657594628
 30
0.0
  0
VERTEX
  5
105A4
  8
0
 10
163.49486848379391
 20
168.7329990474297
 30
0.0
  0
VERTEX
  5
105A5
  8
0
 10
163.42123142441821
 20
168.8693099005431
 30
0.0
  0
VERTEX
  5
105A6
  8
0
 10
163.2865185832359
 20
169.14907959467061
 30
0.0
  0
VERTEX
  5
105A7
  8
0
 10
163.1676799276822
 20
169.44139590604141
 30
0.0
  0
VERTEX
  5
105A8
  8
0
 10
163.06548434459819
 20
169.74741868998399
 30
0.0
  0
VERTEX
  5
105A9
  8
0
 10
162.98224858648581
 20
170.06371732618231
 30
0.0
  0
VERTEX
  5
105AA
  8
0
 10
162.9174199985784
 20
170.40019572845881
 30
0.0
  0
VERTEX
  5
105AB
  8
0
 10
162.87528528816321
 20
170.74611645473851
 30
0.0
  0
VERTEX
  5
105AC
  8
0
 10
162.85716696245339
 20
171.1057876643697
 30
0.0
  0
VERTEX
  5
105AD
  8
0
 10
162.8653919603062
 20
171.47279915127069
 30
0.0
  0
SEQEND
  5
105AE
  8
0
  0
ARC
  5
ABDA
  8
0
 10
180.00000000000381
 20
180.0000000000027
 30
0.0
 40
20.000000000004611
 50
214.95478398711069
 51
217.0452160128863
  0
POLYLINE
  5
ABDB
  8
0
 66
     1
 10
0.0
 20
0.0
 30
0.0
  0
VERTEX
  5
105AF
  8
0
 10
188.8500261938471
 20
163.0298796893853
 30
0.0
  0
VERTEX
  5
105B0
  8
0
 10
188.67019103790949
 20
162.76761758607719
 30
0.0
  0
VERTEX
  5
105B1
  8
0
 10
188.47570824349529
 20
162.519233137014
 30
0.0
  0
VERTEX
  5
105B2
  8
0
 10
188.0357676426195
 20
162.05619243100341
 30
0.0
  0
VERTEX
  5
105B3
  8
0
 10
187.72883894092399
 20
161.79416801066421
 30
0.0
  0
VERTEX
  5
105B4
  8
0
 10
187.40561353762311
 20
161.56024193603201
 30
0.0
  0
VERTEX
  5
105B5
  8
0
 10
187.05748013047781
 20
161.34903805824499
 30
0.0
  0
VERTEX
  5
105B6
  8
0
 10
186.7030928006775
 20
161.17087216693241
 30
0.0
  0
VERTEX
  5
105B7
  8
0
 10
186.6301575479992
 20
161.13850136171251
 30
0.0
  0
VERTEX
  5
105B8
  8
0
 10
186.58347782482539
 20
161.11850897123301
 30
0.0
  0
VERTEX
  5
105B9
  8
0
 10
186.54224657443891
 20
161.10131397969371
 30
0.0
  0
VERTEX
  5
105BA
  8
0
 10
186.53057085078279
 20
161.0965231036125
 30
0.0
  0
VERTEX
  5
105BB
  8
0
 10
186.52628452573001
 20
161.09477293738021
 30
0.0
  0
SEQEND
  5
105BC
  8
0
  0
POLYLINE
  5
ABDC
  8
0
 66
     1
 10
0.0
 20
0.0
 30
0.0
  0
VERTEX
  5
105BD
  8
0
 10
185.8323385672067
 20
160.86929622733459
 30
0.0
  0
VERTEX
  5
105BE
  8
0
 10
185.82860062121881
 20
160.8683785426949
 30
0.0
  0
VERTEX
  5
105BF
  8
0
 10
185.8146030491861
 20
160.86496914968961
 30
0.0
  0
VERTEX
  5
105C0
  8
0
 10
185.75888060533859
 20
160.85181908447251
 30
0.0
  0
VERTEX
  5
105C1
  8
0
 10
185.6151885421443
 20
160.8209923492206
 30
0.0
  0
VERTEX
  5
105C2
  8
0
 10
185.4627941142864
 20
160.79308171419049
 30
0.0
  0
VERTEX
  5
105C3
  8
0
 10
185.15508876633859
 20
160.75141577875181
 30
0.0
  0
VERTEX
  5
105C4
  8
0
 10
184.8403562694352
 20
160.7287242089462
 30
0.0
  0
VERTEX
  5
105C5
  8
0
 10
184.51773113470901
 20
160.72609667462191
 30
0.0
  0
VERTEX
  5
105C6
  8
0
 10
184.1911919918609
 20
160.7446764183633
 30
0.0
  0
VERTEX
  5
105C7
  8
0
 10
183.85114887939861
 20
160.78699831193529
 30
0.0
  0
VERTEX
  5
105C8
  8
0
 10
183.50913837697729
 20
160.8538212041596
 30
0.0
  0
VERTEX
  5
105C9
  8
0
 10
183.16147185877981
 20
160.9477341685924
 30
0.0
  0
VERTEX
  5
105CA
  8
0
 10
182.8149648567225
 20
161.0689693929798
 30
0.0
  0
SEQEND
  5
105CB
  8
0
  0
ARC
  5
ABDD
  8
0
 10
180.00000000000409
 20
179.9999999999884
 30
0.0
 40
19.999999999987772
 50
286.95478398710759
 51
289.04521601289252
  0
POLYLINE
  5
ABDE
  8
0
 66
     1
 10
0.0
 20
0.0
 30
0.0
  0
VERTEX
  5
105CC
  8
0
 10
182.8149648567225
 20
198.93103060702009
 30
0.0
  0
VERTEX
  5
105CD
  8
0
 10
183.11460835062189
 20
199.03750065307301
 30
0.0
  0
VERTEX
  5
105CE
  8
0
 10
183.4179449524747
 20
199.12413377512229
 30
0.0
  0
VERTEX
  5
105CF
  8
0
 10
184.04603287330289
 20
199.2401509782926
 30
0.0
  0
VERTEX
  5
105D0
  8
0
 10
184.44835749905189
 20
199.2717250229266
 30
0.0
  0
VERTEX
  5
105D1
  8
0
 10
184.8473506401312
 20
199.2709880675047
 30
0.0
  0
VERTEX
  5
105D2
  8
0
 10
185.25313900741159
 20
199.2372279113622
 30
0.0
  0
VERTEX
  5
105D3
  8
0
 10
185.64456766318631
 20
199.17306349919591
 30
0.0
  0
VERTEX
  5
105D4
  8
0
 10
185.72260060400501
 20
199.1563817648441
 30
0.0
  0
VERTEX
  5
105D5
  8
0
 10
185.7721165256273
 20
199.1451182956373
 30
0.0
  0
VERTEX
  5
105D6
  8
0
 10
185.81558027032949
 20
199.1347942151001
 30
0.0
  0
VERTEX
  5
105D7
  8
0
 10
185.8278421354951
 20
199.13180729709279
 30
0.0
  0
VERTEX
  5
105D8
  8
0
 10
185.8323385672067
 20
199.1307037726653
 30
0.0
  0
SEQEND
  5
105D9
  8
0
  0
POLYLINE
  5
ABDF
  8
0
 66
     1
 10
0.0
 20
0.0
 30
0.0
  0
VERTEX
  5
105DA
  8
0
 10
186.52628452573001
 20
198.90522706261979
 30
0.0
  0
VERTEX
  5
105DB
  8
0
 10
186.5298479890559
 20
198.90377237556319
 30
0.0
  0
VERTEX
  5
105DC
  8
0
 10
186.54317625363819
 20
198.89830306603631
 30
0.0
  0
VERTEX
  5
105DD
  8
0
 10
186.59598607208011
 20
198.8761888615588
 30
0.0
  0
VERTEX
  5
105DE
  8
0
 10
186.73035489351849
 20
198.81666813864169
 30
0.0
  0
VERTEX
  5
105DF
  8
0
 10
186.87005003515651
 20
198.7496731194785
 30
0.0
  0
VERTEX
  5
105E0
  8
0
 10
187.4114412220402
 20
198.43587964926419
 30
0.0
  0
VERTEX
  5
105E1
  8
0
 10
187.9272496813023
 20
198.04140485207469
 30
0.0
  0
VERTEX
  5
105E2
  8
0
 10
188.41488895136209
 20
197.5522038094168
 30
0.0
  0
VERTEX
  5
105E3
  8
0
 10
188.6419916664419
 20
197.27042764889691
 30
0.0
  0
VERTEX
  5
105E4
  8
0
 10
188.8500261938471
 20
196.97012031061459
 30
0.0
  0
SEQEND
  5
105E5
  8
0
  0
ARC
  5
ABE0
  8
0
 10
180.00000000000179
 20
180.00000000000591
 30
0.0
 40
19.999999999993811
 50
70.954783987107461
 51
73.04521601289234
  0
LINE
  5
ABE1
  8
0
 10
164.3482901910244
 20
174.89949548623031
 30
0.0
 11
163.73711199566401
 21
174.010956981851
 31
0.0
  0
POLYLINE
  5
ABE2
  8
0
 66
     1
 10
0.0
 20
0.0
 30
0.0
  0
VERTEX
  5
105E6
  8
0
 10
163.73711199566401
 20
174.010956981851
 30
0.0
  0
VERTEX
  5
105E7
  8
0
 10
163.51622443449489
 20
173.65935212894371
 30
0.0
  0
VERTEX
  5
105E8
  8
0
 10
163.3251068151589
 20
173.29041501922819
 30
0.0
  0
VERTEX
  5
105E9
  8
0
 10
163.16109709662891
 20
172.89530762595649
 30
0.0
  0
VERTEX
  5
105EA
  8
0
 10
163.03132359253129
 20
172.4873729940079
 30
0.0
  0
VERTEX
  5
105EB
  8
0
 10
162.9226865369335
 20
171.98725450009491
 30
0.0
  0
VERTEX
  5
105EC
  8
0
 10
162.8653919603062
 20
171.47279915127069
 30
0.0
  0
SEQEND
  5
105ED
  8
0
  0
POLYLINE
  5
ABE3
  8
0
 66
     1
 10
0.0
 20
0.0
 30
0.0
  0
VERTEX
  5
105EE
  8
0
 10
166.5952649908395
 20
166.3390693463916
 30
0.0
  0
VERTEX
  5
105EF
  8
0
 10
167.00181298124241
 20
166.25099139661319
 30
0.0
  0
VERTEX
  5
105F0
  8
0
 10
167.4140262145863
 20
166.19697391554149
 30
0.0
  0
VERTEX
  5
105F1
  8
0
 10
167.84114139003231
 20
166.17740087896181
 30
0.0
  0
VERTEX
  5
105F2
  8
0
 10
168.268090663046
 20
166.19430005354889
 30
0.0
  0
VERTEX
  5
105F3
  8
0
 10
168.7757431840806
 20
166.26254156112529
 30
0.0
  0
VERTEX
  5
105F4
  8
0
 10
169.27857284026101
 20
166.38379046234849
 30
0.0
  0
SEQEND
  5
105F5
  8
0
  0
LINE
  5
ABE4
  8
0
 10
169.27857284026101
 20
166.38379046234849
 30
0.0
 11
170.312487623788
 21
166.690481969654
 31
0.0
  0
POLYLINE
  5
ABE5
  8
0
 66
     1
 10
0.0
 20
0.0
 30
0.0
  0
VERTEX
  5
105F6
  8
0
 10
180.0142237322151
 20
163.53819682037189
 30
0.0
  0
VERTEX
  5
105F7
  8
0
 10
179.364929318701
 20
164.29335387462899
 30
0.0
  0
VERTEX
  5
105F8
  8
0
 10
178.63309268524611
 20
164.97560524941241
 30
0.0
  0
VERTEX
  5
105F9
  8
0
 10
177.83188248203621
 20
165.57201148073091
 30
0.0
  0
VERTEX
  5
105FA
  8
0
 10
176.966817692354
 20
166.07572241482779
 30
0.0
  0
VERTEX
  5
105FB
  8
0
 10
176.04760955707411
 20
166.48239015116769
 30
0.0
  0
VERTEX
  5
105FC
  8
0
 10
175.09196660504429
 20
166.78398341049859
 30
0.0
  0
VERTEX
  5
105FD
  8
0
 10
174.12338923560191
 20
166.97395517463809
 30
0.0
  0
VERTEX
  5
105FE
  8
0
 10
173.13764078380899
 20
167.0574697419452
 30
0.0
  0
VERTEX
  5
105FF
  8
0
 10
172.15300613589849
 20
167.033326030426
 30
0.0
  0
VERTEX
  5
10600
  8
0
 10
171.22318504274151
 20
166.9096417753976
 30
0.0
  0
VERTEX
  5
10601
  8
0
 10
170.312487623788
 20
166.690481969654
 30
0.0
  0
SEQEND
  5
10602
  8
0
  0
LINE
  5
ABE6
  8
0
 10
180.0142237322151
 20
163.53819682037189
 30
0.0
 11
180.67040961782641
 21
162.68235831704709
 31
0.0
  0
POLYLINE
  5
ABE7
  8
0
 66
     1
 10
0.0
 20
0.0
 30
0.0
  0
VERTEX
  5
10603
  8
0
 10
180.67040961782641
 20
162.68235831704709
 30
0.0
  0
VERTEX
  5
10604
  8
0
 10
180.93653390394249
 20
162.36364506753461
 30
0.0
  0
VERTEX
  5
10605
  8
0
 10
181.22833912672991
 20
162.0678863854038
 30
0.0
  0
VERTEX
  5
10606
  8
0
 10
181.5534068741859
 20
161.78982012759249
 30
0.0
  0
VERTEX
  5
10607
  8
0
 10
181.9012516057291
 20
161.54034733142589
 30
0.0
  0
VERTEX
  5
10608
  8
0
 10
182.34335494829131
 20
161.2824552614311
 30
0.0
  0
VERTEX
  5
10609
  8
0
 10
182.8149648567225
 20
161.0689693929798
 30
0.0
  0
SEQEND
  5
1060A
  8
0
  0
POLYLINE
  5
ABE8
  8
0
 66
     1
 10
0.0
 20
0.0
 30
0.0
  0
VERTEX
  5
1060B
  8
0
 10
188.8500261938471
 20
163.0298796893853
 30
0.0
  0
VERTEX
  5
1060C
  8
0
 10
189.05942353692461
 20
163.3893122157281
 30
0.0
  0
VERTEX
  5
1060D
  8
0
 10
189.23817810662209
 20
163.7646579714928
 30
0.0
  0
VERTEX
  5
1060E
  8
0
 10
189.3887790171984
 20
164.1648202341957
 30
0.0
  0
VERTEX
  5
1060F
  8
0
 10
189.50464152821129
 20
164.57609524715301
 30
0.0
  0
VERTEX
  5
10610
  8
0
 10
189.59661325848529
 20
165.07998928373169
 30
0.0
  0
VERTEX
  5
10611
  8
0
 10
189.6366816117112
 20
165.59567668964181
 30
0.0
  0
SEQEND
  5
10612
  8
0
  0
LINE
  5
ABE9
  8
0
 10
189.6366816117112
 20
165.59567668964181
 30
0.0
 11
189.6644978940412
 21
166.67376096959691
 31
0.0
  0
POLYLINE
  5
ABEA
  8
0
 66
     1
 10
0.0
 20
0.0
 30
0.0
  0
VERTEX
  5
10613
  8
0
 10
195.6605005589314
 20
174.92655063264851
 30
0.0
  0
VERTEX
  5
10614
  8
0
 10
194.74164880563001
 20
174.54238560710041
 30
0.0
  0
VERTEX
  5
10615
  8
0
 10
193.86662877707269
 20
174.05718658535241
 30
0.0
  0
VERTEX
  5
10616
  8
0
 10
193.05181659843029
 20
173.47947955662491
 30
0.0
  0
VERTEX
  5
10617
  8
0
 10
192.3054423730637
 20
172.81240617854951
 30
0.0
  0
VERTEX
  5
10618
  8
0
 10
191.63463083393
 20
172.06385179935981
 30
0.0
  0
VERTEX
  5
10619
  8
0
 10
191.05249234499439
 20
171.24817648491029
 30
0.0
  0
VERTEX
  5
1061A
  8
0
 10
190.57251536368159
 20
170.38570725605581
 30
0.0
  0
VERTEX
  5
1061B
  8
0
 10
190.18847922335121
 20
169.47401071871741
 30
0.0
  0
VERTEX
  5
1061C
  8
0
 10
189.90717647719629
 20
168.53010569122691
 30
0.0
  0
VERTEX
  5
1061D
  8
0
 10
189.73748303773161
 20
167.60759093567211
 30
0.0
  0
VERTEX
  5
1061E
  8
0
 10
189.6644978940412
 20
166.67376096959691
 30
0.0
  0
SEQEND
  5
1061F
  8
0
  0
LINE
  5
ABEB
  8
0
 10
195.6605005589314
 20
174.92655063264851
 30
0.0
 11
196.67722393453749
 21
175.28615185309241
 31
0.0
  0
POLYLINE
  5
ABEC
  8
0
 66
     1
 10
0.0
 20
0.0
 30
0.0
  0
VERTEX
  5
10620
  8
0
 10
196.67722393453749
 20
175.28615185309241
 30
0.0
  0
VERTEX
  5
10621
  8
0
 10
197.06260053049269
 20
175.44077470326889
 30
0.0
  0
VERTEX
  5
10622
  8
0
 10
197.43407984878169
 20
175.62691906240789
 30
0.0
  0
VERTEX
  5
10623
  8
0
 10
197.7990107662294
 20
175.85017068428209
 30
0.0
  0
VERTEX
  5
10624
  8
0
 10
198.1437827777437
 20
176.10392434597111
 30
0.0
  0
VERTEX
  5
10625
  8
0
 10
198.52562150102631
 20
176.4446652110494
 30
0.0
  0
VERTEX
  5
10626
  8
0
 10
198.87435199828491
 20
176.82718049152621
 30
0.0
  0
SEQEND
  5
10627
  8
0
  0
POLYLINE
  5
ABED
  8
0
 66
     1
 10
0.0
 20
0.0
 30
0.0
  0
VERTEX
  5
10628
  8
0
 10
198.87435199828491
 20
183.17281950847379
 30
0.0
  0
VERTEX
  5
10629
  8
0
 10
198.59721868306579
 20
183.48303898172321
 30
0.0
  0
VERTEX
  5
1062A
  8
0
 10
198.29548184853201
 20
183.76903290287669
 30
0.0
  0
VERTEX
  5
1062B
  8
0
 10
197.96144315261969
 20
184.03591982463399
 30
0.0
  0
VERTEX
  5
1062C
  8
0
 10
197.60610084650929
 20
184.27320259229009
 30
0.0
  0
VERTEX
  5
1062D
  8
0
 10
197.15528998248141
 20
184.5163847146878
 30
0.0
  0
VERTEX
  5
1062E
  8
0
 10
196.67722393453749
 20
184.71384814690759
 30
0.0
  0
SEQEND
  5
1062F
  8
0
  0
LINE
  5
ABEE
  8
0
 10
196.67722393453749
 20
184.71384814690759
 30
0.0
 11
195.6605005589314
 21
185.07344936735149
 31
0.0
  0
POLYLINE
  5
ABEF
  8
0
 66
     1
 10
0.0
 20
0.0
 30
0.0
  0
VERTEX
  5
10630
  8
0
 10
189.6644978940412
 20
193.326239030403
 30
0.0
  0
VERTEX
  5
10631
  8
0
 10
189.74592028541579
 20
192.3336416562999
 30
0.0
  0
VERTEX
  5
10632
  8
0
 10
189.93697732688119
 20
191.3515096263327
 30
0.0
  0
VERTEX
  5
10633
  8
0
 10
190.2346207730825
 20
190.39805245203431
 30
0.0
  0
VERTEX
  5
10634
  8
0
 10
190.6384041188405
 20
189.48207196167269
 30
0.0
  0
VERTEX
  5
10635
  8
0
 10
191.14303057835721
 20
188.6127769740653
 30
0.0
  0
VERTEX
  5
10636
  8
0
 10
191.73889421978851
 20
187.8070736749286
 30
0.0
  0
VERTEX
  5
10637
  8
0
 10
192.4108310596537
 20
187.0840716969735
 30
0.0
  0
VERTEX
  5
10638
  8
0
 10
193.15923309187161
 20
186.43710290136821
 30
0.0
  0
VERTEX
  5
10639
  8
0
 10
193.97001346114871
 20
185.8778864711239
 30
0.0
  0
VERTEX
  5
1063A
  8
0
 10
194.7949343315201
 20
185.43142921692899
 30
0.0
  0
VERTEX
  5
1063B
  8
0
 10
195.6605005589314
 20
185.07344936735149
 30
0.0
  0
SEQEND
  5
1063C
  8
0
  0
LINE
  5
ABF0
  8
0
 10
189.6644978940412
 20
193.326239030403
 30
0.0
 11
189.6366816117112
 21
194.40432331035819
 31
0.0
  0
POLYLINE
  5
ABF1
  8
0
 66
     1
 10
0.0
 20
0.0
 30
0.0
  0
VERTEX
  5
1063D
  8
0
 10
189.6366816117112
 20
194.40432331035819
 30
0.0
  0
VERTEX
  5
1063E
  8
0
 10
189.60871414611231
 20
194.8186221846133
 30
0.0
  0
VERTEX
  5
1063F
  8
0
 10
189.54647297666199
 20
195.2294445764785
 30
0.0
  0
VERTEX
  5
10640
  8
0
 10
189.44691657912199
 20
195.6455059604734
 30
0.0
  0
VERTEX
  5
10641
  8
0
 10
189.31212107352511
 20
196.0518205282697
 30
0.0
  0
VERTEX
  5
10642
  8
0
 10
189.10605344050779
 20
196.52025965601979
 30
0.0
  0
VERTEX
  5
10643
  8
0
 10
188.8500261938471
 20
196.97012031061459
 30
0.0
  0
SEQEND
  5
10644
  8
0
  0
POLYLINE
  5
ABF2
  8
0
 66
     1
 10
0.0
 20
0.0
 30
0.0
  0
VERTEX
  5
10645
  8
0
 10
182.8149648567225
 20
198.93103060702009
 30
0.0
  0
VERTEX
  5
10646
  8
0
 10
182.43428962075609
 20
198.76332421143411
 30
0.0
  0
VERTEX
  5
10647
  8
0
 10
182.06905135556161
 20
198.56473235820749
 30
0.0
  0
VERTEX
  5
10648
  8
0
 10
181.71200310518989
 20
198.32951520438269
 30
0.0
  0
VERTEX
  5
10649
  8
0
 10
181.37652691231531
 20
198.06488891437991
 30
0.0
  0
VERTEX
  5
1064A
  8
0
 10
181.00593890474349
 20
197.71128981902211
 30
0.0
  0
VERTEX
  5
1064B
  8
0
 10
180.67040961782641
 20
197.3176416829528
 30
0.0
  0
SEQEND
  5
1064C
  8
0
  0
LINE
  5
ABF3
  8
0
 10
180.67040961782641
 20
197.3176416829528
 30
0.0
 11
180.0142237322151
 21
196.46180317962811
 31
0.0
  0
POLYLINE
  5
ABF4
  8
0
 66
     1
 10
0.0
 20
0.0
 30
0.0
  0
VERTEX
  5
1064D
  8
0
 10
170.312487623788
 20
193.309518030346
 30
0.0
  0
VERTEX
  5
1064E
  8
0
 10
171.28166197796389
 20
193.08022635470749
 30
0.0
  0
VERTEX
  5
1064F
  8
0
 10
172.2747620597244
 20
192.95843679043719
 30
0.0
  0
VERTEX
  5
10650
  8
0
 10
173.27352779055471
 20
192.94687731813241
 30
0.0
  0
VERTEX
  5
10651
  8
0
 10
174.26945305955309
 20
193.0478436368407
 30
0.0
  0
VERTEX
  5
10652
  8
0
 10
175.25214011847899
 20
193.2591440931221
 30
0.0
  0
VERTEX
  5
10653
  8
0
 10
176.20254182745859
 20
193.57686722046739
 30
0.0
  0
VERTEX
  5
10654
  8
0
 10
177.0977978852832
 20
193.9924964255087
 30
0.0
  0
VERTEX
  5
10655
  8
0
 10
177.94437122180801
 20
194.50434394903641
 30
0.0
  0
VERTEX
  5
10656
  8
0
 10
178.72676314099431
 20
195.10263383508749
 30
0.0
  0
VERTEX
  5
10657
  8
0
 10
179.40628718517149
 20
195.74921967828161
 30
0.0
  0
VERTEX
  5
10658
  8
0
 10
180.0142237322151
 20
196.46180317962811
 30
0.0
  0
SEQEND
  5
10659
  8
0
  0
LINE
  5
ABF5
  8
0
 10
170.312487623788
 20
193.309518030346
 30
0.0
 11
169.27857284026109
 21
193.6162095376514
 31
0.0
  0
POLYLINE
  5
ABF6
  8
0
 66
     1
 10
0.0
 20
0.0
 30
0.0
  0
VERTEX
  5
1065A
  8
0
 10
169.27857284026109
 20
193.6162095376514
 30
0.0
  0
VERTEX
  5
1065B
  8
0
 10
168.87591077068461
 20
193.7176358749893
 30
0.0
  0
VERTEX
  5
1065C
  8
0
 10
168.4659639330456
 20
193.78539202375421
 30
0.0
  0
VERTEX
  5
1065D
  8
0
 10
168.0395036785639
 20
193.8192785688056
 30
0.0
  0
VERTEX
  5
1065E
  8
0
 10
167.6114236845128
 20
193.81663918031879
 30
0.0
  0
VERTEX
  5
1065F
  8
0
 10
167.10222896046201
 20
193.76541310268661
 30
0.0
  0
VERTEX
  5
10660
  8
0
 10
166.5952649908395
 20
193.6609306536084
 30
0.0
  0
SEQEND
  5
10661
  8
0
  0
POLYLINE
  5
ABF7
  8
0
 66
     1
 10
0.0
 20
0.0
 30
0.0
  0
VERTEX
  5
10662
  8
0
 10
162.8653919603062
 20
188.52720084872931
 30
0.0
  0
VERTEX
  5
10663
  8
0
 10
162.90725509401719
 20
188.11333312401231
 30
0.0
  0
VERTEX
  5
10664
  8
0
 10
162.9832623190494
 20
187.70460269757169
 30
0.0
  0
VERTEX
  5
10665
  8
0
 10
163.09663311588841
 20
187.292343599872
 30
0.0
  0
VERTEX
  5
10666
  8
0
 10
163.24463978456919
 20
186.8915128199155
 30
0.0
  0
VERTEX
  5
10667
  8
0
 10
163.46641455559251
 20
186.4297944194775
 30
0.0
  0
VERTEX
  5
10668
  8
0
 10
163.73711199566401
 20
185.989043018149
 30
0.0
  0
SEQEND
  5
10669
  8
0
  0
LINE
  5
ABF8
  8
0
 10
163.73711199566401
 20
185.989043018149
 30
0.0
 11
164.3482901910244
 21
185.10050451376969
 31
0.0
  0
POLYLINE
  5
ABF9
  8
0
 66
     1
 10
0.0
 20
0.0
 30
0.0
  0
VERTEX
  5
1066A
  8
0
 10
164.3482901910244
 20
174.89949548623031
 30
0.0
  0
VERTEX
  5
1066B
  8
0
 10
164.7395936339326
 20
175.52128822849721
 30
0.0
  0
VERTEX
  5
1066C
  8
0
 10
165.0813506870895
 20
176.17819132190559
 30
0.0
  0
VERTEX
  5
1066D
  8
0
 10
165.3737876655577
 20
176.8766988408463
 30
0.0
  0
VERTEX
  5
1066E
  8
0
 10
165.60818477618179
 20
177.6035174548449
 30
0.0
  0
VERTEX
  5
1066F
  8
0
 10
165.7753612800575
 20
178.3223098486385
 30
0.0
  0
VERTEX
  5
10670
  8
0
 10
165.88369438109879
 20
179.058144481949
 30
0.0
  0
VERTEX
  5
10671
  8
0
 10
165.93126070631109
 20
179.81741652321759
 30
0.0
  0
VERTEX
  5
10672
  8
0
 10
165.91415499274109
 20
180.58385237633661
 30
0.0
  0
VERTEX
  5
10673
  8
0
 10
165.8375409946461
 20
181.3081135159116
 30
0.0
  0
VERTEX
  5
10674
  8
0
 10
165.69973561226081
 20
182.03600931612891
 30
0.0
  0
VERTEX
  5
10675
  8
0
 10
165.50282931717649
 20
182.7495383553387
 30
0.0
  0
VERTEX
  5
10676
  8
0
 10
165.24310236828859
 20
183.4560202047862
 30
0.0
  0
VERTEX
  5
10677
  8
0
 10
165.05302630493841
 20
183.88162426068061
 30
0.0
  0
VERTEX
  5
10678
  8
0
 10
164.6052697164464
 20
184.70510471246979
 30
0.0
  0
VERTEX
  5
10679
  8
0
 10
164.3482901910244
 20
185.10050451376969
 30
0.0
  0
SEQEND
  5
1067A
  8
0
  0
CIRCLE
  5
ABFA
  8
0
 10
180.0
 20
180.0
 30
0.0
 40
4.8000000000000007
  0
CIRCLE
  5
ABFB
  8
2
 10
180.0
 20
180.0
 30
0.0
 40
4.0
  0
CIRCLE
  5
ABFC
  8
0
 10
180.0
 20
180.0
 30
0.0
 40
4.0
  0
POLYLINE
  5
ABFD
  8
4
 66
     1
 10
0.0
 20
0.0
 30
0.0
  0
VERTEX
  5
ABFE
  8
4
 10
251.25472035799021
 20
176.92811202167829
 30
0.0
 42
-0.0744127175610667
  0
VERTEX
  5
ABFF
  8
4
 10
250.73022520080099
 20
177.6220780156479
 30
0.0
 42
-0.1536795722212451
  0
VERTEX
  5
AC00
  8
4
 10
250.46649242503489
 20
178.966745035982
 30
0.0
 42
-0.1847247553159499
  0
VERTEX
  5
AC01
  8
4
 10
250.9999986607082
 20
180.0
 30
0.0
 42
0.1729818233278114
  0
VERTEX
  5
AC02
  8
4
 10
251.59226764483461
 20
181.0857195821809
 30
0.0
 42
0.1305645647028073
  0
VERTEX
  5
AC03
  8
4
 10
251.43685348907411
 20
182.59152601339201
 30
0.0
 42
0.0267269543158863
  0
VERTEX
  5
AC04
  8
4
 10
251.28817661047259
 20
182.92811202167829
 30
0.0
  0
SEQEND
  5
AC05
  8
4
  0
POLYLINE
  5
AC06
  8
4
 66
     1
 10
0.0
 20
0.0
 30
0.0
  0
VERTEX
  5
AC07
  8
4
 10
249.25472035799021
 20
176.92811202167829
 30
0.0
 42
-0.0744127175610667
  0
VERTEX
  5
AC08
  8
4
 10
248.73022520080099
 20
177.6220780156479
 30
0.0
 42
-0.1536795722212451
  0
VERTEX
  5
AC09
  8
4
 10
248.46649242503489
 20
178.966745035982
 30
0.0
 42
-0.1847247553159499
  0
VERTEX
  5
AC0A
  8
4
 10
248.9999986607082
 20
180.0
 30
0.0
 42
0.1729818233278114
  0
VERTEX
  5
AC0B
  8
4
 10
249.59226764483461
 20
181.0857195821809
 30
0.0
 42
0.1305645647028073
  0
VERTEX
  5
AC0C
  8
4
 10
249.43685348907411
 20
182.59152601339201
 30
0.0
 42
0.0267269543158863
  0
VERTEX
  5
AC0D
  8
4
 10
249.28817661047259
 20
182.92811202167829
 30
0.0
  0
SEQEND
  5
AC0E
  8
4
  0
LINE
  5
AD74
  8
2
 10
215.99999999999989
 20
81.5
 30
0.0
 11
215.99999999999989
 21
82.758256069774234
 31
0.0
  0
LINE
  5
AD75
  8
2
 10
210.99999999999989
 20
83.350000000000023
 30
0.0
 11
210.9999999999998
 21
81.602084238343991
 31
0.0
  0
LINE
  5
AD76
  8
2
 10
210.99999999999989
 20
81.602084238343537
 30
0.0
 11
211.00955903577449
 21
81.499999999998863
 31
0.0
  0
LINE
  5
AD77
  8
2
 10
211.0095590357742
 20
86.500000000000227
 30
0.0
 11
210.99999999999989
 21
86.397915761656463
 31
0.0
  0
LINE
  5
AD78
  8
2
 10
215.99999999999989
 20
85.241743930225766
 30
0.0
 11
215.99999999999989
 21
86.5
 31
0.0
  0
LINE
  5
AD79
  8
2
 10
210.99999999999989
 20
86.39791576165544
 30
0.0
 11
210.99999999999989
 21
84.649999999999977
 31
0.0
  0
LINE
  5
AD7A
  8
2
 10
211.00955903577449
 20
81.499999999998863
 30
0.0
 11
215.99999999999989
 21
81.5
 31
0.0
  0
LINE
  5
AD7B
  8
2
 10
211.00955903577449
 20
81.500000000000114
 30
0.0
 11
210.91421356237299
 21
81.414213562373106
 31
0.0
  0
LINE
  5
AD7C
  8
2
 10
210.91421356237399
 20
81.414213562374016
 30
0.0
 11
209.49999999999989
 21
80.0
 31
0.0
  0
LINE
  5
AD7D
  8
2
 10
217.49999999999989
 20
80.0
 30
0.0
 11
215.99999999999989
 21
81.5
 31
0.0
  0
LINE
  5
AD7E
  8
2
 10
211.0095590357756
 20
86.499999999998764
 30
0.0
 11
215.99999999999989
 21
86.5
 31
0.0
  0
LINE
  5
AD7F
  8
2
 10
215.99999999999989
 20
86.5
 30
0.0
 11
217.49999999999989
 21
88.0
 31
0.0
  0
LINE
  5
AD80
  8
2
 10
209.49999999999989
 20
88.0
 30
0.0
 11
210.91421356237331
 21
86.585786437626226
 31
0.0
  0
LINE
  5
AD81
  8
2
 10
210.91421356237299
 20
86.585786437626894
 30
0.0
 11
211.0095590357756
 21
86.499999999998764
 31
0.0
  0
LINE
  5
AD8D
  8
1
 10
284.49999999999972
 20
78.5
 30
0.0
 11
284.49999999999972
 21
89.500000000000014
 31
0.0
  0
LINE
  5
AD8E
  8
1
 10
291.00000133929149
 20
84.0
 30
0.0
 11
169.99999999999989
 21
84.0
 31
0.0
  0
LINE
  5
AD8F
  8
1
 10
213.49999999999989
 20
78.5
 30
0.0
 11
213.49999999999989
 21
89.500000000000014
 31
0.0
  0
LINE
  5
AD90
  8
1
 10
273.99999999999972
 20
79.18764940927781
 30
0.0
 11
273.99999999999972
 21
88.81235059072219
 31
0.0
  0
LINE
  5
AD91
  8
1
 10
223.99999999999989
 20
80.25
 30
0.0
 11
223.99999999999989
 21
87.75
 31
0.0
  0
LINE
  5
AD92
  8
1
 10
205.49999999999989
 20
75.5
 30
0.0
 11
205.49999999999989
 21
92.5
 31
0.0
  0
LINE
  5
AD93
  8
1
 10
179.9999999999998
 20
47.000000000000107
 30
0.0
 11
180.0
 21
110.0
 31
0.0
  0
LINE
  5
AD94
  8
0
 10
227.80625890315179
 20
84.500000000000014
 30
0.0
 11
227.46941014384871
 21
84.500000000000014
 31
0.0
  0
LINE
  5
AD95
  8
0
 10
227.4686419789146
 20
83.499999999999986
 30
0.0
 11
227.80625890315179
 21
83.499999999999986
 31
0.0
  0
LINE
  5
AD96
  8
0
 10
233.80625890315179
 20
84.500000000000014
 30
0.0
 11
232.1937410968479
 21
84.500000000000014
 31
0.0
  0
LINE
  5
AD97
  8
0
 10
232.1937410968479
 20
83.499999999999986
 30
0.0
 11
233.80625890315179
 21
83.499999999999986
 31
0.0
  0
LINE
  5
AD98
  8
0
 10
251.8062589031519
 20
84.500000000000014
 30
0.0
 11
251.39457378222471
 21
84.500000000000014
 31
0.0
  0
LINE
  5
AD99
  8
0
 10
250.62141562118379
 20
83.499999999999986
 30
0.0
 11
251.8062589031519
 21
83.499999999999986
 31
0.0
  0
ARC
  5
AD9A
  8
0
 10
205.49999999999989
 20
84.0
 30
0.0
 40
6.9999999999999956
 50
34.849904579045472
 51
171.78678929826401
  0
ARC
  5
AD9B
  8
0
 10
205.49999999999901
 20
84.0
 30
0.0
 40
7.0000000000009024
 50
354.6720020959977
 51
5.3279979040022853
  0
ARC
  5
AD9C
  8
0
 10
205.49999999999989
 20
84.0
 30
0.0
 40
7.0000000000000044
 50
188.21321070173599
 51
325.15009542095447
  0
ARC
  5
AD9D
  8
0
 10
205.49999999999989
 20
84.0
 30
0.0
 40
6.0
 50
41.810314895774731
 51
170.40593177314139
  0
ARC
  5
AD9E
  8
0
 10
205.49999999999989
 20
84.0
 30
0.0
 40
6.0000000000000027
 50
189.59406822685861
 51
318.18968510422519
  0
ARC
  5
AD9F
  8
0
 10
205.49999999999989
 20
84.0
 30
0.0
 40
6.000000000000111
 50
353.78075155711832
 51
6.2192484428817449
  0
LINE
  5
ADA0
  8
0
 10
270.4999999999996
 20
84.500000000000014
 30
0.0
 11
268.19374109684787
 21
84.500000000000014
 31
0.0
  0
LINE
  5
ADA1
  8
0
 10
268.19374109684787
 20
83.499999999999986
 30
0.0
 11
270.4999999999996
 21
83.499999999999986
 31
0.0
  0
LINE
  5
ADA2
  8
0
 10
257.80625890315179
 20
84.500000000000014
 30
0.0
 11
256.19374109684787
 21
84.500000000000014
 31
0.0
  0
LINE
  5
ADA3
  8
0
 10
256.19374109684787
 20
83.499999999999986
 30
0.0
 11
257.80625890315179
 21
83.499999999999986
 31
0.0
  0
LINE
  5
ADA4
  8
0
 10
239.8062589031519
 20
84.500000000000014
 30
0.0
 11
238.1937410968479
 21
84.500000000000014
 31
0.0
  0
LINE
  5
ADA5
  8
0
 10
238.1937410968479
 20
83.499999999999986
 30
0.0
 11
239.8062589031519
 21
83.499999999999986
 31
0.0
  0
LINE
  5
ADA6
  8
0
 10
245.8062589031519
 20
84.500000000000014
 30
0.0
 11
244.1937410968479
 21
84.500000000000014
 31
0.0
  0
LINE
  5
ADA7
  8
0
 10
244.1937410968479
 20
83.499999999999986
 30
0.0
 11
245.8062589031519
 21
83.499999999999986
 31
0.0
  0
LINE
  5
ADA8
  8
0
 10
263.80625890315179
 20
84.500000000000014
 30
0.0
 11
262.19374109684787
 21
84.500000000000014
 31
0.0
  0
LINE
  5
ADA9
  8
0
 10
262.19374109684787
 20
83.499999999999986
 30
0.0
 11
263.80625890315179
 21
83.499999999999986
 31
0.0
  0
LINE
  5
ADAA
  8
0
 10
262.19374109684787
 20
83.499999999999986
 30
0.0
 11
262.19374109684787
 21
84.500000000000014
 31
0.0
  0
ARC
  5
ADAB
  8
0
 10
259.99999999999989
 20
84.0
 30
0.0
 40
2.2500000000000031
 50
12.839588406907311
 51
167.16041159309859
  0
ARC
  5
ADAC
  8
0
 10
259.99999999999989
 20
84.0
 30
0.0
 40
2.2499999999999938
 50
192.83958840690121
 51
347.16041159309259
  0
LINE
  5
ADAD
  8
0
 10
257.80625890315179
 20
84.500000000000014
 30
0.0
 11
257.80625890315179
 21
83.499999999999986
 31
0.0
  0
LINE
  5
ADAE
  8
0
 10
256.19374109684787
 20
83.499999999999986
 30
0.0
 11
256.19374109684787
 21
84.500000000000014
 31
0.0
  0
ARC
  5
ADAF
  8
0
 10
253.99999999999989
 20
84.0
 30
0.0
 40
2.2499999999999898
 50
12.839588406907311
 51
167.16041159309859
  0
ARC
  5
ADB0
  8
0
 10
253.99999999999989
 20
84.0
 30
0.0
 40
2.2500000000000049
 50
192.83958840690121
 51
347.16041159309259
  0
LINE
  5
ADB1
  8
0
 10
251.8062589031519
 20
84.500000000000014
 30
0.0
 11
251.8062589031519
 21
83.499999999999986
 31
0.0
  0
ARC
  5
ADB2
  8
0
 10
223.99999999999989
 20
84.0
 30
0.0
 40
2.249999999999996
 50
65.207487132116611
 51
294.62181141299931
  0
LINE
  5
ADB3
  8
0
 10
232.1937410968479
 20
83.499999999999986
 30
0.0
 11
232.1937410968479
 21
84.500000000000014
 31
0.0
  0
ARC
  5
ADB4
  8
0
 10
229.99999999999989
 20
84.0
 30
0.0
 40
2.249999999999996
 50
12.839588406907311
 51
167.16041159309859
  0
ARC
  5
ADB5
  8
0
 10
229.99999999999989
 20
84.0
 30
0.0
 40
2.2499999999999938
 50
192.83958840690121
 51
347.16041159309259
  0
LINE
  5
ADB6
  8
0
 10
227.80625890315179
 20
84.500000000000014
 30
0.0
 11
227.80625890315179
 21
83.499999999999986
 31
0.0
  0
ARC
  5
ADB7
  8
0
 10
247.99999999999989
 20
84.0
 30
0.0
 40
2.2499999999999929
 50
43.635208626997233
 51
167.16041159309859
  0
ARC
  5
ADB8
  8
0
 10
247.99999999999989
 20
84.0
 30
0.0
 40
2.2500000000000022
 50
192.83958840690121
 51
286.1681491524771
  0
LINE
  5
ADB9
  8
0
 10
245.8062589031519
 20
84.500000000000014
 30
0.0
 11
245.8062589031519
 21
83.499999999999986
 31
0.0
  0
LINE
  5
ADBA
  8
0
 10
244.1937410968479
 20
83.499999999999986
 30
0.0
 11
244.1937410968479
 21
84.500000000000014
 31
0.0
  0
ARC
  5
ADBB
  8
0
 10
241.99999999999989
 20
84.0
 30
0.0
 40
2.2499999999999991
 50
12.839588406901351
 51
167.16041159309859
  0
ARC
  5
ADBC
  8
0
 10
241.99999999999989
 20
84.0
 30
0.0
 40
2.2499999999999969
 50
192.83958840690121
 51
347.16041159309862
  0
LINE
  5
ADBD
  8
0
 10
239.8062589031519
 20
84.500000000000014
 30
0.0
 11
239.8062589031519
 21
83.499999999999986
 31
0.0
  0
LINE
  5
ADBE
  8
0
 10
238.1937410968479
 20
83.499999999999986
 30
0.0
 11
238.1937410968479
 21
84.500000000000014
 31
0.0
  0
ARC
  5
ADBF
  8
0
 10
235.99999999999989
 20
84.0
 30
0.0
 40
2.2500000000000022
 50
12.839588406901351
 51
167.16041159309859
  0
ARC
  5
ADC0
  8
0
 10
235.99999999999989
 20
84.0
 30
0.0
 40
2.2499999999999991
 50
192.83958840690121
 51
347.16041159309259
  0
LINE
  5
ADC1
  8
0
 10
233.80625890315179
 20
84.500000000000014
 30
0.0
 11
233.80625890315179
 21
83.499999999999986
 31
0.0
  0
LINE
  5
ADC2
  8
0
 10
268.19374109684787
 20
83.499999999999986
 30
0.0
 11
268.19374109684787
 21
84.500000000000014
 31
0.0
  0
ARC
  5
ADC3
  8
0
 10
265.99999999999989
 20
84.0
 30
0.0
 40
2.2499999999999911
 50
12.839588406907311
 51
167.16041159309859
  0
ARC
  5
ADC4
  8
0
 10
265.99999999999989
 20
84.0
 30
0.0
 40
2.2499999999999911
 50
192.83958840690121
 51
347.16041159309259
  0
LINE
  5
ADC5
  8
0
 10
263.80625890315179
 20
84.500000000000014
 30
0.0
 11
263.80625890315179
 21
83.499999999999986
 31
0.0
  0
POLYLINE
  5
ADC6
  8
0
 66
     1
 10
0.0
 20
0.0
 30
0.0
  0
VERTEX
  5
1067B
  8
0
 10
227.02986376836279
 20
85.881505189150175
 30
0.0
  0
VERTEX
  5
1067C
  8
0
 10
227.22605979206
 20
85.454812161755726
 30
0.0
  0
VERTEX
  5
1067D
  8
0
 10
227.37121185626401
 20
85.006836016399674
 30
0.0
  0
VERTEX
  5
1067E
  8
0
 10
227.46677453658009
 20
84.514489821026245
 30
0.0
  0
VERTEX
  5
1067F
  8
0
 10
227.4999826086304
 20
84.011795365833564
 30
0.0
  0
VERTEX
  5
10680
  8
0
 10
227.49999999999989
 20
84.0
 30
0.0
  0
SEQEND
  5
10681
  8
0
  0
POLYLINE
  5
ADC7
  8
0
 66
     1
 10
0.0
 20
0.0
 30
0.0
  0
VERTEX
  5
10682
  8
0
 10
227.49999999999989
 20
84.0
 30
0.0
  0
VERTEX
  5
10683
  8
0
 10
227.4999826086304
 20
83.988204634166436
 30
0.0
  0
VERTEX
  5
10684
  8
0
 10
227.46773324556631
 20
83.492956715824107
 30
0.0
  0
VERTEX
  5
10685
  8
0
 10
227.37121185626401
 20
82.993163983600326
 30
0.0
  0
VERTEX
  5
10686
  8
0
 10
227.23008797630749
 20
82.555547270068701
 30
0.0
  0
VERTEX
  5
10687
  8
0
 10
227.1370863721971
 20
82.335221261442129
 30
0.0
  0
VERTEX
  5
10688
  8
0
 10
227.02986376836279
 20
82.118494810849825
 30
0.0
  0
SEQEND
  5
10689
  8
0
  0
LINE
  5
ADC8
  8
0
 10
280.92139684111601
 20
79.189631943040581
 30
0.0
 11
270.97013623163701
 21
81.395773306730916
 31
0.0
  0
LINE
  5
ADC9
  8
0
 10
270.97013623163701
 20
86.604226693269084
 30
0.0
 11
280.92139684111601
 21
88.810368056959547
 31
0.0
  0
POLYLINE
  5
ADCA
  8
0
 66
     1
 10
0.0
 20
0.0
 30
0.0
  0
VERTEX
  5
1068A
  8
0
 10
270.53137303340287
 20
84.0
 30
0.0
  0
VERTEX
  5
1068B
  8
0
 10
270.5279540840553
 20
84.164768802780713
 30
0.0
  0
VERTEX
  5
1068C
  8
0
 10
270.5192097951691
 20
84.31095120979694
 30
0.0
  0
VERTEX
  5
1068D
  8
0
 10
270.50890563991248
 20
84.422887917916228
 30
0.0
  0
VERTEX
  5
1068E
  8
0
 10
270.50154912809302
 20
84.487451920761032
 30
0.0
  0
VERTEX
  5
1068F
  8
0
 10
270.50000000000369
 20
84.499999999970214
 30
0.0
  0
SEQEND
  5
10690
  8
0
  0
POLYLINE
  5
ADCB
  8
0
 66
     1
 10
0.0
 20
0.0
 30
0.0
  0
VERTEX
  5
10691
  8
0
 10
270.97013623163701
 20
86.604226693269084
 30
0.0
  0
VERTEX
  5
10692
  8
0
 10
270.77394020793969
 20
86.522120620852533
 30
0.0
  0
VERTEX
  5
10693
  8
0
 10
270.62878814373568
 20
86.389877933482921
 30
0.0
  0
VERTEX
  5
10694
  8
0
 10
270.53322546341963
 20
86.215341508059851
 30
0.0
  0
VERTEX
  5
10695
  8
0
 10
270.50001739136962
 20
86.023017386865249
 30
0.0
  0
VERTEX
  5
10696
  8
0
 10
270.4999999999996
 20
86.018449088997045
 30
0.0
  0
SEQEND
  5
10697
  8
0
  0
POLYLINE
  5
ADCC
  8
0
 66
     1
 10
0.0
 20
0.0
 30
0.0
  0
VERTEX
  5
10698
  8
0
 10
270.4999999999996
 20
81.981550911002955
 30
0.0
  0
VERTEX
  5
10699
  8
0
 10
270.50001739136962
 20
81.976982613136457
 30
0.0
  0
VERTEX
  5
1069A
  8
0
 10
270.53226675443341
 20
81.787440216092463
 30
0.0
  0
VERTEX
  5
1069B
  8
0
 10
270.62878814373568
 20
81.610122066517079
 30
0.0
  0
VERTEX
  5
1069C
  8
0
 10
270.7699120236922
 20
81.480510066463125
 30
0.0
  0
VERTEX
  5
1069D
  8
0
 10
270.86291362780293
 20
81.430348094410419
 30
0.0
  0
VERTEX
  5
1069E
  8
0
 10
270.97013623163701
 20
81.395773306730916
 30
0.0
  0
SEQEND
  5
1069F
  8
0
  0
LINE
  5
ADCD
  8
0
 10
270.4999999999996
 20
86.018449088997045
 30
0.0
 11
270.4999999999996
 21
84.493705132637388
 31
0.0
  0
LINE
  5
ADCE
  8
0
 10
270.4999999999996
 20
83.499999999999986
 30
0.0
 11
270.4999999999996
 21
81.981550911002955
 31
0.0
  0
POLYLINE
  5
ADCF
  8
0
 66
     1
 10
0.0
 20
0.0
 30
0.0
  0
VERTEX
  5
106A0
  8
0
 10
270.4999999999996
 20
83.499999999999986
 30
0.0
  0
VERTEX
  5
106A1
  8
0
 10
270.50335435983891
 20
83.527584533469735
 30
0.0
  0
VERTEX
  5
106A2
  8
0
 10
270.51202227129232
 20
83.607614520315906
 30
0.0
  0
VERTEX
  5
106A3
  8
0
 10
270.52233946919489
 20
83.732075946723839
 30
0.0
  0
VERTEX
  5
106A4
  8
0
 10
270.5297747277088
 20
83.887355813556724
 30
0.0
  0
VERTEX
  5
106A5
  8
0
 10
270.53137303340287
 20
84.0
 30
0.0
  0
SEQEND
  5
106A6
  8
0
  0
LINE
  5
ADD0
  8
0
 10
282.65291375262052
 20
89.0
 30
0.0
 11
284.49999999999972
 21
89.0
 31
0.0
  0
ARC
  5
ADD1
  8
0
 10
282.65291375262052
 20
86.999999999997726
 30
0.0
 40
7.999999999997744
 50
257.50000000000227
 51
270.0
  0
ARC
  5
ADD2
  8
0
 10
282.65291375262098
 20
80.999999999999091
 30
0.0
 40
8.0000000000009148
 50
90.0
 51
102.4999999999977
  0
LINE
  5
ADD3
  8
0
 10
282.65291375262098
 20
79.0
 30
0.0
 11
284.49999999999972
 21
79.0
 31
0.0
  0
ARC
  5
ADD4
  8
0
 10
284.50000000000011
 20
83.999999999999886
 30
0.0
 40
4.9999999999999014
 50
270.0
 51
0.0
  0
ARC
  5
ADD5
  8
0
 10
284.50000000000011
 20
84.000000000000114
 30
0.0
 40
4.9999999999999174
 50
0.0
 51
90.0
  0
CIRCLE
  5
ADD6
  8
0
 10
284.49999999999972
 20
84.0
 30
0.0
 40
4.0000000000000044
  0
CIRCLE
  5
ADD7
  8
0
 10
284.49999999999972
 20
84.0
 30
0.0
 40
2.5000000000000022
  0
LINE
  5
ADD8
  8
0
 10
209.09999999999999
 20
88.0
 30
0.0
 11
223.49999999999989
 21
88.0
 31
0.0
  0
LINE
  5
ADD9
  8
0
 10
223.49999999999989
 20
80.0
 30
0.0
 11
209.09999999999999
 21
80.0
 31
0.0
  0
POLYLINE
  5
ADDA
  8
0
 66
     1
 10
0.0
 20
0.0
 30
0.0
  0
VERTEX
  5
106A7
  8
0
 10
227.02986376836279
 20
82.118494810849825
 30
0.0
  0
VERTEX
  5
106A8
  8
0
 10
226.85244758878511
 20
81.818006607606776
 30
0.0
  0
VERTEX
  5
106A9
  8
0
 10
226.64951725879371
 20
81.534124691603424
 30
0.0
  0
VERTEX
  5
106AA
  8
0
 10
226.42261720073239
 20
81.269009575633277
 30
0.0
  0
VERTEX
  5
106AB
  8
0
 10
226.17347426104891
 20
81.024678945809569
 30
0.0
  0
VERTEX
  5
106AC
  8
0
 10
225.90398456795091
 20
80.802992305756334
 30
0.0
  0
VERTEX
  5
106AD
  8
0
 10
225.61619910072531
 20
80.60563682466227
 30
0.0
  0
VERTEX
  5
106AE
  8
0
 10
225.31230808054721
 20
80.434114496905067
 30
0.0
  0
VERTEX
  5
106AF
  8
0
 10
224.99462430157459
 20
80.289730710966865
 30
0.0
  0
VERTEX
  5
106B0
  8
0
 10
224.66556552918831
 20
80.173584314640166
 30
0.0
  0
VERTEX
  5
106B1
  8
0
 10
224.3276360993369
 20
80.086559252131906
 30
0.0
  0
VERTEX
  5
106B2
  8
0
 10
223.9834078590294
 20
80.029317836715109
 30
0.0
  0
VERTEX
  5
106B3
  8
0
 10
223.63550059302511
 20
80.002295710124386
 30
0.0
  0
VERTEX
  5
106B4
  8
0
 10
223.49999999999989
 20
80.0
 30
0.0
  0
SEQEND
  5
106B5
  8
0
  0
POLYLINE
  5
ADDB
  8
0
 66
     1
 10
0.0
 20
0.0
 30
0.0
  0
VERTEX
  5
106B6
  8
0
 10
223.49999999999989
 20
88.0
 30
0.0
  0
VERTEX
  5
106B7
  8
0
 10
223.8486229709905
 20
87.984778792367024
 30
0.0
  0
VERTEX
  5
106B8
  8
0
 10
224.19459271066771
 20
87.939231012048822
 30
0.0
  0
VERTEX
  5
106B9
  8
0
 10
224.53527618041011
 20
87.863703305156264
 30
0.0
  0
VERTEX
  5
106BA
  8
0
 10
224.86808057330259
 20
87.758770483143607
 30
0.0
  0
VERTEX
  5
106BB
  8
0
 10
225.19047304696269
 20
87.625231148146554
 30
0.0
  0
VERTEX
  5
106BC
  8
0
 10
225.49999999999989
 20
87.464101615137793
 30
0.0
  0
VERTEX
  5
106BD
  8
0
 10
225.79430574540419
 20
87.276608177155936
 30
0.0
  0
VERTEX
  5
106BE
  8
0
 10
226.071150438746
 20
87.064177772475887
 30
0.0
  0
VERTEX
  5
106BF
  8
0
 10
226.3284271247461
 20
86.828427124746213
 30
0.0
  0
VERTEX
  5
106C0
  8
0
 10
226.5641777724758
 20
86.571150438746145
 30
0.0
  0
VERTEX
  5
106C1
  8
0
 10
226.77660817715591
 20
86.294305745404245
 30
0.0
  0
VERTEX
  5
106C2
  8
0
 10
226.96410161513771
 20
86.0
 30
0.0
  0
VERTEX
  5
106C3
  8
0
 10
227.02986376836279
 20
85.881505189150175
 30
0.0
  0
SEQEND
  5
106C4
  8
0
  0
POLYLINE
  5
ADDC
  8
0
 66
     1
 10
0.0
 20
0.0
 30
0.0
  0
VERTEX
  5
106C5
  8
0
 10
221.9521737810268
 20
85.963220312613643
 30
0.0
  0
VERTEX
  5
106C6
  8
0
 10
221.81057708455651
 20
85.861275274408172
 30
0.0
  0
VERTEX
  5
106C7
  8
0
 10
221.6606341107412
 20
85.772059133102402
 30
0.0
  0
VERTEX
  5
106C8
  8
0
 10
221.50348601614991
 20
85.696250877402107
 30
0.0
  0
VERTEX
  5
106C9
  8
0
 10
221.3403287926707
 20
85.634427453907392
 30
0.0
  0
VERTEX
  5
106CA
  8
0
 10
221.1724041652914
 20
85.587059376201069
 30
0.0
  0
VERTEX
  5
106CB
  8
0
 10
221.0009901418222
 20
85.55450714395613
 30
0.0
  0
VERTEX
  5
106CC
  8
0
 10
220.8360098849179
 20
85.537526965860934
 30
0.0
  0
SEQEND
  5
106CD
  8
0
  0
POLYLINE
  5
ADDD
  8
0
 66
     1
 10
0.0
 20
0.0
 30
0.0
  0
VERTEX
  5
106CE
  8
0
 10
221.9521737810268
 20
85.963220312613643
 30
0.0
  0
VERTEX
  5
106CF
  8
0
 10
222.1291696516146
 20
86.090651610370742
 30
0.0
  0
VERTEX
  5
106D0
  8
0
 10
222.3165983688836
 20
86.202171787002854
 30
0.0
  0
VERTEX
  5
106D1
  8
0
 10
222.5130334871229
 20
86.296932106628205
 30
0.0
  0
VERTEX
  5
106D2
  8
0
 10
222.71698001647189
 20
86.374211385996546
 30
0.0
  0
VERTEX
  5
106D3
  8
0
 10
222.92688580069591
 20
86.433421483129436
 30
0.0
  0
VERTEX
  5
106D4
  8
0
 10
223.1411533300323
 20
86.474111773435652
 30
0.0
  0
VERTEX
  5
106D5
  8
0
 10
223.3581518992049
 20
86.495972579236536
 30
0.0
  0
VERTEX
  5
106D6
  8
0
 10
223.5762300180746
 20
86.498837526600013
 30
0.0
  0
VERTEX
  5
106D7
  8
0
 10
223.79372798047791
 20
86.482684811546619
 30
0.0
  0
VERTEX
  5
106D8
  8
0
 10
224.008990495592
 20
86.447637365991341
 30
0.0
  0
VERTEX
  5
106D9
  8
0
 10
224.2203792856977
 20
86.393961922157018
 30
0.0
  0
VERTEX
  5
106DA
  8
0
 10
224.4262855544624
 20
86.322066982581305
 30
0.0
  0
VERTEX
  5
106DB
  8
0
 10
224.62514223085111
 20
86.232499711165687
 30
0.0
  0
VERTEX
  5
106DC
  8
0
 10
224.8154358954836
 20
86.125941768928115
 30
0.0
  0
VERTEX
  5
106DD
  8
0
 10
224.99571829866949
 20
86.003204126150194
 30
0.0
  0
VERTEX
  5
106DE
  8
0
 10
225.16461738246321
 20
85.86522089040443
 30
0.0
  0
VERTEX
  5
106DF
  8
0
 10
225.32084772285279
 20
85.713042197431605
 30
0.0
  0
VERTEX
  5
106E0
  8
0
 10
225.46322031261369
 20
85.547826218973213
 30
0.0
  0
VERTEX
  5
106E1
  8
0
 10
225.5906516103706
 20
85.370830348385425
 30
0.0
  0
VERTEX
  5
106E2
  8
0
 10
225.70217178700281
 20
85.18340163111634
 30
0.0
  0
VERTEX
  5
106E3
  8
0
 10
225.79693210662811
 20
84.986966512877075
 30
0.0
  0
VERTEX
  5
106E4
  8
0
 10
225.8742113859966
 20
84.783019983528106
 30
0.0
  0
VERTEX
  5
106E5
  8
0
 10
225.93342148312939
 20
84.573114199304086
 30
0.0
  0
VERTEX
  5
106E6
  8
0
 10
225.9741117734356
 20
84.358846669967534
 30
0.0
  0
VERTEX
  5
106E7
  8
0
 10
225.99597257923659
 20
84.141848100795073
 30
0.0
  0
VERTEX
  5
106E8
  8
0
 10
225.99883752659991
 20
83.923769981925261
 30
0.0
  0
VERTEX
  5
106E9
  8
0
 10
225.98268481154659
 20
83.706272019521975
 30
0.0
  0
VERTEX
  5
106EA
  8
0
 10
225.9476373659912
 20
83.491009504407884
 30
0.0
  0
VERTEX
  5
106EB
  8
0
 10
225.8939619221569
 20
83.279620714302155
 30
0.0
  0
VERTEX
  5
106EC
  8
0
 10
225.8220669825813
 20
83.073714445537462
 30
0.0
  0
VERTEX
  5
106ED
  8
0
 10
225.7324997111657
 20
82.874857769148775
 30
0.0
  0
VERTEX
  5
106EE
  8
0
 10
225.6259417689281
 20
82.684564104516326
 30
0.0
  0
VERTEX
  5
106EF
  8
0
 10
225.50320412615011
 20
82.504281701330456
 30
0.0
  0
VERTEX
  5
106F0
  8
0
 10
225.3652208904044
 20
82.335382617536766
 30
0.0
  0
VERTEX
  5
106F1
  8
0
 10
225.21304219743161
 20
82.179152277147068
 30
0.0
  0
VERTEX
  5
106F2
  8
0
 10
225.0478262189732
 20
82.036779687386343
 30
0.0
  0
VERTEX
  5
106F3
  8
0
 10
224.87083034838531
 20
81.909348389629258
 30
0.0
  0
VERTEX
  5
106F4
  8
0
 10
224.6834016311162
 20
81.797828212997146
 30
0.0
  0
VERTEX
  5
106F5
  8
0
 10
224.4869665128771
 20
81.703067893371781
 30
0.0
  0
VERTEX
  5
106F6
  8
0
 10
224.28301998352811
 20
81.625788614003454
 30
0.0
  0
VERTEX
  5
106F7
  8
0
 10
224.07311419930409
 20
81.566578516870564
 30
0.0
  0
VERTEX
  5
106F8
  8
0
 10
223.85884666996751
 20
81.525888226564348
 30
0.0
  0
VERTEX
  5
106F9
  8
0
 10
223.6418481007951
 20
81.504027420763464
 30
0.0
  0
VERTEX
  5
106FA
  8
0
 10
223.4237699819252
 20
81.501162473399972
 30
0.0
  0
VERTEX
  5
106FB
  8
0
 10
223.20627201952189
 20
81.517315188453381
 30
0.0
  0
VERTEX
  5
106FC
  8
0
 10
222.99100950440791
 20
81.552362634008645
 30
0.0
  0
VERTEX
  5
106FD
  8
0
 10
222.7796207143021
 20
81.606038077842982
 30
0.0
  0
VERTEX
  5
106FE
  8
0
 10
222.57371444553749
 20
81.677933017418695
 30
0.0
  0
VERTEX
  5
106FF
  8
0
 10
222.3748577691488
 20
81.767500288834185
 30
0.0
  0
VERTEX
  5
10700
  8
0
 10
222.18456410451631
 20
81.874058231071885
 30
0.0
  0
VERTEX
  5
10701
  8
0
 10
222.00428170133031
 20
81.996795873849806
 30
0.0
  0
VERTEX
  5
10702
  8
0
 10
221.9521737810268
 20
82.036779687386343
 30
0.0
  0
SEQEND
  5
10703
  8
0
  0
POLYLINE
  5
ADDE
  8
0
 66
     1
 10
0.0
 20
0.0
 30
0.0
  0
VERTEX
  5
10704
  8
0
 10
220.8360098849179
 20
82.462473034139066
 30
0.0
  0
VERTEX
  5
10705
  8
0
 10
221.00953162810731
 20
82.444235164019119
 30
0.0
  0
VERTEX
  5
10706
  8
0
 10
221.1808035335599
 20
82.410943278090699
 30
0.0
  0
VERTEX
  5
10707
  8
0
 10
221.34852211865831
 20
82.362850747707739
 30
0.0
  0
VERTEX
  5
10708
  8
0
 10
221.51141094369871
 20
82.300323586065588
 30
0.0
  0
VERTEX
  5
10709
  8
0
 10
221.66823032636731
 20
82.223837662619175
 30
0.0
  0
VERTEX
  5
1070A
  8
0
 10
221.81778677647219
 20
82.133975081429639
 30
0.0
  0
VERTEX
  5
1070B
  8
0
 10
221.9521737810268
 20
82.036779687386343
 30
0.0
  0
SEQEND
  5
1070C
  8
0
  0
LINE
  5
ADDF
  8
0
 10
208.6999999999999
 20
83.350000000000023
 30
0.0
 11
214.30000000000001
 21
83.350000000000023
 31
0.0
  0
POLYLINE
  5
ADE0
  8
0
 66
     1
 10
0.0
 20
0.0
 30
0.0
  0
VERTEX
  5
1070D
  8
0
 10
209.09999999999999
 20
80.0
 30
0.0
  0
VERTEX
  5
1070E
  8
0
 10
208.99042832566721
 20
80.010089796508055
 30
0.0
  0
VERTEX
  5
1070F
  8
0
 10
208.8911636667315
 20
80.037516768332594
 30
0.0
  0
VERTEX
  5
10710
  8
0
 10
208.7240716115474
 20
80.13236996807791
 30
0.0
  0
VERTEX
  5
10711
  8
0
 10
208.6274070481108
 20
80.230330009567425
 30
0.0
  0
VERTEX
  5
10712
  8
0
 10
208.55783566815001
 20
80.342982807443136
 30
0.0
  0
VERTEX
  5
10713
  8
0
 10
208.5150103220451
 20
80.466631800313394
 30
0.0
  0
VERTEX
  5
10714
  8
0
 10
208.5000178571992
 20
80.595370925783513
 30
0.0
  0
VERTEX
  5
10715
  8
0
 10
208.49999999999989
 20
80.600000000000023
 30
0.0
  0
SEQEND
  5
10716
  8
0
  0
POLYLINE
  5
ADE1
  8
0
 66
     1
 10
0.0
 20
0.0
 30
0.0
  0
VERTEX
  5
10717
  8
0
 10
208.49999999999989
 20
83.149999999999963
 30
0.0
  0
VERTEX
  5
10718
  8
0
 10
208.50001923084019
 20
83.152773439561429
 30
0.0
  0
VERTEX
  5
10719
  8
0
 10
208.52615728338591
 20
83.248887359558466
 30
0.0
  0
VERTEX
  5
1071A
  8
0
 10
208.60338465495909
 20
83.325115604977896
 30
0.0
  0
VERTEX
  5
1071B
  8
0
 10
208.6476168760841
 20
83.343018155438358
 30
0.0
  0
VERTEX
  5
1071C
  8
0
 10
208.6999999999999
 20
83.350000000000023
 30
0.0
  0
SEQEND
  5
1071D
  8
0
  0
LINE
  5
ADE2
  8
0
 10
208.49999999999989
 20
83.149999999999963
 30
0.0
 11
208.49999999999989
 21
80.600000000000023
 31
0.0
  0
LINE
  5
ADE3
  8
0
 10
213.99999999999989
 20
84.649999999999977
 30
0.0
 11
208.69999999701969
 21
84.649999999999977
 31
0.0
  0
POLYLINE
  5
ADE4
  8
0
 66
     1
 10
0.0
 20
0.0
 30
0.0
  0
VERTEX
  5
1071E
  8
0
 10
208.69999999701969
 20
84.649999999999977
 30
0.0
  0
VERTEX
  5
1071F
  8
0
 10
208.6478415346678
 20
84.656921014881959
 30
0.0
  0
VERTEX
  5
10720
  8
0
 10
208.603384652827
 20
84.674884396198422
 30
0.0
  0
VERTEX
  5
10721
  8
0
 10
208.52675813803509
 20
84.750063733995376
 30
0.0
  0
VERTEX
  5
10722
  8
0
 10
208.50001923084019
 20
84.847226560438571
 30
0.0
  0
VERTEX
  5
10723
  8
0
 10
208.49999999999989
 20
84.850000000000023
 30
0.0
  0
SEQEND
  5
10724
  8
0
  0
POLYLINE
  5
ADE5
  8
0
 66
     1
 10
0.0
 20
0.0
 30
0.0
  0
VERTEX
  5
10725
  8
0
 10
208.49999999999989
 20
87.399999999999977
 30
0.0
  0
VERTEX
  5
10726
  8
0
 10
208.5000178571992
 20
87.404629074216473
 30
0.0
  0
VERTEX
  5
10727
  8
0
 10
208.51422240117481
 20
87.529863792931906
 30
0.0
  0
VERTEX
  5
10728
  8
0
 10
208.55528816720889
 20
87.651573089215844
 30
0.0
  0
VERTEX
  5
10729
  8
0
 10
208.624936071664
 20
87.766489104877678
 30
0.0
  0
VERTEX
  5
1072A
  8
0
 10
208.7240716115474
 20
87.86763003192209
 30
0.0
  0
VERTEX
  5
1072B
  8
0
 10
208.88688142495951
 20
87.960874739110864
 30
0.0
  0
VERTEX
  5
1072C
  8
0
 10
208.9872266397625
 20
87.989306515508474
 30
0.0
  0
VERTEX
  5
1072D
  8
0
 10
209.09999999999999
 20
88.0
 30
0.0
  0
SEQEND
  5
1072E
  8
0
  0
LINE
  5
ADE6
  8
0
 10
208.49999999999989
 20
87.399999999999977
 30
0.0
 11
208.49999999999989
 21
84.850000000000023
 31
0.0
  0
ARC
  5
ADE7
  8
0
 10
213.99999999999989
 20
85.149999999999977
 30
0.0
 40
0.4999999999999929
 50
270.0
 51
0.0
  0
LINE
  5
ADE8
  8
0
 10
214.49999999999989
 20
85.149999999999977
 30
0.0
 11
220.8360098849179
 21
85.537526965860934
 31
0.0
  0
LINE
  5
ADE9
  8
0
 10
220.8360098849179
 20
82.462473034139066
 30
0.0
 11
214.49999999999989
 21
82.850000000000009
 31
0.0
  0
LINE
  5
ADEA
  8
0
 10
214.49999999999989
 20
82.850000000000009
 30
0.0
 11
214.49999999999989
 21
83.149999999999963
 31
0.0
  0
ARC
  5
ADEB
  8
0
 10
214.30000000000001
 20
83.149999999999963
 30
0.0
 40
0.1999999999999886
 50
0.0
 51
90.0
  0
LINE
  5
ADEC
  8
0
 10
199.99999999999989
 20
93.241100909769102
 30
0.0
 11
199.99999999999989
 21
104.3317905779931
 31
0.0
  0
ARC
  5
ADED
  8
0
 10
199.49999999999989
 20
93.241100909769102
 30
0.0
 40
0.4999999999999919
 50
284.99999999999449
 51
0.0
  0
ARC
  5
ADEE
  8
0
 10
198.99999999999989
 20
104.3317905779931
 30
0.0
 40
0.9999999999999895
 50
0.0
 51
81.999999999999218
  0
ARC
  5
ADEF
  8
0
 10
200.5004498225579
 20
84.0
 30
0.0
 40
1.0
 50
270.0
 51
90.0
  0
POLYLINE
  5
ADF0
  8
0
 66
     1
 10
0.0
 20
0.0
 30
0.0
  0
VERTEX
  5
1072F
  8
0
 10
199.50745563637659
 20
92.758137996624555
 30
0.0
  0
VERTEX
  5
10730
  8
0
 10
199.64605121102301
 20
92.799756013833303
 30
0.0
  0
VERTEX
  5
10731
  8
0
 10
199.76224974562211
 20
92.859673774933299
 30
0.0
  0
VERTEX
  5
10732
  8
0
 10
199.86743509253549
 20
92.937232661123971
 30
0.0
  0
VERTEX
  5
10733
  8
0
 10
199.9436600814841
 20
93.03300650503445
 30
0.0
  0
VERTEX
  5
10734
  8
0
 10
199.9901995854878
 20
93.171568916534724
 30
0.0
  0
VERTEX
  5
10735
  8
0
 10
199.99304275825361
 20
93.188979179636135
 30
0.0
  0
VERTEX
  5
10736
  8
0
 10
199.99537663960689
 20
93.209933456608724
 30
0.0
  0
VERTEX
  5
10737
  8
0
 10
199.9961231207138
 20
93.220804793840443
 30
0.0
  0
VERTEX
  5
10738
  8
0
 10
199.99660755156569
 20
93.234134543903792
 30
0.0
  0
VERTEX
  5
10739
  8
0
 10
199.99667221852101
 20
93.241100909769102
 30
0.0
  0
SEQEND
  5
1073A
  8
0
  0
POLYLINE
  5
ADF1
  8
0
 66
     1
 10
0.0
 20
0.0
 30
0.0
  0
VERTEX
  5
1073B
  8
0
 10
199.99667221852101
 20
104.3317905779931
 30
0.0
  0
VERTEX
  5
1073C
  8
0
 10
199.996451872215
 20
104.34997611689209
 30
0.0
  0
VERTEX
  5
1073D
  8
0
 10
199.99550358778799
 20
104.37366400548601
 30
0.0
  0
VERTEX
  5
1073E
  8
0
 10
199.99157113375719
 20
104.4192136985687
 30
0.0
  0
VERTEX
  5
1073F
  8
0
 10
199.97923168450771
 20
104.4942144085
 30
0.0
  0
VERTEX
  5
10740
  8
0
 10
199.962809407208
 20
104.5558747566317
 30
0.0
  0
VERTEX
  5
10741
  8
0
 10
199.85988754735581
 20
104.7753208882197
 30
0.0
  0
VERTEX
  5
10742
  8
0
 10
199.69695106959179
 20
104.965245140663
 30
0.0
  0
VERTEX
  5
10743
  8
0
 10
199.50552356519361
 20
105.1103502614676
 30
0.0
  0
VERTEX
  5
10744
  8
0
 10
199.26731114437831
 20
105.2277583973171
 30
0.0
  0
VERTEX
  5
10745
  8
0
 10
198.98442432630199
 20
105.3060790651577
 30
0.0
  0
VERTEX
  5
10746
  8
0
 10
198.87435199828479
 20
105.3220586467348
 30
0.0
  0
SEQEND
  5
10747
  8
0
  0
LINE
  5
ADF2
  8
0
 10
199.50745563637659
 20
92.758137996624555
 30
0.0
 11
196.05966043873141
 21
92.0
 31
0.0
  0
LINE
  5
ADF3
  8
0
 10
197.00000000000171
 20
92.053589838486445
 30
0.0
 11
199.62940952255121
 21
92.758137996624555
 31
0.0
  0
LINE
  5
ADF4
  8
0
 10
196.99999999999989
 20
92.053589838486246
 30
0.0
 11
196.74000000000009
 21
92.0
 31
0.0
  0
LINE
  5
ADF5
  8
0
 10
186.0714285714285
 20
80.0
 30
0.0
 11
186.0714285714285
 21
80.299999999999955
 31
0.0
  0
LINE
  5
ADF6
  8
0
 10
173.92857142857139
 20
80.299999999999955
 30
0.0
 11
173.92857142857139
 21
80.0
 31
0.0
  0
LINE
  5
ADF7
  8
0
 10
173.92857142857139
 20
80.0
 30
0.0
 11
186.0714285714285
 21
80.0
 31
0.0
  0
ARC
  5
ADF8
  8
0
 10
187.7665540540539
 20
84.0
 30
0.0
 40
1.1165540540540091
 50
99.878431084248106
 51
116.4127610267078
  0
ARC
  5
ADF9
  8
0
 10
187.7665540540539
 20
84.0
 30
0.0
 40
1.1165540540540331
 50
243.58723897328881
 51
260.12156891575188
  0
ARC
  5
ADFA
  8
0
 10
172.23344594594579
 20
84.0
 30
0.0
 40
1.1165540540539871
 50
63.587238973292223
 51
80.121568915751908
  0
ARC
  5
ADFB
  8
0
 10
172.23344594594579
 20
84.0
 30
0.0
 40
1.1165540540540599
 50
279.87843108424812
 51
296.41276102670781
  0
LINE
  5
ADFC
  8
0
 10
200.5004498225579
 20
85.0
 30
0.0
 11
172.49999999999989
 21
85.0
 31
0.0
  0
LINE
  5
ADFD
  8
0
 10
172.49999999999989
 20
83.0
 30
0.0
 11
200.5004498225579
 21
83.0
 31
0.0
  0
ARC
  5
ADFE
  8
0
 10
172.49999999999989
 20
84.0
 30
0.0
 40
1.0
 50
90.0
 51
270.0
  0
LINE
  5
ADFF
  8
0
 10
188.49999999999989
 20
85.100000000000037
 30
0.0
 11
188.49999999999989
 21
92.0
 31
0.0
  0
LINE
  5
AE00
  8
0
 10
171.49999999999989
 20
92.0
 30
0.0
 11
171.49999999999989
 21
85.100000000000037
 31
0.0
  0
LINE
  5
AE01
  8
0
 10
171.49999999999989
 20
85.100000000000037
 30
0.0
 11
188.49999999999989
 21
85.100000000000037
 31
0.0
  0
LINE
  5
AE02
  8
0
 10
188.49999999999989
 20
81.100000000000023
 30
0.0
 11
188.49999999999989
 21
82.899999999999963
 31
0.0
  0
LINE
  5
AE03
  8
0
 10
171.49999999999989
 20
82.899999999999963
 30
0.0
 11
171.49999999999989
 21
81.100000000000023
 31
0.0
  0
LINE
  5
AE04
  8
0
 10
171.49999999999989
 20
82.899999999999963
 30
0.0
 11
188.49999999999989
 21
82.899999999999963
 31
0.0
  0
LINE
  5
AE05
  8
0
 10
187.6999999999999
 20
80.299999999999955
 30
0.0
 11
188.49999999999989
 21
81.100000000000023
 31
0.0
  0
LINE
  5
AE06
  8
0
 10
171.49999999999989
 20
81.100000000000023
 30
0.0
 11
172.2999999999999
 21
80.299999999999955
 31
0.0
  0
LINE
  5
AE07
  8
0
 10
171.49999999999989
 20
81.100000000000023
 30
0.0
 11
188.49999999999989
 21
81.100000000000023
 31
0.0
  0
LINE
  5
AE08
  8
0
 10
172.2999999999999
 20
80.299999999999955
 30
0.0
 11
187.6999999999999
 21
80.299999999999955
 31
0.0
  0
LINE
  5
AE09
  8
0
 10
196.7399999999999
 20
92.0
 30
0.0
 11
164.10834506843759
 21
92.0
 31
0.0
  0
LINE
  5
AE0A
  8
0
 10
162.85665491443191
 20
105.29163319558729
 30
0.0
 11
162.85665491443191
 21
92.664603933461876
 31
0.0
  0
LINE
  5
AE0B
  8
0
 10
162.8566549247208
 20
105.29163300506769
 30
0.0
 11
162.865391960306
 21
105.3220586467348
 31
0.0
  0
POLYLINE
  5
AE0C
  8
0
 66
     1
 10
0.0
 20
0.0
 30
0.0
  0
VERTEX
  5
10748
  8
0
 10
162.85665491600031
 20
92.664603921629464
 30
0.0
  0
VERTEX
  5
10749
  8
0
 10
162.85710494347779
 20
92.661208833240153
 30
0.0
  0
VERTEX
  5
1074A
  8
0
 10
162.89041023300871
 20
92.587633021440297
 30
0.0
  0
VERTEX
  5
1074B
  8
0
 10
162.9828602217716
 20
92.503949467184157
 30
0.0
  0
VERTEX
  5
1074C
  8
0
 10
163.13667003122629
 20
92.408877112134064
 30
0.0
  0
VERTEX
  5
1074D
  8
0
 10
163.34811847591311
 20
92.304139586438055
 30
0.0
  0
VERTEX
  5
1074E
  8
0
 10
163.6128561403151
 20
92.191127569414334
 30
0.0
  0
VERTEX
  5
1074F
  8
0
 10
163.73711199566389
 20
92.142177445122911
 30
0.0
  0
SEQEND
  5
10750
  8
0
  0
LINE
  5
AE0D
  8
0
 10
163.60791124990951
 20
104.3317905779934
 30
0.0
 11
163.60791124990951
 21
93.241100909769102
 31
0.0
  0
LINE
  5
AE0E
  8
0
 10
195.66050055893129
 20
104.691507007667
 30
0.0
 11
195.66050055893129
 21
93.0
 31
0.0
  0
LINE
  5
AE0F
  8
0
 10
163.60791124990951
 20
93.241100909769102
 30
0.0
 11
164.03679343863249
 21
93.241100909769102
 31
0.0
  0
POLYLINE
  5
AE10
  8
0
 66
     1
 10
0.0
 20
0.0
 30
0.0
  0
VERTEX
  5
10751
  8
0
 10
162.93400529663069
 20
92.758137996624555
 30
0.0
  0
VERTEX
  5
10752
  8
0
 10
163.04597990959121
 20
92.825380956363674
 30
0.0
  0
VERTEX
  5
10753
  8
0
 10
163.2036687129131
 20
92.927851398843146
 30
0.0
  0
VERTEX
  5
10754
  8
0
 10
163.32579117658599
 20
93.005852026718571
 30
0.0
  0
VERTEX
  5
10755
  8
0
 10
163.41749843328449
 20
93.064478449386456
 30
0.0
  0
VERTEX
  5
10756
  8
0
 10
163.482613990939
 20
93.107591155619616
 30
0.0
  0
VERTEX
  5
10757
  8
0
 10
163.5273754045223
 20
93.139536033310378
 30
0.0
  0
VERTEX
  5
10758
  8
0
 10
163.55754734915789
 20
93.163742305252754
 30
0.0
  0
VERTEX
  5
10759
  8
0
 10
163.5776096257004
 20
93.182639272073402
 30
0.0
  0
VERTEX
  5
1075A
  8
0
 10
163.5907756476673
 20
93.197905185031104
 30
0.0
  0
VERTEX
  5
1075B
  8
0
 10
163.6029689402456
 20
93.218286728865095
 30
0.0
  0
VERTEX
  5
1075C
  8
0
 10
163.6064651283105
 20
93.228819963287947
 30
0.0
  0
VERTEX
  5
1075D
  8
0
 10
163.60785190099051
 20
93.238617806254396
 30
0.0
  0
VERTEX
  5
1075E
  8
0
 10
163.60791124990951
 20
93.241100909769102
 30
0.0
  0
SEQEND
  5
1075F
  8
0
  0
LINE
  5
AE11
  8
0
 10
169.9065784939126
 20
92.0
 30
0.0
 11
169.27857284026089
 21
92.142177445122911
 31
0.0
  0
POLYLINE
  5
AE12
  8
0
 66
     1
 10
0.0
 20
0.0
 30
0.0
  0
VERTEX
  5
10760
  8
0
 10
162.93400529663069
 20
92.758137996624555
 30
0.0
  0
VERTEX
  5
10761
  8
0
 10
162.88401148933309
 20
92.723707653775918
 30
0.0
  0
VERTEX
  5
10762
  8
0
 10
162.85665491600031
 20
92.664603921629464
 30
0.0
  0
SEQEND
  5
10763
  8
0
  0
LINE
  5
AE13
  8
0
 10
163.73711199566389
 20
92.142177445122911
 30
0.0
 11
164.10834506843759
 21
92.0
 31
0.0
  0
POLYLINE
  5
AE14
  8
0
 66
     1
 10
0.0
 20
0.0
 30
0.0
  0
VERTEX
  5
10764
  8
0
 10
163.60791124990951
 20
104.3317905779934
 30
0.0
  0
VERTEX
  5
10765
  8
0
 10
163.60588339111891
 20
104.3523749892465
 30
0.0
  0
VERTEX
  5
10766
  8
0
 10
163.59831537804629
 20
104.37704860991759
 30
0.0
  0
VERTEX
  5
10767
  8
0
 10
163.56858974071511
 20
104.42720188846781
 30
0.0
  0
VERTEX
  5
10768
  8
0
 10
163.49486848379371
 20
104.5093470739791
 30
0.0
  0
VERTEX
  5
10769
  8
0
 10
163.4212314244181
 20
104.5801373163592
 30
0.0
  0
VERTEX
  5
1076A
  8
0
 10
163.28632303940691
 20
104.7075895840983
 30
0.0
  0
VERTEX
  5
1076B
  8
0
 10
163.16767992768209
 20
104.825098878872
 30
0.0
  0
VERTEX
  5
1076C
  8
0
 10
163.065283769779
 20
104.9369770712276
 30
0.0
  0
VERTEX
  5
1076D
  8
0
 10
162.9822485864857
 20
105.0398217542065
 30
0.0
  0
VERTEX
  5
1076E
  8
0
 10
162.91726792882019
 20
105.1356914633068
 30
0.0
  0
VERTEX
  5
1076F
  8
0
 10
162.8752852881631
 20
105.21704742282731
 30
0.0
  0
VERTEX
  5
10770
  8
0
 10
162.85717920379599
 20
105.2819249161098
 30
0.0
  0
VERTEX
  5
10771
  8
0
 10
162.8566549247208
 20
105.29163300506769
 30
0.0
  0
SEQEND
  5
10772
  8
0
  0
LINE
  5
AE15
  8
0
 10
163.60791124990951
 20
104.3317905779934
 30
0.0
 11
164.03679343863249
 21
104.33179057799769
 31
0.0
  0
LINE
  5
AE16
  8
0
 10
169.27857284026089
 20
104.5697153276935
 30
0.0
 11
169.27857284026089
 21
93.166093533719959
 31
0.0
  0
POLYLINE
  5
AE17
  8
0
 66
     1
 10
0.0
 20
0.0
 30
0.0
  0
VERTEX
  5
10773
  8
0
 10
166.59526499083941
 20
105.3220586467348
 30
0.0
  0
VERTEX
  5
10774
  8
0
 10
166.18560989068109
 20
105.27249991284469
 30
0.0
  0
VERTEX
  5
10775
  8
0
 10
165.7913480202659
 20
105.1896678254427
 30
0.0
  0
VERTEX
  5
10776
  8
0
 10
165.41761364877709
 20
105.08220177647119
 30
0.0
  0
VERTEX
  5
10777
  8
0
 10
164.9563162344862
 20
104.91836040885281
 30
0.0
  0
VERTEX
  5
10778
  8
0
 10
164.53462656386549
 20
104.72674349882089
 30
0.0
  0
VERTEX
  5
10779
  8
0
 10
164.1638048684882
 20
104.4944439793948
 30
0.0
  0
VERTEX
  5
1077A
  8
0
 10
164.11048017067949
 20
104.4509366917375
 30
0.0
  0
VERTEX
  5
1077B
  8
0
 10
164.07704144968429
 20
104.41748165116471
 30
0.0
  0
VERTEX
  5
1077C
  8
0
 10
164.04794688386431
 20
104.3757557351171
 30
0.0
  0
VERTEX
  5
1077D
  8
0
 10
164.0397824929172
 20
104.35437857680741
 30
0.0
  0
VERTEX
  5
1077E
  8
0
 10
164.03679343863249
 20
104.33179057799769
 30
0.0
  0
SEQEND
  5
1077F
  8
0
  0
LINE
  5
AE18
  8
0
 10
164.03679343863249
 20
93.241100909769102
 30
0.0
 11
164.03679343863249
 21
104.33179057799769
 31
0.0
  0
POLYLINE
  5
AE19
  8
0
 66
     1
 10
0.0
 20
0.0
 30
0.0
  0
VERTEX
  5
10780
  8
0
 10
164.03679343863249
 20
93.241100909769102
 30
0.0
  0
VERTEX
  5
10781
  8
0
 10
164.0379638154385
 20
93.2311238159092
 30
0.0
  0
VERTEX
  5
10782
  8
0
 10
164.0423609611729
 20
93.219252334626731
 30
0.0
  0
VERTEX
  5
10783
  8
0
 10
164.05828052987499
 20
93.197566245684683
 30
0.0
  0
VERTEX
  5
10784
  8
0
 10
164.1360595004183
 20
93.14165648081223
 30
0.0
  0
VERTEX
  5
10785
  8
0
 10
164.30465001055339
 20
93.060020791816427
 30
0.0
  0
VERTEX
  5
10786
  8
0
 10
164.48488173193289
 20
92.991600548452993
 30
0.0
  0
VERTEX
  5
10787
  8
0
 10
164.80024952278961
 20
92.891707544178757
 30
0.0
  0
VERTEX
  5
10788
  8
0
 10
165.14055692398671
 20
92.811540128687724
 30
0.0
  0
VERTEX
  5
10789
  8
0
 10
165.5022684496688
 20
92.758137996625805
 30
0.0
  0
SEQEND
  5
1078A
  8
0
  0
POLYLINE
  5
AE1A
  8
0
 66
     1
 10
0.0
 20
0.0
 30
0.0
  0
VERTEX
  5
1078B
  8
0
 10
169.27857284026089
 20
92.142177445122911
 30
0.0
  0
VERTEX
  5
1078C
  8
0
 10
168.87607082167131
 20
92.230731691391824
 30
0.0
  0
VERTEX
  5
1078D
  8
0
 10
168.4656129854028
 20
92.314688843573876
 30
0.0
  0
VERTEX
  5
1078E
  8
0
 10
168.0380141108202
 20
92.395867581318385
 30
0.0
  0
VERTEX
  5
1078F
  8
0
 10
167.6080693027117
 20
92.471455460045036
 30
0.0
  0
VERTEX
  5
10790
  8
0
 10
167.1907267454811
 20
92.539269875535524
 30
0.0
  0
VERTEX
  5
10791
  8
0
 10
166.77717097386639
 20
92.601201332691971
 30
0.0
  0
VERTEX
  5
10792
  8
0
 10
166.35833240961659
 20
92.658551477347245
 30
0.0
  0
VERTEX
  5
10793
  8
0
 10
165.9499621212604
 20
92.709132777640207
 30
0.0
  0
VERTEX
  5
10794
  8
0
 10
165.5022684496688
 20
92.758137996625805
 30
0.0
  0
SEQEND
  5
10795
  8
0
  0
LINE
  5
AE1B
  8
0
 10
164.34829019102429
 20
105.6983375866668
 30
0.0
 11
163.73711199566389
 21
105.5762351298458
 31
0.0
  0
POLYLINE
  5
AE1C
  8
0
 66
     1
 10
0.0
 20
0.0
 30
0.0
  0
VERTEX
  5
10796
  8
0
 10
163.73711199566389
 20
105.5762351298458
 30
0.0
  0
VERTEX
  5
10797
  8
0
 10
163.5162244344948
 20
105.5297710145573
 30
0.0
  0
VERTEX
  5
10798
  8
0
 10
163.32510681515879
 20
105.485789912831
 30
0.0
  0
VERTEX
  5
10799
  8
0
 10
163.16109709662879
 20
105.44331834414039
 30
0.0
  0
VERTEX
  5
1079A
  8
0
 10
163.03132359253101
 20
105.4038273978406
 30
0.0
  0
VERTEX
  5
1079B
  8
0
 10
162.92268653693341
 20
105.3607755505338
 30
0.0
  0
VERTEX
  5
1079C
  8
0
 10
162.865391960306
 20
105.3220586467348
 30
0.0
  0
SEQEND
  5
1079D
  8
0
  0
POLYLINE
  5
AE1D
  8
0
 66
     1
 10
0.0
 20
0.0
 30
0.0
  0
VERTEX
  5
1079E
  8
0
 10
166.59526499083941
 20
105.3220586467348
 30
0.0
  0
VERTEX
  5
1079F
  8
0
 10
167.0018129812423
 20
105.35277968750501
 30
0.0
  0
VERTEX
  5
107A0
  8
0
 10
167.41402621458619
 20
105.38663686664199
 30
0.0
  0
VERTEX
  5
107A1
  8
0
 10
167.84114139003219
 20
105.4246355637829
 30
0.0
  0
VERTEX
  5
107A2
  8
0
 10
168.26809066304591
 20
105.46567940821041
 30
0.0
  0
VERTEX
  5
107A3
  8
0
 10
168.77574318408051
 20
105.5187229514965
 30
0.0
  0
VERTEX
  5
107A4
  8
0
 10
169.27857284026089
 20
105.5762351298458
 30
0.0
  0
SEQEND
  5
107A5
  8
0
  0
LINE
  5
AE1E
  8
0
 10
169.27857284026089
 20
105.5762351298458
 30
0.0
 11
170.31248762378789
 21
105.6983375866668
 31
0.0
  0
POLYLINE
  5
AE1F
  8
0
 66
     1
 10
0.0
 20
0.0
 30
0.0
  0
VERTEX
  5
107A6
  8
0
 10
180.01422373221499
 20
105.6983375866668
 30
0.0
  0
VERTEX
  5
107A7
  8
0
 10
179.53550565559669
 20
105.7778612568938
 30
0.0
  0
VERTEX
  5
107A8
  8
0
 10
179.00850573882951
 20
105.8492825998098
 30
0.0
  0
VERTEX
  5
107A9
  8
0
 10
178.4387795062101
 20
105.9109984659333
 30
0.0
  0
VERTEX
  5
107AA
  8
0
 10
177.83188248203609
 20
105.96140570578309
 30
0.0
  0
VERTEX
  5
107AB
  8
0
 10
177.1888515678323
 20
105.99919636963909
 30
0.0
  0
VERTEX
  5
107AC
  8
0
 10
176.51287475986061
 20
106.02369395286649
 30
0.0
  0
VERTEX
  5
107AD
  8
0
 10
175.81142284372879
 20
106.0343354571034
 30
0.0
  0
VERTEX
  5
107AE
  8
0
 10
175.09196660504429
 20
106.0305578839877
 30
0.0
  0
VERTEX
  5
107AF
  8
0
 10
174.36785762030141
 20
106.01245712347441
 30
0.0
  0
VERTEX
  5
107B0
  8
0
 10
173.6315185896095
 20
105.9809077430629
 30
0.0
  0
VERTEX
  5
107B1
  8
0
 10
172.89066344934881
 20
105.9370017386554
 30
0.0
  0
VERTEX
  5
107B2
  8
0
 10
172.15300613589841
 20
105.8818311061536
 30
0.0
  0
VERTEX
  5
107B3
  8
0
 10
171.53173551704739
 20
105.8269007216356
 30
0.0
  0
VERTEX
  5
107B4
  8
0
 10
170.91675942112471
 20
105.7654143873621
 30
0.0
  0
VERTEX
  5
107B5
  8
0
 10
170.31248762378789
 20
105.6983375866668
 30
0.0
  0
SEQEND
  5
107B6
  8
0
  0
LINE
  5
AE20
  8
0
 10
180.01422373221499
 20
105.6983375866668
 30
0.0
 11
180.67040961782629
 21
105.5762351298458
 31
0.0
  0
LINE
  5
AE21
  8
0
 10
189.63668161171111
 20
105.5762351298458
 30
0.0
 11
189.66449789404109
 21
105.6983375866668
 31
0.0
  0
POLYLINE
  5
AE22
  8
0
 66
     1
 10
0.0
 20
0.0
 30
0.0
  0
VERTEX
  5
107B7
  8
0
 10
195.66050055893129
 20
105.6983375866668
 30
0.0
  0
VERTEX
  5
107B8
  8
0
 10
194.96789221214979
 20
105.7778622396324
 30
0.0
  0
VERTEX
  5
107B9
  8
0
 10
194.29763631793509
 20
105.8492843377601
 30
0.0
  0
VERTEX
  5
107BA
  8
0
 10
193.656641554093
 20
105.9110006715884
 30
0.0
  0
VERTEX
  5
107BB
  8
0
 10
193.05181659843021
 20
105.9614080316576
 30
0.0
  0
VERTEX
  5
107BC
  8
0
 10
192.48546405116321
 20
105.9991980089228
 30
0.0
  0
VERTEX
  5
107BD
  8
0
 10
191.95977186996981
 20
106.0236948642962
 30
0.0
  0
VERTEX
  5
107BE
  8
0
 10
191.48027098964749
 20
106.0343356224127
 30
0.0
  0
VERTEX
  5
107BF
  8
0
 10
191.05249234499431
 20
106.0305573079079
 30
0.0
  0
VERTEX
  5
107C0
  8
0
 10
190.6837804892767
 20
106.0124558389923
 30
0.0
  0
VERTEX
  5
107C1
  8
0
 10
190.36808015381891
 20
105.9809057872617
 30
0.0
  0
VERTEX
  5
107C2
  8
0
 10
190.1082569469994
 20
105.93699916340501
 30
0.0
  0
VERTEX
  5
107C3
  8
0
 10
189.9071764771962
 20
105.8818279781114
 30
0.0
  0
VERTEX
  5
107C4
  8
0
 10
189.78337932786059
 20
105.8268983559248
 30
0.0
  0
VERTEX
  5
107C5
  8
0
 10
189.70233211379971
 20
105.7654130837352
 30
0.0
  0
VERTEX
  5
107C6
  8
0
 10
189.66449789404109
 20
105.6983375866668
 30
0.0
  0
SEQEND
  5
107C7
  8
0
  0
LINE
  5
AE23
  8
0
 10
195.66050055893129
 20
105.6983375866668
 30
0.0
 11
198.87435199828479
 21
105.3220586467348
 31
0.0
  0
POLYLINE
  5
AE24
  8
0
 66
     1
 10
0.0
 20
0.0
 30
0.0
  0
VERTEX
  5
107C8
  8
0
 10
164.34829019102429
 20
105.6983375866668
 30
0.0
  0
VERTEX
  5
107C9
  8
0
 10
164.7407952373627
 20
105.7769754418125
 30
0.0
  0
VERTEX
  5
107CA
  8
0
 10
165.08135068708941
 20
105.84750894488501
 30
0.0
  0
VERTEX
  5
107CB
  8
0
 10
165.37470122811749
 20
105.910166682843
 30
0.0
  0
VERTEX
  5
107CC
  8
0
 10
165.6081847761817
 20
105.961406246457
 30
0.0
  0
VERTEX
  5
107CD
  8
0
 10
165.77579593199391
 20
105.9989853027196
 30
0.0
  0
VERTEX
  5
107CE
  8
0
 10
165.88369438109871
 20
106.0235656305606
 30
0.0
  0
VERTEX
  5
107CF
  8
0
 10
165.93125469674041
 20
106.03447988006771
 30
0.0
  0
VERTEX
  5
107D0
  8
0
 10
165.9331129372417
 20
106.03492196039289
 30
0.0
  0
SEQEND
  5
107D1
  8
0
  0
LINE
  5
AE25
  8
0
 10
172.7999999999999
 20
107.0
 30
0.0
 11
165.93311293724111
 21
106.03492196039289
 31
0.0
  0
LINE
  5
AE26
  8
0
 10
199.13917310095991
 20
105.3220586467348
 30
0.0
 11
187.1999999999999
 21
107.0
 31
0.0
  0
LINE
  5
AE27
  8
0
 10
172.7999999999999
 20
107.0
 30
0.0
 11
187.1999999999999
 21
107.0
 31
0.0
  0
LINE
  5
AE28
  8
0
 10
189.6366816117112
 20
105.5762351298457
 30
0.0
 11
189.63668161171111
 21
92.142177445122911
 31
0.0
  0
POLYLINE
  5
AE29
  8
0
 66
     1
 10
0.0
 20
0.0
 30
0.0
  0
VERTEX
  5
107D2
  8
0
 10
188.85002619384699
 20
105.3220586467348
 30
0.0
  0
VERTEX
  5
107D3
  8
0
 10
189.0594235369245
 20
105.35277968699501
 30
0.0
  0
VERTEX
  5
107D4
  8
0
 10
189.238178106622
 20
105.38663686552491
 30
0.0
  0
VERTEX
  5
107D5
  8
0
 10
189.38877901719829
 20
105.4246355619086
 30
0.0
  0
VERTEX
  5
107D6
  8
0
 10
189.50464152821121
 20
105.46567940548491
 30
0.0
  0
VERTEX
  5
107D7
  8
0
 10
189.59661325848521
 20
105.5187229500031
 30
0.0
  0
VERTEX
  5
107D8
  8
0
 10
189.63668161171111
 20
105.5762351298458
 30
0.0
  0
SEQEND
  5
107D9
  8
0
  0
LINE
  5
AE2A
  8
0
 10
186.52628452573001
 20
93.241100909769102
 30
0.0
 11
186.52628452572989
 21
104.33179057799769
 31
0.0
  0
LINE
  5
AE2B
  8
0
 10
189.653577378021
 20
92.0
 30
0.0
 11
189.63668161171111
 21
92.142177445122911
 31
0.0
  0
POLYLINE
  5
AE2C
  8
0
 66
     1
 10
0.0
 20
0.0
 30
0.0
  0
VERTEX
  5
107DA
  8
0
 10
189.63668161171111
 20
92.142177445122911
 30
0.0
  0
VERTEX
  5
107DB
  8
0
 10
189.60873244634629
 20
92.230732107187464
 30
0.0
  0
VERTEX
  5
107DC
  8
0
 10
189.54640550770961
 20
92.314689629210974
 30
0.0
  0
VERTEX
  5
107DD
  8
0
 10
189.4465075543246
 20
92.395868716303994
 30
0.0
  0
VERTEX
  5
107DE
  8
0
 10
189.3109268171728
 20
92.471456882455755
 30
0.0
  0
VERTEX
  5
107DF
  8
0
 10
189.14544623727949
 20
92.539271174450619
 30
0.0
  0
VERTEX
  5
107E0
  8
0
 10
188.94789686347571
 20
92.601202504102844
 30
0.0
  0
VERTEX
  5
107E1
  8
0
 10
188.71204817516031
 20
92.658552513774907
 30
0.0
  0
VERTEX
  5
107E2
  8
0
 10
188.44509103127061
 20
92.709133676086125
 30
0.0
  0
VERTEX
  5
107E3
  8
0
 10
188.10590384549039
 20
92.758137996625805
 30
0.0
  0
SEQEND
  5
107E4
  8
0
  0
LINE
  5
AE2D
  8
0
 10
180.67040961782629
 20
92.142177445122911
 30
0.0
 11
180.27183862089689
 21
92.0
 31
0.0
  0
LINE
  5
AE2E
  8
0
 10
185.83233856720659
 20
104.3317905779934
 30
0.0
 11
185.83233856720659
 21
93.241100909769102
 31
0.0
  0
POLYLINE
  5
AE2F
  8
0
 66
     1
 10
0.0
 20
0.0
 30
0.0
  0
VERTEX
  5
107E5
  8
0
 10
180.67040961782629
 20
105.5762351298458
 30
0.0
  0
VERTEX
  5
107E6
  8
0
 10
180.9365339039424
 20
105.52977324780591
 30
0.0
  0
VERTEX
  5
107E7
  8
0
 10
181.22833912672979
 20
105.4857941259051
 30
0.0
  0
VERTEX
  5
107E8
  8
0
 10
181.55340687418581
 20
105.4433244224108
 30
0.0
  0
VERTEX
  5
107E9
  8
0
 10
181.90125160572899
 20
105.4038350061612
 30
0.0
  0
VERTEX
  5
107EA
  8
0
 10
182.34335494829119
 20
105.3607790227959
 30
0.0
  0
VERTEX
  5
107EB
  8
0
 10
182.81496485672241
 20
105.3220586467348
 30
0.0
  0
SEQEND
  5
107EC
  8
0
  0
LINE
  5
AE30
  8
0
 10
180.67040961782629
 20
104.561109189503
 30
0.0
 11
180.67040961782629
 21
93.193299365565039
 31
0.0
  0
POLYLINE
  5
AE31
  8
0
 66
     1
 10
0.0
 20
0.0
 30
0.0
  0
VERTEX
  5
107ED
  8
0
 10
183.95036677181099
 20
92.758137996624555
 30
0.0
  0
VERTEX
  5
107EE
  8
0
 10
183.3928924771339
 20
92.701088851777513
 30
0.0
  0
VERTEX
  5
107EF
  8
0
 10
182.8682225657038
 20
92.634251740531681
 30
0.0
  0
VERTEX
  5
107F0
  8
0
 10
182.3646187753705
 20
92.556485594987521
 30
0.0
  0
VERTEX
  5
107F1
  8
0
 10
181.8910940012116
 20
92.468814293872356
 30
0.0
  0
VERTEX
  5
107F2
  8
0
 10
181.4453419359732
 20
92.369814659200756
 30
0.0
  0
VERTEX
  5
107F3
  8
0
 10
181.03868857550671
 20
92.261377867149577
 30
0.0
  0
VERTEX
  5
107F4
  8
0
 10
180.67813558704381
 20
92.144948890395995
 30
0.0
  0
VERTEX
  5
107F5
  8
0
 10
180.67040961782629
 20
92.142177445122911
 30
0.0
  0
SEQEND
  5
107F6
  8
0
  0
POLYLINE
  5
AE32
  8
0
 66
     1
 10
0.0
 20
0.0
 30
0.0
  0
VERTEX
  5
107F7
  8
0
 10
188.85002619384699
 20
105.3220586467348
 30
0.0
  0
VERTEX
  5
107F8
  8
0
 10
188.6701910379094
 20
105.28865867159919
 30
0.0
  0
VERTEX
  5
107F9
  8
0
 10
188.47570824349521
 20
105.23596304768991
 30
0.0
  0
VERTEX
  5
107FA
  8
0
 10
188.2620445528658
 20
105.16572897101631
 30
0.0
  0
VERTEX
  5
107FB
  8
0
 10
188.03576764261931
 20
105.08220177647119
 30
0.0
  0
VERTEX
  5
107FC
  8
0
 10
187.72883894092391
 20
104.95953363432839
 30
0.0
  0
VERTEX
  5
107FD
  8
0
 10
187.405613537623
 20
104.822575931568
 30
0.0
  0
VERTEX
  5
107FE
  8
0
 10
187.0574801304777
 20
104.670757225055
 30
0.0
  0
VERTEX
  5
107FF
  8
0
 10
186.70309280067741
 20
104.4944439793948
 30
0.0
  0
VERTEX
  5
10800
  8
0
 10
186.63015754799909
 20
104.4509366917375
 30
0.0
  0
VERTEX
  5
10801
  8
0
 10
186.58347782482531
 20
104.41748165116471
 30
0.0
  0
VERTEX
  5
10802
  8
0
 10
186.54224657443871
 20
104.3757557351171
 30
0.0
  0
VERTEX
  5
10803
  8
0
 10
186.53057085078271
 20
104.3543785768076
 30
0.0
  0
VERTEX
  5
10804
  8
0
 10
186.52628452572989
 20
104.33179057799769
 30
0.0
  0
SEQEND
  5
10805
  8
0
  0
POLYLINE
  5
AE33
  8
0
 66
     1
 10
0.0
 20
0.0
 30
0.0
  0
VERTEX
  5
10806
  8
0
 10
185.83233856720659
 20
104.3317905779934
 30
0.0
  0
VERTEX
  5
10807
  8
0
 10
185.8286006212187
 20
104.3523749892465
 30
0.0
  0
VERTEX
  5
10808
  8
0
 10
185.81460304918591
 20
104.37704860991759
 30
0.0
  0
VERTEX
  5
10809
  8
0
 10
185.7588806053385
 20
104.42720188846781
 30
0.0
  0
VERTEX
  5
1080A
  8
0
 10
185.61518854214421
 20
104.5093470739791
 30
0.0
  0
VERTEX
  5
1080B
  8
0
 10
185.46279411428631
 20
104.5801373163592
 30
0.0
  0
VERTEX
  5
1080C
  8
0
 10
185.1545366486591
 20
104.7075895840983
 30
0.0
  0
VERTEX
  5
1080D
  8
0
 10
184.84035626943509
 20
104.825098878872
 30
0.0
  0
VERTEX
  5
1080E
  8
0
 10
184.51699749657121
 20
104.9369770712276
 30
0.0
  0
VERTEX
  5
1080F
  8
0
 10
184.19119199186079
 20
105.0398217542065
 30
0.0
  0
VERTEX
  5
10810
  8
0
 10
183.85009083836101
 20
105.1356914633068
 30
0.0
  0
VERTEX
  5
10811
  8
0
 10
183.50913837697721
 20
105.21704742282731
 30
0.0
  0
VERTEX
  5
10812
  8
0
 10
183.15978454940759
 20
105.2819249161098
 30
0.0
  0
VERTEX
  5
10813
  8
0
 10
182.81496485672241
 20
105.3220586467348
 30
0.0
  0
SEQEND
  5
10814
  8
0
  0
LINE
  5
AE34
  8
0
 10
185.83233856720659
 20
104.3317905779934
 30
0.0
 11
186.52628452572989
 21
104.33179057799769
 31
0.0
  0
POLYLINE
  5
AE35
  8
0
 66
     1
 10
0.0
 20
0.0
 30
0.0
  0
VERTEX
  5
10815
  8
0
 10
186.52628452573001
 20
93.241100909769102
 30
0.0
  0
VERTEX
  5
10816
  8
0
 10
186.527963606768
 20
93.2311238159092
 30
0.0
  0
VERTEX
  5
10817
  8
0
 10
186.5342633263061
 20
93.219252334626731
 30
0.0
  0
VERTEX
  5
10818
  8
0
 10
186.55695770584799
 20
93.197566245684683
 30
0.0
  0
VERTEX
  5
10819
  8
0
 10
186.6653701233389
 20
93.141656480812117
 30
0.0
  0
VERTEX
  5
1081A
  8
0
 10
186.8874104022253
 20
93.060020791816214
 30
0.0
  0
VERTEX
  5
1081B
  8
0
 10
187.1077467996956
 20
92.991600548452638
 30
0.0
  0
VERTEX
  5
1081C
  8
0
 10
187.45706738436439
 20
92.89170754417853
 30
0.0
  0
VERTEX
  5
1081D
  8
0
 10
187.79133589201919
 20
92.811540128687625
 30
0.0
  0
VERTEX
  5
1081E
  8
0
 10
188.10590384549039
 20
92.758137996625805
 30
0.0
  0
SEQEND
  5
1081F
  8
0
  0
LINE
  5
AE36
  8
0
 10
185.83233856720659
 20
93.241100909769102
 30
0.0
 11
186.52628452573001
 21
93.241100909769102
 31
0.0
  0
POLYLINE
  5
AE37
  8
0
 66
     1
 10
0.0
 20
0.0
 30
0.0
  0
VERTEX
  5
10820
  8
0
 10
183.95036677181099
 20
92.758137996624555
 30
0.0
  0
VERTEX
  5
10821
  8
0
 10
184.26821684690441
 20
92.796500407053614
 30
0.0
  0
VERTEX
  5
10822
  8
0
 10
184.58527810342059
 20
92.851156723472855
 30
0.0
  0
VERTEX
  5
10823
  8
0
 10
184.98137750279361
 20
92.930073695360534
 30
0.0
  0
VERTEX
  5
10824
  8
0
 10
185.3716470381672
 20
93.027922293637175
 30
0.0
  0
VERTEX
  5
10825
  8
0
 10
185.74290306914131
 20
93.166048168637417
 30
0.0
  0
VERTEX
  5
10826
  8
0
 10
185.77936324218339
 20
93.184571669714956
 30
0.0
  0
VERTEX
  5
10827
  8
0
 10
185.8093504606623
 20
93.204552961689046
 30
0.0
  0
VERTEX
  5
10828
  8
0
 10
185.8231460941405
 20
93.218194583529893
 30
0.0
  0
VERTEX
  5
10829
  8
0
 10
185.83003910910639
 20
93.229696201926231
 30
0.0
  0
VERTEX
  5
1082A
  8
0
 10
185.8322823651805
 20
93.239320572801489
 30
0.0
  0
VERTEX
  5
1082B
  8
0
 10
185.83233856720659
 20
93.241100909769102
 30
0.0
  0
SEQEND
  5
1082C
  8
0
  0
POLYLINE
  5
AE38
  8
4
 66
     1
 10
0.0
 20
0.0
 30
0.0
  0
VERTEX
  5
AE39
  8
4
 10
251.25472035799001
 20
80.928112021678317
 30
0.0
 42
-0.0744127175610667
  0
VERTEX
  5
AE3A
  8
4
 10
250.7302252008007
 20
81.622078015647944
 30
0.0
 42
-0.1536795722212451
  0
VERTEX
  5
AE3B
  8
4
 10
250.4664924250346
 20
82.966745035982058
 30
0.0
 42
-0.1847247553159499
  0
VERTEX
  5
AE3C
  8
4
 10
250.999998660708
 20
84.0
 30
0.0
 42
0.1729818233278114
  0
VERTEX
  5
AE3D
  8
4
 10
251.59226764483441
 20
85.085719582180886
 30
0.0
 42
0.1305645647028073
  0
VERTEX
  5
AE3E
  8
4
 10
251.43685348907391
 20
86.591526013392013
 30
0.0
 42
0.0267269543158863
  0
VERTEX
  5
AE3F
  8
4
 10
251.28817661047231
 20
86.928112021678317
 30
0.0
  0
SEQEND
  5
AE40
  8
4
  0
POLYLINE
  5
AE41
  8
4
 66
     1
 10
0.0
 20
0.0
 30
0.0
  0
VERTEX
  5
AE42
  8
4
 10
249.25472035799001
 20
80.928112021678317
 30
0.0
 42
-0.0744127175610667
  0
VERTEX
  5
AE43
  8
4
 10
248.7302252008007
 20
81.622078015647944
 30
0.0
 42
-0.1536795722212451
  0
VERTEX
  5
AE44
  8
4
 10
248.4664924250346
 20
82.966745035982058
 30
0.0
 42
-0.1847247553159499
  0
VERTEX
  5
AE45
  8
4
 10
248.999998660708
 20
84.0
 30
0.0
 42
0.1729818233278114
  0
VERTEX
  5
AE46
  8
4
 10
249.59226764483441
 20
85.085719582180886
 30
0.0
 42
0.1305645647028073
  0
VERTEX
  5
AE47
  8
4
 10
249.43685348907391
 20
86.591526013392013
 30
0.0
 42
0.0267269543158863
  0
VERTEX
  5
AE48
  8
4
 10
249.28817661047231
 20
86.928112021678317
 30
0.0
  0
SEQEND
  5
AE49
  8
4
  0
ENDSEC
  0
EOF
