  0
SECTION
  2
HEADER
  9
$ACADVER
  1
AC1009
  9
$INSBASE
 10
0.0
 20
0.0
 30
0.0
  9
$EXTMIN
 10
0.0
 20
-2.960436562073669
 30
0.0
  9
$EXTMAX
 10
190.00000000303851
 20
165.00000000000011
 30
0.0
  9
$LIMMIN
 10
0.0
 20
0.0
  9
$LIMMAX
 10
375.0
 20
270.0
  9
$ORTHOMODE
 70
     1
  9
$REGENMODE
 70
     1
  9
$FILLMODE
 70
     1
  9
$QTEXTMODE
 70
     0
  9
$MIRRTEXT
 70
     0
  9
$DRAGMODE
 70
     2
  9
$LTSCALE
 40
10.0
  9
$OSMODE
 70
    55
  9
$ATTMODE
 70
     1
  9
$TEXTSIZE
 40
2.0
  9
$TRACEWID
 40
0.05
  9
$TEXTSTYLE
  7
STANDARD
  9
$CLAYER
  8
0
  9
$CELTYPE
  6
BYLAYER
  9
$CECOLOR
 62
   256
  9
$DIMSCALE
 40
1.0
  9
$DIMASZ
 40
2.5
  9
$DIMEXO
 40
2.0
  9
$DIMDLI
 40
0.38
  9
$DIMRND
 40
0.0
  9
$DIMDLE
 40
0.0
  9
$DIMEXE
 40
2.0
  9
$DIMTP
 40
0.0
  9
$DIMTM
 40
0.0
  9
$DIMTXT
 40
3.0
  9
$DIMCEN
 40
0.09
  9
$DIMTSZ
 40
0.0
  9
$DIMTOL
 70
     0
  9
$DIMLIM
 70
     0
  9
$DIMTIH
 70
     0
  9
$DIMTOH
 70
     0
  9
$DIMSE1
 70
     0
  9
$DIMSE2
 70
     0
  9
$DIMTAD
 70
     1
  9
$DIMZIN
 70
     0
  9
$DIMBLK
  1

  9
$DIMASO
 70
     1
  9
$DIMSHO
 70
     0
  9
$DIMPOST
  1

  9
$DIMAPOST
  1

  9
$DIMALT
 70
     0
  9
$DIMALTD
 70
     2
  9
$DIMALTF
 40
25.399999999999999
  9
$DIMLFAC
 40
1.0
  9
$DIMTOFL
 70
     0
  9
$DIMTVP
 40
1.6000000000000001
  9
$DIMTIX
 70
     1
  9
$DIMSOXD
 70
     0
  9
$DIMSAH
 70
     0
  9
$DIMBLK1
  1

  9
$DIMBLK2
  1

  9
$DIMSTYLE
  2
STANDARD
  9
$DIMCLRD
 70
     0
  9
$DIMCLRE
 70
     0
  9
$DIMCLRT
 70
     0
  9
$DIMTFAC
 40
1.0
  9
$DIMGAP
 40
0.09
  9
$LUNITS
 70
     2
  9
$LUPREC
 70
     1
  9
$SKETCHINC
 40
0.1
  9
$FILLETRAD
 40
2.5
  9
$AUNITS
 70
     0
  9
$AUPREC
 70
     0
  9
$MENU
  1
E:\r13\win\SUPPORT\ACAD
  9
$ELEVATION
 40
0.0
  9
$PELEVATION
 40
0.0
  9
$THICKNESS
 40
0.0
  9
$LIMCHECK
 70
     0
  9
$BLIPMODE
 70
     0
  9
$CHAMFERA
 40
0.0
  9
$CHAMFERB
 40
0.0
  9
$SKPOLY
 70
     0
  9
$TDCREATE
 40
2448650.5678784722
  9
$TDUPDATE
 40
2456598.5648058909
  9
$TDINDWG
 40
0.1272447106
  9
$TDUSRTIMER
 40
0.1272447106
  9
$USRTIMER
 70
     1
  9
$ANGBASE
 50
0.0
  9
$ANGDIR
 70
     0
  9
$PDMODE
 70
     0
  9
$PDSIZE
 40
0.0
  9
$PLINEWID
 40
0.0
  9
$COORDS
 70
     1
  9
$SPLFRAME
 70
     0
  9
$SPLINETYPE
 70
     6
  9
$SPLINESEGS
 70
     8
  9
$ATTDIA
 70
     0
  9
$ATTREQ
 70
     1
  9
$HANDLING
 70
     1
  9
$HANDSEED
  5
1D64
  9
$SURFTAB1
 70
     6
  9
$SURFTAB2
 70
     6
  9
$SURFTYPE
 70
     6
  9
$SURFU
 70
     6
  9
$SURFV
 70
     6
  9
$UCSNAME
  2

  9
$UCSORG
 10
0.0
 20
0.0
 30
0.0
  9
$UCSXDIR
 10
1.0
 20
0.0
 30
0.0
  9
$UCSYDIR
 10
0.0
 20
1.0
 30
0.0
  9
$PUCSNAME
  2

  9
$PUCSORG
 10
0.0
 20
0.0
 30
0.0
  9
$PUCSXDIR
 10
1.0
 20
0.0
 30
0.0
  9
$PUCSYDIR
 10
0.0
 20
1.0
 30
0.0
  9
$USERI1
 70
     0
  9
$USERI2
 70
     1
  9
$USERI3
 70
     1
  9
$USERI4
 70
     0
  9
$USERI5
 70
     0
  9
$USERR1
 40
0.0
  9
$USERR2
 40
0.0
  9
$USERR3
 40
0.0
  9
$USERR4
 40
0.0
  9
$USERR5
 40
0.0
  9
$WORLDVIEW
 70
     1
  9
$SHADEDGE
 70
     3
  9
$SHADEDIF
 70
    70
  9
$TILEMODE
 70
     1
  9
$MAXACTVP
 70
    16
  9
$PLIMCHECK
 70
     0
  9
$PEXTMIN
 10
1.0000000000000000E+020
 20
1.0000000000000000E+020
 30
1.0000000000000000E+020
  9
$PEXTMAX
 10
-1.0000000000000000E+020
 20
-1.0000000000000000E+020
 30
-1.0000000000000000E+020
  9
$PLIMMIN
 10
0.0
 20
0.0
  9
$PLIMMAX
 10
12.0
 20
9.0
  9
$UNITMODE
 70
     0
  9
$VISRETAIN
 70
     0
  9
$PLINEGEN
 70
     1
  9
$PSLTSCALE
 70
     0
  0
ENDSEC
  0
SECTION
  2
TABLES
  0
TABLE
  2
VPORT
 70
     1
  0
VPORT
  2
*ACTIVE
 70
     0
 10
0.0
 20
0.0
 11
1.0
 21
1.0
 12
187.4942783906524
 22
197.0509055860143
 13
0.0
 23
0.0
 14
10.0
 24
10.0
 15
10.0
 25
10.0
 16
0.0
 26
0.0
 36
1.0
 17
0.0
 27
0.0
 37
0.0
 40
403.57315882993248
 41
1.7807262569832401
 42
50.0
 43
0.0
 44
0.0
 50
0.0
 51
0.0
 71
     0
 72
   500
 73
     1
 74
     0
 75
     0
 76
     0
 77
     0
 78
     2
  0
ENDTAB
  0
TABLE
  2
LTYPE
 70
     4
  0
LTYPE
  2
CONTINUOUS
 70
     0
  3
Solid Line
 72
    65
 73
     0
 40
0.0
  0
LTYPE
  2
CENTER
 70
     0
  3
____ _ ____ _ ____ _ ____ _ ____ _ ____ _ ____
 72
    65
 73
     4
 40
2.0
 49
1.25
 49
-0.25
 49
0.25
 49
-0.25
  0
LTYPE
  2
HIDDEN
 70
     0
  3
_ _ _ _ _ _ _ _ _ _ _ _ _ _ _ _ _ _ _ _ _ _ _
 72
    65
 73
     2
 40
0.375
 49
0.25
 49
-0.125
  0
LTYPE
  2
PHANTOM2
 70
     0
  3
___ _ _ ___ _ _ ___ _ _ ___ _ _
 72
    65
 73
     6
 40
1.25
 49
0.625
 49
-0.125
 49
0.125
 49
-0.125
 49
0.125
 49
-0.125
  0
ENDTAB
  0
TABLE
  2
LAYER
 70
     5
  0
LAYER
  2
0
 70
     0
 62
     7
  6
CONTINUOUS
  0
LAYER
  2
1
 70
     0
 62
     1
  6
CENTER
  0
LAYER
  2
2
 70
     0
 62
     2
  6
HIDDEN
  0
LAYER
  2
3
 70
     0
 62
     3
  6
CONTINUOUS
  0
LAYER
  2
DEFPOINTS
 70
     0
 62
     7
  6
CONTINUOUS
  0
ENDTAB
  0
TABLE
  2
STYLE
 70
     2
  0
STYLE
  2
STANDARD
 70
     0
 40
0.0
 41
1.0
 50
0.0
 71
     0
 42
2.0
  3
TXT
  4
BIGFONT
  0
STYLE
  2
STANDARD1
 70
     0
 40
0.0
 41
1.0
 50
0.0
 71
     0
 42
3.0
  3
txt
  4

  0
ENDTAB
  0
TABLE
  2
VIEW
 70
     1
  0
VIEW
  2
ALL
 70
     0
 40
270.0
 10
220.99159663865549
 20
135.0
 41
0.0
 11
0.0
 21
0.0
 31
1.0
 12
0.0
 22
0.0
 32
0.0
 42
0.0
 43
0.0
 44
0.0
 50
0.0
 71
     0
  0
ENDTAB
  0
TABLE
  2
UCS
 70
     0
  0
ENDTAB
  0
TABLE
  2
APPID
 70
     9
  0
APPID
  2
ACAD
 70
     0
  0
APPID
  2
GENIUS_GENODEF_13
 70
     0
  0
APPID
  2
GENIUS_GENOBJ-N-CEN_13
 70
     0
  0
APPID
  2
GENIUS_GENCEN_19
 70
     0
  0
APPID
  2
ACAD_DSTYLE_DIMJAG
 70
     0
  0
APPID
  2
ACAD_DSTYLE_DIMTALN
 70
     0
  0
APPID
  2
ACAD_EXEMPT_FROM_CAD_STANDARDS
 70
     0
  0
APPID
  2
ACAD_MLEADERVER
 70
     0
  0
APPID
  2
ACAD_NAV_VCDISPLAY
 70
     0
  0
ENDTAB
  0
TABLE
  2
DIMSTYLE
 70
     1
  0
DIMSTYLE
  2
STANDARD
 70
     0
  3

  4

  5

  6

  7

 40
1.0
 41
0.18
 42
0.0625
 43
0.38
 44
0.18
 45
0.0
 46
0.0
 47
0.0
 48
0.0
140
0.18
141
0.09
142
0.0
143
25.399999999999999
144
1.0
145
0.0
146
1.0
147
0.09
 71
     0
 72
     0
 73
     1
 74
     1
 75
     0
 76
     0
 77
     0
 78
     0
170
     0
171
     2
172
     0
173
     0
174
     0
175
     0
176
     0
177
     0
178
     0
  0
ENDTAB
  0
ENDSEC
  0
SECTION
  2
BLOCKS
  0
BLOCK
  8
0
  2
$MODEL_SPACE
 70
     0
 10
0.0
 20
0.0
 30
0.0
  3
$MODEL_SPACE
  1

  0
ENDBLK
  5
217
  8
0
  0
BLOCK
 67
     1
  8
0
  2
$PAPER_SPACE
 70
     0
 10
0.0
 20
0.0
 30
0.0
  3
$PAPER_SPACE
  1

  0
ENDBLK
  5
215
 67
     1
  8
0
  0
ENDSEC
  0
SECTION
  2
ENTITIES
  0
LINE
  5
1854
  8
3
 10
184.00000000303839
 20
52.999999999999822
 30
0.0
 11
183.23300000303831
 21
51.399999999999828
 31
0.0
  0
LINE
  5
1855
  8
0
 10
184.00000000303839
 20
51.399999999999828
 30
0.0
 11
176.00000000303831
 21
51.399999999999828
 31
0.0
  0
LINE
  5
1857
  8
3
 10
176.00000000303831
 20
52.999999999999829
 30
0.0
 11
176.76700000303831
 21
51.399999999999828
 31
0.0
  0
LINE
  5
1878
  8
0
 10
93.999999999999986
 20
28.766999999999829
 30
0.0
 11
93.999999999999986
 21
52.999999999999822
 31
0.0
  0
LINE
  5
1879
  8
0
 10
85.999999999999986
 20
52.999999999999822
 30
0.0
 11
85.999999999999986
 21
28.766999999999829
 31
0.0
  0
LINE
  5
187A
  8
0
 10
93.23299999999999
 20
27.99999999999984
 30
0.0
 11
93.999999999999986
 21
28.766999999999829
 31
0.0
  0
LINE
  5
187B
  8
0
 10
85.999999999999986
 20
28.766999999999829
 30
0.0
 11
86.766999999999982
 21
27.99999999999984
 31
0.0
  0
LINE
  5
192C
  8
0
 10
85.999999999999986
 20
28.766999999999829
 30
0.0
 11
93.999999999999986
 21
28.766999999999829
 31
0.0
  0
LINE
  5
192D
  8
0
 10
86.766999999999982
 20
27.99999999999984
 30
0.0
 11
93.23299999999999
 21
27.99999999999984
 31
0.0
  0
LINE
  5
192E
  8
3
 10
93.23299999999999
 20
27.99999999999984
 30
0.0
 11
93.23299999999999
 21
51.399999999999828
 31
0.0
  0
LINE
  5
192F
  8
3
 10
93.999999999999986
 20
52.999999999999822
 30
0.0
 11
93.23299999999999
 21
51.399999999999828
 31
0.0
  0
LINE
  5
1930
  8
0
 10
93.999999999999986
 20
51.399999999999828
 30
0.0
 11
85.999999999999986
 21
51.399999999999828
 31
0.0
  0
LINE
  5
1931
  8
3
 10
86.766999999999982
 20
27.99999999999984
 30
0.0
 11
86.766999999999982
 21
51.399999999999828
 31
0.0
  0
LINE
  5
1932
  8
3
 10
85.999999999999986
 20
52.999999999999829
 30
0.0
 11
86.766999999999982
 21
51.399999999999828
 31
0.0
  0
LINE
  5
1933
  8
1
 10
89.999999999999986
 20
105.0
 30
0.0
 11
89.999999999999986
 21
22.99999999999984
 31
0.0
  0
LINE
  5
199A
  8
3
 10
176.76700000303831
 20
27.99999999999984
 30
0.0
 11
176.76700000303831
 21
51.399999999999828
 31
0.0
  0
LINE
  5
199B
  8
3
 10
183.23300000303831
 20
27.99999999999984
 30
0.0
 11
183.23300000303831
 21
51.399999999999828
 31
0.0
  0
LINE
  5
199C
  8
0
 10
176.76700000303831
 20
27.99999999999984
 30
0.0
 11
183.23300000303831
 21
27.99999999999984
 31
0.0
  0
LINE
  5
199D
  8
0
 10
176.00000000303831
 20
28.766999999999829
 30
0.0
 11
184.00000000303839
 21
28.766999999999829
 31
0.0
  0
LINE
  5
199E
  8
0
 10
176.00000000303831
 20
28.766999999999829
 30
0.0
 11
176.76700000303831
 21
27.99999999999984
 31
0.0
  0
LINE
  5
199F
  8
0
 10
183.23300000303831
 20
27.99999999999984
 30
0.0
 11
184.00000000303839
 21
28.766999999999829
 31
0.0
  0
LINE
  5
19A0
  8
0
 10
176.00000000303831
 20
52.999999999999822
 30
0.0
 11
176.00000000303831
 21
28.766999999999829
 31
0.0
  0
LINE
  5
19A1
  8
0
 10
184.00000000303839
 20
28.766999999999829
 30
0.0
 11
184.00000000303839
 21
52.999999999999822
 31
0.0
  0
LINE
  5
1AB1
  8
0
 10
50.000000000000107
 20
154.48158696326621
 30
0.0
 11
50.000000000000107
 21
145.5184130367337
 31
0.0
  0
LINE
  5
1AB2
  8
0
 10
130.0
 20
154.4815869632661
 30
0.0
 11
130.0
 21
145.51841303673379
 31
0.0
  0
LINE
  5
1AB3
  8
1
 10
45.0
 20
150.0
 30
0.0
 11
135.0
 21
150.0
 31
0.0
  0
LINE
  5
1AB4
  8
1
 10
90.0
 20
134.99999999999989
 30
0.0
 11
90.0
 21
165.00000000000011
 31
0.0
  0
LINE
  5
1AB5
  8
2
 10
186.00000000303851
 20
99.499999999999829
 30
0.0
 11
186.00000000303851
 21
99.999999999999844
 31
0.0
  0
LINE
  5
1AB6
  8
2
 10
174.00000000303839
 20
99.999999999999844
 30
0.0
 11
174.00000000303839
 21
99.499999999999829
 31
0.0
  0
LINE
  5
1AB7
  8
0
 10
190.00000000303851
 20
100.0
 30
0.0
 11
170.0000000030382
 21
100.0
 31
0.0
  0
LINE
  5
1AB8
  8
0
 10
172.1643110735225
 20
84.829995539313913
 30
0.0
 11
187.83568893255429
 21
84.829995539313913
 31
0.0
  0
LINE
  5
1AB9
  8
0
 10
190.00000000303851
 20
58.499999999999829
 30
0.0
 11
190.00000000303851
 21
100.0
 31
0.0
  0
LINE
  5
1ABA
  8
0
 10
170.0000000030382
 20
100.0
 30
0.0
 11
170.0000000030382
 21
58.499999999999829
 31
0.0
  0
LINE
  5
1ABB
  8
2
 10
186.00000000303851
 20
99.499999999999829
 30
0.0
 11
174.00000000303839
 21
99.499999999999829
 31
0.0
  0
LINE
  5
1ABC
  8
0
 10
172.24168462930069
 20
98.260263153969277
 30
0.0
 11
187.75831537677601
 21
98.260263153969277
 31
0.0
  0
POLYLINE
  5
1ABD
  8
0
 66
     1
 10
0.0
 20
0.0
 30
0.0
  0
VERTEX
  5
1C34
  8
0
 10
172.03975362670761
 20
98.337396569351029
 30
0.0
  0
VERTEX
  5
1C35
  8
0
 10
172.0424524562701
 20
98.335264346895428
 30
0.0
  0
VERTEX
  5
1C36
  8
0
 10
172.04834372072031
 20
98.330991674961354
 30
0.0
  0
VERTEX
  5
1C37
  8
0
 10
172.05489589153359
 20
98.326709344184295
 30
0.0
  0
VERTEX
  5
1C38
  8
0
 10
172.05842072457111
 20
98.324565049522406
 30
0.0
  0
VERTEX
  5
1C39
  8
0
 10
172.06211180497169
 20
98.322418931929846
 30
0.0
  0
VERTEX
  5
1C3A
  8
0
 10
172.06999375148311
 20
98.318122018000125
 30
0.0
  0
VERTEX
  5
1C3B
  8
0
 10
172.0785434845493
 20
98.31382018132183
 30
0.0
  0
VERTEX
  5
1C3C
  8
0
 10
172.08776225180131
 20
98.309514987665224
 30
0.0
  0
VERTEX
  5
1C3D
  8
0
 10
172.09765096230339
 20
98.305207924514832
 30
0.0
  0
VERTEX
  5
1C3E
  8
0
 10
172.1082099224339
 20
98.300900530353999
 30
0.0
  0
VERTEX
  5
1C3F
  8
0
 10
172.11374068436641
 20
98.29874719747346
 30
0.0
  0
VERTEX
  5
1C40
  8
0
 10
172.119438867425
 20
98.296594368722936
 30
0.0
  0
VERTEX
  5
1C41
  8
0
 10
172.13133699618609
 20
98.292291009253745
 30
0.0
  0
VERTEX
  5
1C42
  8
0
 10
172.14390297617459
 20
98.287992024308494
 30
0.0
  0
VERTEX
  5
1C43
  8
0
 10
172.157134950433
 20
98.283698985652734
 30
0.0
  0
VERTEX
  5
1C44
  8
0
 10
172.17103054678779
 20
98.279413461160914
 30
0.0
  0
VERTEX
  5
1C45
  8
0
 10
172.185586889219
 20
98.275137011550669
 30
0.0
  0
VERTEX
  5
1C46
  8
0
 10
172.19311180697699
 20
98.273002674796032
 30
0.0
  0
VERTEX
  5
1C47
  8
0
 10
172.20080061141459
 20
98.270871187144564
 30
0.0
  0
VERTEX
  5
1C48
  8
0
 10
172.2166678725327
 20
98.266617524656752
 30
0.0
  0
VERTEX
  5
1C49
  8
0
 10
172.23318437520231
 20
98.262377544004607
 30
0.0
  0
VERTEX
  5
1C4A
  8
0
 10
172.24168462930069
 20
98.260263153969277
 30
0.0
  0
SEQEND
  5
1C4B
  8
0
  0
POLYLINE
  5
1ABE
  8
0
 66
     1
 10
0.0
 20
0.0
 30
0.0
  0
VERTEX
  5
1C4C
  8
0
 10
172.1643110735225
 20
84.829995539313913
 30
0.0
  0
VERTEX
  5
1C4D
  8
0
 10
172.15053002350001
 20
84.830445755965215
 30
0.0
  0
VERTEX
  5
1C4E
  8
0
 10
172.12481085682779
 20
84.834121685592535
 30
0.0
  0
VERTEX
  5
1C4F
  8
0
 10
172.10168700212731
 20
84.841645094623317
 30
0.0
  0
VERTEX
  5
1C50
  8
0
 10
172.09114154134909
 20
84.846896362549529
 30
0.0
  0
SEQEND
  5
1C51
  8
0
  0
POLYLINE
  5
1ABF
  8
0
 66
     1
 10
0.0
 20
0.0
 30
0.0
  0
VERTEX
  5
1C52
  8
0
 10
172.09114154134909
 20
84.846896362549387
 30
0.0
  0
VERTEX
  5
1C53
  8
0
 10
172.0804046924753
 20
84.853196952747481
 30
0.0
  0
VERTEX
  5
1C54
  8
0
 10
172.06154554823351
 20
84.865760989411186
 30
0.0
  0
VERTEX
  5
1C55
  8
0
 10
172.04615637352691
 20
84.878255601890416
 30
0.0
  0
VERTEX
  5
1C56
  8
0
 10
172.03975362670761
 20
84.884469426928689
 30
0.0
  0
SEQEND
  5
1C57
  8
0
  0
POLYLINE
  5
1AC0
  8
0
 66
     1
 10
0.0
 20
0.0
 30
0.0
  0
VERTEX
  5
1C58
  8
0
 10
187.96024637936901
 20
98.337396569351029
 30
0.0
  0
VERTEX
  5
1C59
  8
0
 10
188.56744628461391
 20
98.831968257068695
 30
0.0
  0
VERTEX
  5
1C5A
  8
0
 10
189.47584257085401
 20
99.572433734319432
 30
0.0
  0
VERTEX
  5
1C5B
  8
0
 10
189.94129526945841
 20
99.952102160522884
 30
0.0
  0
VERTEX
  5
1C5C
  8
0
 10
190.00000000303851
 20
100.0
 30
0.0
  0
SEQEND
  5
1C5D
  8
0
  0
POLYLINE
  5
1AC1
  8
0
 66
     1
 10
0.0
 20
0.0
 30
0.0
  0
VERTEX
  5
1C5E
  8
0
 10
189.98651124681291
 20
58.499999999999829
 30
0.0
  0
VERTEX
  5
1C5F
  8
0
 10
189.98552961644029
 20
58.530503367733417
 30
0.0
  0
VERTEX
  5
1C60
  8
0
 10
189.98346615262861
 20
58.59433554491649
 30
0.0
  0
VERTEX
  5
1C61
  8
0
 10
189.98127057197721
 20
58.661832217537011
 30
0.0
  0
VERTEX
  5
1C62
  8
0
 10
189.9801238453538
 20
58.696914509234887
 30
0.0
  0
VERTEX
  5
1C63
  8
0
 10
189.97894484422611
 20
58.732863828771173
 30
0.0
  0
VERTEX
  5
1C64
  8
0
 10
189.97649114161979
 20
58.807294550387716
 30
0.0
  0
VERTEX
  5
1C65
  8
0
 10
189.9739118291557
 20
58.884983216481658
 30
0.0
  0
VERTEX
  5
1C66
  8
0
 10
189.97120945536179
 20
58.965784211486259
 30
0.0
  0
VERTEX
  5
1C67
  8
0
 10
189.9683864215591
 20
59.049557827010837
 30
0.0
  0
VERTEX
  5
1C68
  8
0
 10
189.96544512934659
 20
59.136166104884069
 30
0.0
  0
VERTEX
  5
1C69
  8
0
 10
189.96393101861241
 20
59.180486834463331
 30
0.0
  0
VERTEX
  5
1C6A
  8
0
 10
189.96238842161969
 20
59.225460298997433
 30
0.0
  0
VERTEX
  5
1C6B
  8
0
 10
189.95921929721851
 20
59.317289889751841
 30
0.0
  0
VERTEX
  5
1C6C
  8
0
 10
189.9559409081715
 20
59.411503079191561
 30
0.0
  0
VERTEX
  5
1C6D
  8
0
 10
189.9436551279351
 20
59.757812968116177
 30
0.0
  0
VERTEX
  5
1C6E
  8
0
 10
189.9322103563664
 20
60.071428571428378
 30
0.0
  0
SEQEND
  5
1C6F
  8
0
  0
LINE
  5
1AC2
  8
0
 10
189.9322103563664
 20
60.071428571428378
 30
0.0
 11
189.9322103563664
 21
75.129999999999825
 31
0.0
  0
POLYLINE
  5
1AC3
  8
0
 66
     1
 10
0.0
 20
0.0
 30
0.0
  0
VERTEX
  5
1C70
  8
0
 10
189.9322103563664
 20
75.129999999999825
 30
0.0
  0
VERTEX
  5
1C71
  8
0
 10
189.9322061570526
 20
75.177658561804463
 30
0.0
  0
VERTEX
  5
1C72
  8
0
 10
189.93217266772339
 20
75.272770668191839
 30
0.0
  0
VERTEX
  5
1C73
  8
0
 10
189.93210594775709
 20
75.367610695762039
 30
0.0
  0
VERTEX
  5
1C74
  8
0
 10
189.9320602056826
 20
75.414929141697513
 30
0.0
  0
VERTEX
  5
1C75
  8
0
 10
189.93200624889261
 20
75.462180114590382
 30
0.0
  0
VERTEX
  5
1C76
  8
0
 10
189.9318738043481
 20
75.556480341701473
 30
0.0
  0
VERTEX
  5
1C77
  8
0
 10
189.9317088292776
 20
75.650512760396708
 30
0.0
  0
VERTEX
  5
1C78
  8
0
 10
189.9315115211644
 20
75.744278737441164
 30
0.0
  0
VERTEX
  5
1C79
  8
0
 10
189.9312820601545
 20
75.837779637758075
 30
0.0
  0
VERTEX
  5
1C7A
  8
0
 10
189.93102060934169
 20
75.93101683636003
 30
0.0
  0
VERTEX
  5
1C7B
  8
0
 10
189.93087793412371
 20
75.977536982241233
 30
0.0
  0
VERTEX
  5
1C7C
  8
0
 10
189.9307273150101
 20
76.023991727332344
 30
0.0
  0
VERTEX
  5
1C7D
  8
0
 10
189.9304023068434
 20
76.116705729766664
 30
0.0
  0
VERTEX
  5
1C7E
  8
0
 10
189.93004569810981
 20
76.209160290623231
 30
0.0
  0
VERTEX
  5
1C7F
  8
0
 10
189.9296575858281
 20
76.301356884575057
 30
0.0
  0
VERTEX
  5
1C80
  8
0
 10
189.92923805092471
 20
76.393297010952978
 30
0.0
  0
VERTEX
  5
1C81
  8
0
 10
189.9287871583866
 20
76.484982187968711
 30
0.0
  0
VERTEX
  5
1C82
  8
0
 10
189.92854996899251
 20
76.530729648080523
 30
0.0
  0
VERTEX
  5
1C83
  8
0
 10
189.9283049574166
 20
76.576413944440645
 30
0.0
  0
VERTEX
  5
1C84
  8
0
 10
189.92779148159761
 20
76.667593809284284
 30
0.0
  0
VERTEX
  5
1C85
  8
0
 10
189.92724674906589
 20
76.758523299055838
 30
0.0
  0
VERTEX
  5
1C86
  8
0
 10
189.92696266302369
 20
76.803894620393521
 30
0.0
  0
VERTEX
  5
1C87
  8
0
 10
189.92667076270331
 20
76.849203903855965
 30
0.0
  0
VERTEX
  5
1C88
  8
0
 10
189.92606351034431
 20
76.939637071906589
 30
0.0
  0
VERTEX
  5
1C89
  8
0
 10
189.92542496786319
 20
77.029823799714535
 30
0.0
  0
VERTEX
  5
1C8A
  8
0
 10
189.9250941471536
 20
77.074798763789815
 30
0.0
  0
VERTEX
  5
1C8B
  8
0
 10
189.92475582340069
 20
77.11966985437607
 30
0.0
  0
VERTEX
  5
1C8C
  8
0
 10
189.92405676996469
 20
77.209096229042672
 30
0.0
  0
VERTEX
  5
1C8D
  8
0
 10
189.92332801492091
 20
77.298094575217391
 30
0.0
  0
VERTEX
  5
1C8E
  8
0
 10
189.92256976740421
 20
77.386656585338869
 30
0.0
  0
VERTEX
  5
1C8F
  8
0
 10
189.92178223865719
 20
77.474773995207016
 30
0.0
  0
VERTEX
  5
1C90
  8
0
 10
189.92096564238921
 20
77.562438583906044
 30
0.0
  0
VERTEX
  5
1C91
  8
0
 10
189.92054651148851
 20
77.606098512629075
 30
0.0
  0
VERTEX
  5
1C92
  8
0
 10
189.9201201951644
 20
77.649642171681762
 30
0.0
  0
VERTEX
  5
1C93
  8
0
 10
189.919246116815
 20
77.736376616200033
 30
0.0
  0
VERTEX
  5
1C94
  8
0
 10
189.9183436308827
 20
77.82263380758144
 30
0.0
  0
VERTEX
  5
1C95
  8
0
 10
189.9149645516741
 20
78.120659071685083
 30
0.0
  0
VERTEX
  5
1C96
  8
0
 10
189.90839895245361
 20
78.616732976792434
 30
0.0
  0
VERTEX
  5
1C97
  8
0
 10
189.9008574549693
 20
79.095598270306994
 30
0.0
  0
VERTEX
  5
1C98
  8
0
 10
189.8921525865309
 20
79.567332958933889
 30
0.0
  0
VERTEX
  5
1C99
  8
0
 10
189.887340301254
 20
79.800415579138303
 30
0.0
  0
VERTEX
  5
1C9A
  8
0
 10
189.8822121355706
 20
80.031342347664179
 30
0.0
  0
VERTEX
  5
1C9B
  8
0
 10
189.87097993142481
 20
80.485823240833156
 30
0.0
  0
VERTEX
  5
1C9C
  8
0
 10
189.85839982822489
 20
80.928945574625089
 30
0.0
  0
VERTEX
  5
1C9D
  8
0
 10
189.8444174938389
 20
81.358845342439906
 30
0.0
  0
VERTEX
  5
1C9E
  8
0
 10
189.828982423117
 20
81.773632262026723
 30
0.0
  0
VERTEX
  5
1C9F
  8
0
 10
189.81199797629799
 20
82.172552925333136
 30
0.0
  0
VERTEX
  5
1CA0
  8
0
 10
189.80286630552229
 20
82.366291052305385
 30
0.0
  0
VERTEX
  5
1CA1
  8
0
 10
189.7932928177332
 20
82.555873530698676
 30
0.0
  0
VERTEX
  5
1CA2
  8
0
 10
189.77277680635919
 20
82.921474027567456
 30
0.0
  0
VERTEX
  5
1CA3
  8
0
 10
189.75036370472441
 20
83.26714985141183
 30
0.0
  0
VERTEX
  5
1CA4
  8
0
 10
189.73841936119521
 20
83.431823567671188
 30
0.0
  0
SEQEND
  5
1CA5
  8
0
  0
POLYLINE
  5
1AC4
  8
0
 66
     1
 10
0.0
 20
0.0
 30
0.0
  0
VERTEX
  5
1CA6
  8
0
 10
189.73841936121639
 20
83.431823568743354
 30
0.0
  0
VERTEX
  5
1CA7
  8
0
 10
189.7324707249557
 20
83.566700911254969
 30
0.0
  0
VERTEX
  5
1CA8
  8
0
 10
189.719940140994
 20
83.829385358286146
 30
0.0
  0
VERTEX
  5
1CA9
  8
0
 10
189.7065573859318
 20
84.081594785345743
 30
0.0
  0
VERTEX
  5
1CAA
  8
0
 10
189.69954468707061
 20
84.203401515012501
 30
0.0
  0
VERTEX
  5
1CAB
  8
0
 10
189.692317430782
 20
84.322159317802203
 30
0.0
  0
VERTEX
  5
1CAC
  8
0
 10
189.67721969515321
 20
84.550024298917663
 30
0.0
  0
VERTEX
  5
1CAD
  8
0
 10
189.66126818199601
 20
84.764250157371066
 30
0.0
  0
VERTEX
  5
1CAE
  8
0
 10
189.64447376578499
 20
84.963986492424169
 30
0.0
  0
VERTEX
  5
1CAF
  8
0
 10
189.62685420629469
 20
85.148484998128893
 30
0.0
  0
VERTEX
  5
1CB0
  8
0
 10
189.60843372389141
 20
85.317111340290865
 30
0.0
  0
VERTEX
  5
1CB1
  8
0
 10
189.5989306022764
 20
85.395320799630085
 30
0.0
  0
VERTEX
  5
1CB2
  8
0
 10
189.58923572016809
 20
85.469400886116091
 30
0.0
  0
VERTEX
  5
1CB3
  8
0
 10
189.5692902083226
 20
85.604972592031359
 30
0.0
  0
VERTEX
  5
1CB4
  8
0
 10
189.5486416521164
 20
85.723493260906864
 30
0.0
  0
VERTEX
  5
1CB5
  8
0
 10
189.52734265495729
 20
85.824745559735447
 30
0.0
  0
VERTEX
  5
1CB6
  8
0
 10
189.50545304062069
 20
85.908635724154522
 30
0.0
  0
VERTEX
  5
1CB7
  8
0
 10
189.4830391769776
 20
85.975195176983206
 30
0.0
  0
VERTEX
  5
1CB8
  8
0
 10
189.47165862545799
 20
86.002018377119811
 30
0.0
  0
VERTEX
  5
1CB9
  8
0
 10
189.4601757353976
 20
86.024575066973853
 30
0.0
  0
VERTEX
  5
1CBA
  8
0
 10
189.43694629707699
 20
86.057050997261214
 30
0.0
  0
VERTEX
  5
1CBB
  8
0
 10
189.41344206394621
 20
86.073031153300491
 30
0.0
  0
VERTEX
  5
1CBC
  8
0
 10
189.40161708836251
 20
86.074999999999818
 30
0.0
  0
SEQEND
  5
1CBD
  8
0
  0
POLYLINE
  5
1AC5
  8
0
 66
     1
 10
0.0
 20
0.0
 30
0.0
  0
VERTEX
  5
1CBE
  8
0
 10
189.40161708836251
 20
86.074999999999818
 30
0.0
  0
VERTEX
  5
1CBF
  8
0
 10
189.21769442995949
 20
85.978626320573824
 30
0.0
  0
VERTEX
  5
1CC0
  8
0
 10
188.78022726519961
 20
85.660530307995117
 30
0.0
  0
VERTEX
  5
1CC1
  8
0
 10
188.2543663390818
 20
85.181526007740956
 30
0.0
  0
VERTEX
  5
1CC2
  8
0
 10
187.96024637936901
 20
84.884469426928689
 30
0.0
  0
SEQEND
  5
1CC3
  8
0
  0
POLYLINE
  5
1AC6
  8
0
 66
     1
 10
0.0
 20
0.0
 30
0.0
  0
VERTEX
  5
1CC4
  8
0
 10
170.59838291771419
 20
86.074999999999818
 30
0.0
  0
VERTEX
  5
1CC5
  8
0
 10
170.58655794212299
 20
86.073031153297975
 30
0.0
  0
VERTEX
  5
1CC6
  8
0
 10
170.56305370897721
 20
86.057050997238207
 30
0.0
  0
VERTEX
  5
1CC7
  8
0
 10
170.53982427064241
 20
86.024575066908994
 30
0.0
  0
VERTEX
  5
1CC8
  8
0
 10
170.52834138057511
 20
86.002018377025792
 30
0.0
  0
VERTEX
  5
1CC9
  8
0
 10
170.51696082904871
 20
85.975195176854498
 30
0.0
  0
VERTEX
  5
1CCA
  8
0
 10
170.4945469653926
 20
85.908635723939696
 30
0.0
  0
VERTEX
  5
1CCB
  8
0
 10
170.47265735104389
 20
85.824745559412236
 30
0.0
  0
VERTEX
  5
1CCC
  8
0
 10
170.45135835387359
 20
85.723493260453395
 30
0.0
  0
VERTEX
  5
1CCD
  8
0
 10
170.43070979765741
 20
85.60497259142636
 30
0.0
  0
VERTEX
  5
1CCE
  8
0
 10
170.41076428580291
 20
85.469400885339184
 30
0.0
  0
VERTEX
  5
1CCF
  8
0
 10
170.4010694036904
 20
85.395320798759997
 30
0.0
  0
VERTEX
  5
1CD0
  8
0
 10
170.39156628207169
 20
85.317111339322992
 30
0.0
  0
VERTEX
  5
1CD1
  8
0
 10
170.37314579966181
 20
85.148484996951524
 30
0.0
  0
VERTEX
  5
1CD2
  8
0
 10
170.35552624016611
 20
84.963986491020947
 30
0.0
  0
VERTEX
  5
1CD3
  8
0
 10
170.3387318239507
 20
84.764250155727751
 30
0.0
  0
VERTEX
  5
1CD4
  8
0
 10
170.32278031079051
 20
84.550024297022233
 30
0.0
  0
VERTEX
  5
1CD5
  8
0
 10
170.30768257515959
 20
84.322159315645109
 30
0.0
  0
VERTEX
  5
1CD6
  8
0
 10
170.30045531887049
 20
84.203401512722465
 30
0.0
  0
VERTEX
  5
1CD7
  8
0
 10
170.2934426200091
 20
84.081594782921684
 30
0.0
  0
VERTEX
  5
1CD8
  8
0
 10
170.28005986494719
 20
83.829385355590659
 30
0.0
  0
VERTEX
  5
1CD9
  8
0
 10
170.26752928098651
 20
83.566700908284986
 30
0.0
  0
VERTEX
  5
1CDA
  8
0
 10
170.26158064472659
 20
83.431823565636194
 30
0.0
  0
SEQEND
  5
1CDB
  8
0
  0
POLYLINE
  5
1AC7
  8
0
 66
     1
 10
0.0
 20
0.0
 30
0.0
  0
VERTEX
  5
1CDC
  8
0
 10
170.26158064472699
 20
83.431823565622182
 30
0.0
  0
VERTEX
  5
1CDD
  8
0
 10
170.24999789898479
 20
83.272322392771784
 30
0.0
  0
VERTEX
  5
1CDE
  8
0
 10
170.228028258671
 20
82.934799303887687
 30
0.0
  0
VERTEX
  5
1CDF
  8
0
 10
170.20762842548021
 20
82.573436948865137
 30
0.0
  0
VERTEX
  5
1CE0
  8
0
 10
170.1980334528856
 20
82.384676490493035
 30
0.0
  0
VERTEX
  5
1CE1
  8
0
 10
170.18886831701411
 20
82.191510344184024
 30
0.0
  0
VERTEX
  5
1CE2
  8
0
 10
170.17179050086961
 20
81.792996960927255
 30
0.0
  0
VERTEX
  5
1CE3
  8
0
 10
170.15631927698911
 20
81.379956881053175
 30
0.0
  0
VERTEX
  5
1CE4
  8
0
 10
170.1423773893483
 20
80.954424013531195
 30
0.0
  0
VERTEX
  5
1CE5
  8
0
 10
170.12988738949551
 20
80.518400225875453
 30
0.0
  0
VERTEX
  5
1CE6
  8
0
 10
170.11877287934149
 20
80.073857112166124
 30
0.0
  0
VERTEX
  5
1CE7
  8
0
 10
170.1137081090051
 20
79.849001237951597
 30
0.0
  0
VERTEX
  5
1CE8
  8
0
 10
170.10895946420331
 20
79.622742683385837
 30
0.0
  0
VERTEX
  5
1CE9
  8
0
 10
170.10020635723811
 20
79.15730279134965
 30
0.0
  0
VERTEX
  5
1CEA
  8
0
 10
170.09238815032839
 20
78.67059032519083
 30
0.0
  0
VERTEX
  5
1CEB
  8
0
 10
170.08556775009589
 20
78.164525479948963
 30
0.0
  0
VERTEX
  5
1CEC
  8
0
 10
170.08207010357279
 20
77.861144165114951
 30
0.0
  0
VERTEX
  5
1CED
  8
0
 10
170.08113745564839
 20
77.773427044226025
 30
0.0
  0
VERTEX
  5
1CEE
  8
0
 10
170.0802347833982
 20
77.685265544553772
 30
0.0
  0
VERTEX
  5
1CEF
  8
0
 10
170.07979474400159
 20
77.641020964834411
 30
0.0
  0
VERTEX
  5
1CF0
  8
0
 10
170.0793622650429
 20
77.596668670318593
 30
0.0
  0
VERTEX
  5
1CF1
  8
0
 10
170.0785200749132
 20
77.507645469093831
 30
0.0
  0
VERTEX
  5
1CF2
  8
0
 10
170.07770838384599
 20
77.418205034151214
 30
0.0
  0
VERTEX
  5
1CF3
  8
0
 10
170.07692735954819
 20
77.328356505029234
 30
0.0
  0
VERTEX
  5
1CF4
  8
0
 10
170.07617716693551
 20
77.238109065877012
 30
0.0
  0
VERTEX
  5
1CF5
  8
0
 10
170.0754582667856
 20
77.147510451485445
 30
0.0
  0
VERTEX
  5
1CF6
  8
0
 10
170.0751107567508
 20
77.102104666255343
 30
0.0
  0
VERTEX
  5
1CF7
  8
0
 10
170.07477120531399
 20
77.056628130395495
 30
0.0
  0
VERTEX
  5
1CF8
  8
0
 10
170.07411597088441
 20
76.965462479336963
 30
0.0
  0
VERTEX
  5
1CF9
  8
0
 10
170.0734925573723
 20
76.874012796760013
 30
0.0
  0
VERTEX
  5
1CFA
  8
0
 10
170.07319278535081
 20
76.828181207046384
 30
0.0
  0
VERTEX
  5
1CFB
  8
0
 10
170.07290097259701
 20
76.782278319405975
 30
0.0
  0
VERTEX
  5
1CFC
  8
0
 10
170.07234123861971
 20
76.690258240328944
 30
0.0
  0
VERTEX
  5
1CFD
  8
0
 10
170.0718133920148
 20
76.597951726039071
 30
0.0
  0
VERTEX
  5
1CFE
  8
0
 10
170.07156144193669
 20
76.551690791910488
 30
0.0
  0
VERTEX
  5
1CFF
  8
0
 10
170.07131748411871
 20
76.505357932404763
 30
0.0
  0
VERTEX
  5
1D00
  8
0
 10
170.0708535812559
 20
76.412476018941675
 30
0.0
  0
VERTEX
  5
1D01
  8
0
 10
170.07042176494659
 20
76.319305161115054
 30
0.0
  0
VERTEX
  5
1D02
  8
0
 10
170.07002213210021
 20
76.225844560290852
 30
0.0
  0
VERTEX
  5
1D03
  8
0
 10
170.0696547951994
 20
76.132093450991476
 30
0.0
  0
VERTEX
  5
1D04
  8
0
 10
170.06931988248269
 20
76.038051105144632
 30
0.0
  0
VERTEX
  5
1D05
  8
0
 10
170.06916462962161
 20
75.990920501532116
 30
0.0
  0
VERTEX
  5
1D06
  8
0
 10
170.06901753812971
 20
75.943716833058971
 30
0.0
  0
VERTEX
  5
1D07
  8
0
 10
170.06874792245941
 20
75.849089980917896
 30
0.0
  0
VERTEX
  5
1D08
  8
0
 10
170.0685112121503
 20
75.75416992465415
 30
0.0
  0
VERTEX
  5
1D09
  8
0
 10
170.06830760049161
 20
75.658956060149109
 30
0.0
  0
VERTEX
  5
1D0A
  8
0
 10
170.06813729767259
 20
75.563447789792832
 30
0.0
  0
VERTEX
  5
1D0B
  8
0
 10
170.06800053112701
 20
75.467644505539184
 30
0.0
  0
VERTEX
  5
1D0C
  8
0
 10
170.067944799842
 20
75.419632035420847
 30
0.0
  0
VERTEX
  5
1D0D
  8
0
 10
170.0678975459335
 20
75.371545568695069
 30
0.0
  0
VERTEX
  5
1D0E
  8
0
 10
170.06782860529049
 20
75.275150286785532
 30
0.0
  0
VERTEX
  5
1D0F
  8
0
 10
170.06779399106821
 20
75.178457887941221
 30
0.0
  0
VERTEX
  5
1D10
  8
0
 10
170.06778964971031
 20
75.129999999999825
 30
0.0
  0
SEQEND
  5
1D11
  8
0
  0
LINE
  5
1AC8
  8
0
 10
170.06778964971031
 20
75.129999999999825
 30
0.0
 11
170.06778964971031
 21
60.071428571428378
 31
0.0
  0
POLYLINE
  5
1AC9
  8
0
 66
     1
 10
0.0
 20
0.0
 30
0.0
  0
VERTEX
  5
1D12
  8
0
 10
170.06778964971031
 20
60.071428571428378
 30
0.0
  0
VERTEX
  5
1D13
  8
0
 10
170.0563448781416
 20
59.75781296811617
 30
0.0
  0
VERTEX
  5
1D14
  8
0
 10
170.0440590979052
 20
59.411503079191561
 30
0.0
  0
VERTEX
  5
1D15
  8
0
 10
170.04078070885819
 20
59.317289889751841
 30
0.0
  0
VERTEX
  5
1D16
  8
0
 10
170.03761158445701
 20
59.225460298997433
 30
0.0
  0
VERTEX
  5
1D17
  8
0
 10
170.03606898746429
 20
59.180486834463331
 30
0.0
  0
VERTEX
  5
1D18
  8
0
 10
170.03455487673011
 20
59.136166104884069
 30
0.0
  0
VERTEX
  5
1D19
  8
0
 10
170.0316135845176
 20
59.049557827010801
 30
0.0
  0
VERTEX
  5
1D1A
  8
0
 10
170.028790550715
 20
58.965784211486238
 30
0.0
  0
VERTEX
  5
1D1B
  8
0
 10
170.02608817692109
 20
58.884983216481643
 30
0.0
  0
VERTEX
  5
1D1C
  8
0
 10
170.02350886445689
 20
58.807294550387738
 30
0.0
  0
VERTEX
  5
1D1D
  8
0
 10
170.0210551618506
 20
58.73286382877118
 30
0.0
  0
VERTEX
  5
1D1E
  8
0
 10
170.01987616072279
 20
58.696914509234858
 30
0.0
  0
VERTEX
  5
1D1F
  8
0
 10
170.0187294340995
 20
58.661832217536983
 30
0.0
  0
VERTEX
  5
1D20
  8
0
 10
170.01653385344801
 20
58.594335544916497
 30
0.0
  0
VERTEX
  5
1D21
  8
0
 10
170.01447038963639
 20
58.530503367733438
 30
0.0
  0
VERTEX
  5
1D22
  8
0
 10
170.01348875926379
 20
58.499999999999801
 30
0.0
  0
SEQEND
  5
1D23
  8
0
  0
POLYLINE
  5
1ACA
  8
0
 66
     1
 10
0.0
 20
0.0
 30
0.0
  0
VERTEX
  5
1D24
  8
0
 10
172.03975362670761
 20
98.337396569351355
 30
0.0
  0
VERTEX
  5
1D25
  8
0
 10
171.43255372146271
 20
98.831968257068979
 30
0.0
  0
VERTEX
  5
1D26
  8
0
 10
170.52415743522269
 20
99.572433734319532
 30
0.0
  0
VERTEX
  5
1D27
  8
0
 10
170.0587047366183
 20
99.952102160522884
 30
0.0
  0
VERTEX
  5
1D28
  8
0
 10
170.0000000030382
 20
100.0
 30
0.0
  0
SEQEND
  5
1D29
  8
0
  0
LINE
  5
1ACB
  8
0
 10
172.03975362670741
 20
98.337396569351029
 30
0.0
 11
172.03975362670741
 21
84.884469426928646
 31
0.0
  0
POLYLINE
  5
1ACC
  8
0
 66
     1
 10
0.0
 20
0.0
 30
0.0
  0
VERTEX
  5
1D2A
  8
0
 10
172.03975362670741
 20
84.884469426928689
 30
0.0
  0
VERTEX
  5
1D2B
  8
0
 10
171.74563366699459
 20
85.181526007740956
 30
0.0
  0
VERTEX
  5
1D2C
  8
0
 10
171.21977274087689
 20
85.660530307995117
 30
0.0
  0
VERTEX
  5
1D2D
  8
0
 10
170.78230557611701
 20
85.978626320573824
 30
0.0
  0
VERTEX
  5
1D2E
  8
0
 10
170.59838291771419
 20
86.074999999999818
 30
0.0
  0
SEQEND
  5
1D2F
  8
0
  0
POLYLINE
  5
1ACD
  8
0
 66
     1
 10
0.0
 20
0.0
 30
0.0
  0
VERTEX
  5
1D30
  8
0
 10
187.90885846472759
 20
84.846896362549529
 30
0.0
  0
VERTEX
  5
1D31
  8
0
 10
187.89831300394951
 20
84.841645094623317
 30
0.0
  0
VERTEX
  5
1D32
  8
0
 10
187.87518914924891
 20
84.834121685592535
 30
0.0
  0
VERTEX
  5
1D33
  8
0
 10
187.84946998257681
 20
84.830445755965215
 30
0.0
  0
VERTEX
  5
1D34
  8
0
 10
187.83568893255429
 20
84.829995539313913
 30
0.0
  0
SEQEND
  5
1D35
  8
0
  0
POLYLINE
  5
1ACE
  8
0
 66
     1
 10
0.0
 20
0.0
 30
0.0
  0
VERTEX
  5
1D36
  8
0
 10
187.75831537677601
 20
98.260263153969277
 30
0.0
  0
VERTEX
  5
1D37
  8
0
 10
187.76681563087459
 20
98.262377544004607
 30
0.0
  0
VERTEX
  5
1D38
  8
0
 10
187.78333213354409
 20
98.266617524656681
 30
0.0
  0
VERTEX
  5
1D39
  8
0
 10
187.79919939466211
 20
98.270871187144522
 30
0.0
  0
VERTEX
  5
1D3A
  8
0
 10
187.80688819909969
 20
98.273002674796032
 30
0.0
  0
VERTEX
  5
1D3B
  8
0
 10
187.81441311685779
 20
98.275137011550669
 30
0.0
  0
VERTEX
  5
1D3C
  8
0
 10
187.82896945928911
 20
98.279413461160914
 30
0.0
  0
VERTEX
  5
1D3D
  8
0
 10
187.84286505564381
 20
98.283698985652734
 30
0.0
  0
VERTEX
  5
1D3E
  8
0
 10
187.85609702990229
 20
98.287992024308494
 30
0.0
  0
VERTEX
  5
1D3F
  8
0
 10
187.86866300989089
 20
98.292291009253816
 30
0.0
  0
VERTEX
  5
1D40
  8
0
 10
187.88056113865201
 20
98.296594368722992
 30
0.0
  0
VERTEX
  5
1D41
  8
0
 10
187.8862593217105
 20
98.298747197473503
 30
0.0
  0
VERTEX
  5
1D42
  8
0
 10
187.891790083643
 20
98.300900530354056
 30
0.0
  0
VERTEX
  5
1D43
  8
0
 10
187.90234904377351
 20
98.305207924514889
 30
0.0
  0
VERTEX
  5
1D44
  8
0
 10
187.91223775427571
 20
98.309514987665366
 30
0.0
  0
VERTEX
  5
1D45
  8
0
 10
187.92145652152769
 20
98.313820181321944
 30
0.0
  0
VERTEX
  5
1D46
  8
0
 10
187.93000625459379
 20
98.318122018000167
 30
0.0
  0
VERTEX
  5
1D47
  8
0
 10
187.93788820110521
 20
98.32241893192986
 30
0.0
  0
VERTEX
  5
1D48
  8
0
 10
187.9415792815058
 20
98.324565049522448
 30
0.0
  0
VERTEX
  5
1D49
  8
0
 10
187.94510411454331
 20
98.326709344184295
 30
0.0
  0
VERTEX
  5
1D4A
  8
0
 10
187.95165628535651
 20
98.330991674961354
 30
0.0
  0
VERTEX
  5
1D4B
  8
0
 10
187.95754754980689
 20
98.335264346895428
 30
0.0
  0
VERTEX
  5
1D4C
  8
0
 10
187.96024637936901
 20
98.337396569351029
 30
0.0
  0
SEQEND
  5
1D4D
  8
0
  0
LINE
  5
1ACF
  8
0
 10
187.96024637936901
 20
98.337396569351029
 30
0.0
 11
187.96024637936901
 21
84.884469426928689
 31
0.0
  0
POLYLINE
  5
1AD0
  8
0
 66
     1
 10
0.0
 20
0.0
 30
0.0
  0
VERTEX
  5
1D4E
  8
0
 10
187.96024637936901
 20
84.884469426928689
 30
0.0
  0
VERTEX
  5
1D4F
  8
0
 10
187.9538436325499
 20
84.878255601890416
 30
0.0
  0
VERTEX
  5
1D50
  8
0
 10
187.93845445784331
 20
84.865760989411186
 30
0.0
  0
VERTEX
  5
1D51
  8
0
 10
187.91959531360141
 20
84.853196952747481
 30
0.0
  0
VERTEX
  5
1D52
  8
0
 10
187.90885846472759
 20
84.846896362549387
 30
0.0
  0
SEQEND
  5
1D53
  8
0
  0
LINE
  5
1AD1
  8
0
 10
190.00000000303851
 20
58.499999999999829
 30
0.0
 11
170.0000000030382
 21
58.499999999999829
 31
0.0
  0
LINE
  5
1AD2
  8
1
 10
180.00000000303851
 20
104.9999999999999
 30
0.0
 11
180.00000000303839
 21
22.99999999999984
 31
0.0
  0
LINE
  5
1AD3
  8
2
 10
96.000000003038494
 20
99.500000000137305
 30
0.0
 11
96.000000003038494
 21
99.956095210158566
 31
0.0
  0
LINE
  5
1AD4
  8
2
 10
84.000000003038508
 20
99.956095210344102
 30
0.0
 11
84.000000003038508
 21
99.500000000137305
 31
0.0
  0
LINE
  5
1AD5
  8
0
 10
186.00000000303851
 20
52.999999999999822
 30
0.0
 11
186.00000000303851
 21
53.199999999999818
 31
0.0
  0
LINE
  5
1AD6
  8
0
 10
174.00000000303839
 20
53.199999999999818
 30
0.0
 11
174.00000000303839
 21
52.999999999999822
 31
0.0
  0
LINE
  5
1AD7
  8
2
 10
96.000000003038494
 20
99.500000000137305
 30
0.0
 11
84.000000003038508
 21
99.500000000137305
 31
0.0
  0
LINE
  5
1AD8
  8
0
 10
174.00000000303839
 20
52.999999999999822
 30
0.0
 11
186.00000000303851
 21
52.999999999999822
 31
0.0
  0
LINE
  5
1AD9
  8
0
 10
100.00000000303849
 20
60.071428571565868
 30
0.0
 11
100.00000000303849
 21
76.075000000137294
 31
0.0
  0
LINE
  5
1ADA
  8
0
 10
80.000000003038508
 20
76.075000000136185
 30
0.0
 11
80.000000003038508
 21
60.071428571565868
 31
0.0
  0
LINE
  5
1ADB
  8
0
 10
50.000000003038508
 20
87.330299612975026
 30
0.0
 11
50.000000003038508
 21
95.770871305607017
 31
0.0
  0
LINE
  5
1ADC
  8
0
 10
130.00000000303851
 20
87.330299612975153
 30
0.0
 11
130.00000000303839
 21
95.770871305606747
 31
0.0
  0
POLYLINE
  5
1ADD
  8
0
 66
     1
 10
0.0
 20
0.0
 30
0.0
  0
VERTEX
  5
1D54
  8
0
 10
70.000000003052037
 20
86.075000000137976
 30
0.0
  0
VERTEX
  5
1D55
  8
0
 10
67.135123443467251
 20
85.978626320712024
 30
0.0
  0
VERTEX
  5
1D56
  8
0
 10
61.458426215590968
 20
85.660530308133346
 30
0.0
  0
VERTEX
  5
1D57
  8
0
 10
55.869397021614297
 20
85.181526007878844
 30
0.0
  0
VERTEX
  5
1D58
  8
0
 10
53.11408720473014
 20
84.884469427066307
 30
0.0
  0
SEQEND
  5
1D59
  8
0
  0
POLYLINE
  5
1ADE
  8
0
 66
     1
 10
0.0
 20
0.0
 30
0.0
  0
VERTEX
  5
1D5A
  8
0
 10
126.8859128013469
 20
84.884469427066165
 30
0.0
  0
VERTEX
  5
1D5B
  8
0
 10
124.130602984465
 20
85.181526007878432
 30
0.0
  0
VERTEX
  5
1D5C
  8
0
 10
118.5415737904931
 20
85.660530308132593
 30
0.0
  0
VERTEX
  5
1D5D
  8
0
 10
112.8648765626214
 20
85.9786263207113
 30
0.0
  0
VERTEX
  5
1D5E
  8
0
 10
110.0000000030392
 20
86.075000000137294
 30
0.0
  0
SEQEND
  5
1D5F
  8
0
  0
LINE
  5
1ADF
  8
0
 10
173.32500000303841
 20
53.199999999999818
 30
0.0
 11
186.67500000303841
 21
53.199999999999818
 31
0.0
  0
LINE
  5
1AE0
  8
0
 10
172.54959791761931
 20
58.499999999999829
 30
0.0
 11
172.54959791761931
 21
54.024999999999828
 31
0.0
  0
LINE
  5
1AE1
  8
0
 10
187.45040208845751
 20
54.024999999999821
 30
0.0
 11
187.45040208845751
 21
58.499999999999829
 31
0.0
  0
LINE
  5
1AE3
  8
0
 10
172.54959791761931
 20
54.024999999999828
 30
0.0
 11
173.32500000303841
 21
53.199999999999818
 31
0.0
  0
LINE
  5
1AE4
  8
0
 10
187.45040208845751
 20
54.024999999999821
 30
0.0
 11
186.67500000303841
 21
53.199999999999818
 31
0.0
  0
LINE
  5
1AE5
  8
0
 10
97.450402088457494
 20
54.025000000137297
 30
0.0
 11
96.675000003038463
 21
53.200000000137287
 31
0.0
  0
LINE
  5
1AE6
  8
0
 10
82.549597917619394
 20
54.025000000137311
 30
0.0
 11
83.325000003038426
 21
53.200000000137287
 31
0.0
  0
LINE
  5
1AE7
  8
0
 10
97.450402088457494
 20
54.025000000137297
 30
0.0
 11
97.450402088457494
 21
58.500000000137298
 31
0.0
  0
LINE
  5
1AE8
  8
0
 10
82.549597917619394
 20
58.500000000137298
 30
0.0
 11
82.549597917619394
 21
54.025000000137311
 31
0.0
  0
LINE
  5
1AE9
  8
0
 10
83.325000003038426
 20
53.200000000137287
 30
0.0
 11
96.675000003038463
 21
53.200000000137287
 31
0.0
  0
LINE
  5
1AEA
  8
0
 10
84.000000003038508
 20
53.000000000137312
 30
0.0
 11
96.000000003038494
 21
53.000000000137312
 31
0.0
  0
LINE
  5
1AEB
  8
0
 10
84.000000003038508
 20
53.200000000137287
 30
0.0
 11
84.000000003038508
 21
53.000000000137312
 31
0.0
  0
LINE
  5
1AEC
  8
0
 10
96.000000003038494
 20
53.000000000137312
 30
0.0
 11
96.000000003038494
 21
53.200000000137287
 31
0.0
  0
LINE
  5
1AED
  8
0
 10
81.571428574467049
 20
58.500000000137298
 30
0.0
 11
98.428571431609953
 21
58.500000000137298
 31
0.0
  0
ARC
  5
1AEE
  8
0
 10
89.999999999999432
 20
-174.53333333332699
 30
0.0
 40
334.53333333332711
 50
83.669650268392374
 51
96.330349731607626
  0
ARC
  5
1AEF
  8
0
 10
89.999999999999432
 20
474.53333333332688
 30
0.0
 40
334.53333333332711
 50
263.66965026839239
 51
276.33034973160761
  0
ARC
  5
1AF0
  8
0
 10
126.4999999999991
 20
154.4815869632628
 30
0.0
 40
3.5000000000035252
 50
359.99999990156829
 51
83.669650268392374
  0
ARC
  5
1AF1
  8
0
 10
126.4999999999991
 20
145.5184130367372
 30
0.0
 40
3.5000000000035252
 50
276.33034973160761
 51
0.0000000984329258
  0
ARC
  5
1AF2
  8
0
 10
53.500000000001023
 20
154.4815869632628
 30
0.0
 40
3.5000000000035252
 50
96.330349731607626
 51
180.00000009843171
  0
ARC
  5
1AF3
  8
0
 10
53.500000000001023
 20
145.5184130367372
 30
0.0
 40
3.5000000000035252
 50
179.99999990156701
 51
263.66965026839239
  0
CIRCLE
  5
1AF4
  8
0
 10
90.0
 20
150.0
 30
0.0
 40
6.0
  0
ARC
  5
1AF5
  8
0
 10
52.505577892964993
 20
95.765785136493605
 30
0.0
 40
2.5055830522264588
 50
95.396394875750275
 51
179.8836932489761
  0
ARC
  5
1AF6
  8
0
 10
90.0
 20
-309.99999996638229
 30
0.0
 40
409.99999996638229
 50
84.719911875297186
 51
95.280088124702814
  0
ARC
  5
1AF7
  8
0
 10
127.49442211311199
 20
95.765785136493605
 30
0.0
 40
2.5055830522264588
 50
0.1163067510238482
 51
84.603605124243188
  0
LINE
  5
1AF8
  8
0
 10
80.000000003038508
 20
60.071428571565868
 30
0.0
 11
81.571428574467049
 21
58.500000000137298
 31
0.0
  0
LINE
  5
1AF9
  8
0
 10
100.00000000303849
 20
60.071428571565868
 30
0.0
 11
98.428571431609953
 21
58.500000000137298
 31
0.0
  0
ARC
  5
1AFA
  8
0
 10
110.0076290022036
 20
76.071653889892275
 30
0.0
 40
10.00762955856105
 50
132.6542513541294
 51
179.98084281624591
  0
ARC
  5
1AFB
  8
0
 10
110.0119076633474
 20
76.044486046320856
 30
0.0
 40
10.030521021865241
 50
90.068018285226813
 51
132.56707588514601
  0
ARC
  5
1AFC
  8
0
 10
69.992371003873359
 20
76.071653889892275
 30
0.0
 40
10.00762955856105
 50
0.0191571837540352
 51
47.345748645870671
  0
ARC
  5
1AFD
  8
0
 10
69.988092342729601
 20
76.044486046320856
 30
0.0
 40
10.030521021865241
 50
47.432924114853989
 51
89.931981714773144
  0
LINE
  5
1AFE
  8
0
 10
80.000000003038508
 20
60.071428571565868
 30
0.0
 11
100.00000000303849
 21
60.071428571565868
 31
0.0
  0
LINE
  5
1AFF
  8
0
 10
189.9322103563664
 20
60.071428571428399
 30
0.0
 11
170.06778964971031
 21
60.071428571428399
 31
0.0
  0
ARC
  5
1B00
  8
0
 10
52.500135305704703
 20
87.330147576071695
 30
0.0
 40
2.5001353072889341
 50
179.99651575941959
 51
276.66252524161013
  0
ARC
  5
1B01
  8
0
 10
127.4998647003723
 20
87.330147576071838
 30
0.0
 40
2.5001353072889341
 50
263.33747475838987
 51
0.0034842405803571
  0
LINE
  5
1B02
  8
0
 10
126.8859128013469
 20
84.884469427066165
 30
0.0
 11
127.209796199217
 21
84.846896316253336
 31
0.0
  0
LINE
  5
1B03
  8
0
 10
53.11408720473014
 20
84.884469427066165
 30
0.0
 11
52.79020380685995
 21
84.846896316253336
 31
0.0
  0
LINE
  5
1B04
  8
3
 10
96.809777078376442
 20
53.343397972937048
 30
0.0
 11
96.809777078376442
 21
58.500000000137298
 31
0.0
  0
LINE
  5
1B05
  8
3
 10
95.775021915275829
 20
53.200000000137287
 30
0.0
 11
95.775021915275829
 21
58.500000000137298
 31
0.0
  0
LINE
  5
1B06
  8
3
 10
94.985102810403646
 20
53.200000000137287
 30
0.0
 11
94.985102810403646
 21
58.500000000137298
 31
0.0
  0
LINE
  5
1B07
  8
3
 10
94.043713879313373
 20
53.200000000137287
 30
0.0
 11
94.043713879313373
 21
58.500000000137298
 31
0.0
  0
LINE
  5
1B08
  8
3
 10
92.979458748310435
 20
53.200000000137287
 30
0.0
 11
92.979458748310435
 21
58.500000000137298
 31
0.0
  0
LINE
  5
1B09
  8
3
 10
91.824674271011304
 20
53.200000000137287
 30
0.0
 11
91.824674271011304
 21
58.500000000137298
 31
0.0
  0
LINE
  5
1B0A
  8
3
 10
90.614447989409427
 20
53.200000000137287
 30
0.0
 11
90.614447989409427
 21
58.500000000137298
 31
0.0
  0
LINE
  5
1B0B
  8
3
 10
89.385552016667475
 20
53.200000000137287
 30
0.0
 11
89.385552016667475
 21
58.500000000137298
 31
0.0
  0
LINE
  5
1B0C
  8
3
 10
88.175325735065712
 20
53.200000000137287
 30
0.0
 11
88.175325735065712
 21
58.500000000137298
 31
0.0
  0
LINE
  5
1B0D
  8
3
 10
87.020541257766581
 20
53.200000000137287
 30
0.0
 11
87.020541257766581
 21
58.500000000137298
 31
0.0
  0
LINE
  5
1B0E
  8
3
 10
85.956286126763644
 20
53.200000000137287
 30
0.0
 11
85.956286126763644
 21
58.500000000137298
 31
0.0
  0
LINE
  5
1B0F
  8
3
 10
85.014897195673356
 20
53.200000000137287
 30
0.0
 11
85.014897195673356
 21
58.500000000137298
 31
0.0
  0
LINE
  5
1B10
  8
3
 10
84.224978090801073
 20
53.200000000137287
 30
0.0
 11
84.224978090801073
 21
58.500000000137298
 31
0.0
  0
LINE
  5
1B11
  8
3
 10
83.61053010443004
 20
53.200000000137287
 30
0.0
 11
83.61053010443004
 21
58.500000000137298
 31
0.0
  0
LINE
  5
1B12
  8
3
 10
83.190222927700574
 20
53.343397972937048
 30
0.0
 11
83.190222927700574
 21
58.500000000137298
 31
0.0
  0
LINE
  5
1B13
  8
3
 10
96.389469901646862
 20
53.200000000137287
 30
0.0
 11
96.389469901646862
 21
58.500000000137298
 31
0.0
  0
LINE
  5
1B14
  8
3
 10
186.80977707837641
 20
53.343397972799579
 30
0.0
 11
186.80977707837641
 21
58.499999999999829
 31
0.0
  0
LINE
  5
1B15
  8
3
 10
185.7750219152758
 20
53.199999999999818
 30
0.0
 11
185.7750219152758
 21
58.499999999999829
 31
0.0
  0
LINE
  5
1B16
  8
3
 10
184.98510281040359
 20
53.199999999999818
 30
0.0
 11
184.98510281040359
 21
58.499999999999829
 31
0.0
  0
LINE
  5
1B17
  8
3
 10
184.0437138793132
 20
53.199999999999818
 30
0.0
 11
184.0437138793132
 21
58.499999999999829
 31
0.0
  0
LINE
  5
1B18
  8
3
 10
182.97945874831029
 20
53.199999999999818
 30
0.0
 11
182.97945874831029
 21
58.499999999999829
 31
0.0
  0
LINE
  5
1B19
  8
3
 10
181.82467427101111
 20
53.199999999999818
 30
0.0
 11
181.82467427101111
 21
58.499999999999829
 31
0.0
  0
LINE
  5
1B1A
  8
3
 10
180.6144479894094
 20
53.199999999999818
 30
0.0
 11
180.6144479894094
 21
58.499999999999829
 31
0.0
  0
LINE
  5
1B1B
  8
3
 10
179.38555201666739
 20
53.199999999999818
 30
0.0
 11
179.38555201666739
 21
58.499999999999829
 31
0.0
  0
LINE
  5
1B1C
  8
3
 10
178.17532573506571
 20
53.199999999999818
 30
0.0
 11
178.17532573506571
 21
58.499999999999829
 31
0.0
  0
LINE
  5
1B1D
  8
3
 10
177.02054125776641
 20
53.199999999999818
 30
0.0
 11
177.02054125776641
 21
58.499999999999829
 31
0.0
  0
LINE
  5
1B1E
  8
3
 10
175.9562861267635
 20
53.199999999999818
 30
0.0
 11
175.9562861267635
 21
58.499999999999829
 31
0.0
  0
LINE
  5
1B1F
  8
3
 10
175.0148971956732
 20
53.199999999999818
 30
0.0
 11
175.0148971956732
 21
58.499999999999829
 31
0.0
  0
LINE
  5
1B20
  8
3
 10
174.22497809080099
 20
53.199999999999818
 30
0.0
 11
174.22497809080099
 21
58.499999999999829
 31
0.0
  0
LINE
  5
1B21
  8
3
 10
173.61053010443001
 20
53.199999999999818
 30
0.0
 11
173.61053010443001
 21
58.499999999999829
 31
0.0
  0
LINE
  5
1B22
  8
3
 10
173.19022292770049
 20
53.343397972799579
 30
0.0
 11
173.19022292770049
 21
58.499999999999829
 31
0.0
  0
LINE
  5
1B23
  8
3
 10
186.38946990164681
 20
53.199999999999818
 30
0.0
 11
186.38946990164681
 21
58.499999999999829
 31
0.0
  0
TEXT
  5
1BD4
  8
0
 62
     3
 10
0.0
 20
0.0
 30
0.0
 40
10.0
  1
STH80N-M8X25
  7
STANDARD1
  0
ENDSEC
  0
EOF
