  0
SECTION
  2
HEADER
  9
$ACADVER
  1
AC1009
  9
$INSBASE
 10
0.0
 20
0.0
 30
0.0
  9
$EXTMIN
 10
-0.0005
 20
-2.960436562073669
 30
0.0
  9
$EXTMAX
 10
509.30359627720532
 20
422.22169639554539
 30
0.0
  9
$LIMMIN
 10
0.0
 20
0.0
  9
$LIMMAX
 10
750.0
 20
540.0
  9
$ORTHOMODE
 70
     1
  9
$REGENMODE
 70
     1
  9
$FILLMODE
 70
     1
  9
$QTEXTMODE
 70
     0
  9
$MIRRTEXT
 70
     0
  9
$DRAGMODE
 70
     2
  9
$LTSCALE
 40
20.0
  9
$OSMODE
 70
    55
  9
$ATTMODE
 70
     1
  9
$TEXTSIZE
 40
4.0016390128725003
  9
$TRACEWID
 40
2.0
  9
$TEXTSTYLE
  7
STANDARD
  9
$CLAYER
  8
0
  9
$CELTYPE
  6
BYLAYER
  9
$CECOLOR
 62
   256
  9
$DIMSCALE
 40
2.0
  9
$DIMASZ
 40
3.0
  9
$DIMEXO
 40
2.0
  9
$DIMDLI
 40
0.3799999999999999
  9
$DIMRND
 40
0.0
  9
$DIMDLE
 40
0.0
  9
$DIMEXE
 40
2.0
  9
$DIMTP
 40
0.0
  9
$DIMTM
 40
0.0
  9
$DIMTXT
 40
3.0
  9
$DIMCEN
 40
0.09
  9
$DIMTSZ
 40
0.0
  9
$DIMTOL
 70
     0
  9
$DIMLIM
 70
     0
  9
$DIMTIH
 70
     0
  9
$DIMTOH
 70
     0
  9
$DIMSE1
 70
     0
  9
$DIMSE2
 70
     0
  9
$DIMTAD
 70
     1
  9
$DIMZIN
 70
     0
  9
$DIMBLK
  1

  9
$DIMASO
 70
     0
  9
$DIMSHO
 70
     0
  9
$DIMPOST
  1

  9
$DIMAPOST
  1

  9
$DIMALT
 70
     0
  9
$DIMALTD
 70
     2
  9
$DIMALTF
 40
25.399999999999999
  9
$DIMLFAC
 40
1.0
  9
$DIMTOFL
 70
     0
  9
$DIMTVP
 40
0.0
  9
$DIMTIX
 70
     0
  9
$DIMSOXD
 70
     0
  9
$DIMSAH
 70
     0
  9
$DIMBLK1
  1

  9
$DIMBLK2
  1

  9
$DIMSTYLE
  2
STANDARD
  9
$DIMCLRD
 70
     0
  9
$DIMCLRE
 70
     0
  9
$DIMCLRT
 70
     0
  9
$DIMTFAC
 40
1.0
  9
$DIMGAP
 40
0.09
  9
$LUNITS
 70
     2
  9
$LUPREC
 70
     4
  9
$SKETCHINC
 40
0.1
  9
$FILLETRAD
 40
0.0
  9
$AUNITS
 70
     0
  9
$AUPREC
 70
     4
  9
$MENU
  1
E:\r13\win\SUPPORT\ACAD
  9
$ELEVATION
 40
0.0
  9
$PELEVATION
 40
0.0
  9
$THICKNESS
 40
0.0
  9
$LIMCHECK
 70
     0
  9
$BLIPMODE
 70
     0
  9
$CHAMFERA
 40
0.0
  9
$CHAMFERB
 40
0.0
  9
$SKPOLY
 70
     0
  9
$TDCREATE
 40
2449840.5974884261
  9
$TDUPDATE
 40
2456598.5646975581
  9
$TDINDWG
 40
0.0719080787
  9
$TDUSRTIMER
 40
0.0719080787
  9
$USRTIMER
 70
     1
  9
$ANGBASE
 50
0.0
  9
$ANGDIR
 70
     0
  9
$PDMODE
 70
     0
  9
$PDSIZE
 40
0.0
  9
$PLINEWID
 40
0.0
  9
$COORDS
 70
     1
  9
$SPLFRAME
 70
     0
  9
$SPLINETYPE
 70
     6
  9
$SPLINESEGS
 70
     8
  9
$ATTDIA
 70
     0
  9
$ATTREQ
 70
     1
  9
$HANDLING
 70
     1
  9
$HANDSEED
  5
AB4C
  9
$SURFTAB1
 70
     6
  9
$SURFTAB2
 70
     6
  9
$SURFTYPE
 70
     6
  9
$SURFU
 70
     6
  9
$SURFV
 70
     6
  9
$UCSNAME
  2

  9
$UCSORG
 10
0.0
 20
0.0
 30
0.0
  9
$UCSXDIR
 10
1.0
 20
0.0
 30
0.0
  9
$UCSYDIR
 10
0.0
 20
1.0
 30
0.0
  9
$PUCSNAME
  2

  9
$PUCSORG
 10
0.0
 20
0.0
 30
0.0
  9
$PUCSXDIR
 10
1.0
 20
0.0
 30
0.0
  9
$PUCSYDIR
 10
0.0
 20
1.0
 30
0.0
  9
$USERI1
 70
     0
  9
$USERI2
 70
     1
  9
$USERI3
 70
     1
  9
$USERI4
 70
     0
  9
$USERI5
 70
     0
  9
$USERR1
 40
0.0
  9
$USERR2
 40
0.0
  9
$USERR3
 40
0.0
  9
$USERR4
 40
0.0
  9
$USERR5
 40
0.0
  9
$WORLDVIEW
 70
     1
  9
$SHADEDGE
 70
     3
  9
$SHADEDIF
 70
    70
  9
$TILEMODE
 70
     1
  9
$MAXACTVP
 70
    16
  9
$PLIMCHECK
 70
     0
  9
$PEXTMIN
 10
1.0000000000000000E+020
 20
1.0000000000000000E+020
 30
1.0000000000000000E+020
  9
$PEXTMAX
 10
-1.0000000000000000E+020
 20
-1.0000000000000000E+020
 30
-1.0000000000000000E+020
  9
$PLIMMIN
 10
0.0
 20
0.0
  9
$PLIMMAX
 10
12.0
 20
9.0
  9
$UNITMODE
 70
     0
  9
$VISRETAIN
 70
     0
  9
$PLINEGEN
 70
     0
  9
$PSLTSCALE
 70
     0
  0
ENDSEC
  0
SECTION
  2
TABLES
  0
TABLE
  2
VPORT
 70
     1
  0
VPORT
  2
*ACTIVE
 70
     0
 10
0.0
 20
0.0
 11
1.0
 21
1.0
 12
374.98830677367579
 22
394.8943863469259
 13
0.0
 23
0.0
 14
20.0
 24
20.0
 15
20.0
 25
20.0
 16
0.0
 26
0.0
 36
1.0
 17
0.0
 27
0.0
 37
0.0
 40
802.76158787654094
 41
1.7807262569832401
 42
50.0
 43
0.0
 44
0.0
 50
0.0
 51
0.0
 71
     0
 72
  1000
 73
     1
 74
     0
 75
     0
 76
     0
 77
     0
 78
     2
  0
ENDTAB
  0
TABLE
  2
LTYPE
 70
     3
  0
LTYPE
  2
CONTINUOUS
 70
     0
  3
Solid Line
 72
    65
 73
     0
 40
0.0
  0
LTYPE
  2
CENTER
 70
     0
  3
____ _ ____ _ ____ _ ____ _ ____ _ ____ _ ____
 72
    65
 73
     4
 40
2.0
 49
1.25
 49
-0.25
 49
0.25
 49
-0.25
  0
LTYPE
  2
PHANTOM2
 70
     0
  3
___ _ _ ___ _ _ ___ _ _ ___ _ _
 72
    65
 73
     6
 40
1.25
 49
0.625
 49
-0.125
 49
0.125
 49
-0.125
 49
0.125
 49
-0.125
  0
ENDTAB
  0
TABLE
  2
LAYER
 70
     4
  0
LAYER
  2
0
 70
     0
 62
     7
  6
CONTINUOUS
  0
LAYER
  2
1
 70
     0
 62
     1
  6
CENTER
  0
LAYER
  2
3
 70
     0
 62
     3
  6
CONTINUOUS
  0
LAYER
  2
ITTEN
 70
     0
 62
     1
  6
CENTER
  0
ENDTAB
  0
TABLE
  2
STYLE
 70
     2
  0
STYLE
  2
STANDARD
 70
     0
 40
0.0
 41
1.0
 50
0.0
 71
     0
 42
4.0016390128725003
  3
TXT
  4
BIGFONT
  0
STYLE
  2
STANDARD1
 70
     0
 40
0.0
 41
1.0
 50
0.0
 71
     0
 42
3.0
  3
txt
  4

  0
ENDTAB
  0
TABLE
  2
VIEW
 70
     0
  0
ENDTAB
  0
TABLE
  2
UCS
 70
     0
  0
ENDTAB
  0
TABLE
  2
APPID
 70
     4
  0
APPID
  2
ACAD
 70
     0
  0
APPID
  2
DCO15
 70
     0
  0
APPID
  2
ACAD_MLEADERVER
 70
     0
  0
APPID
  2
ACAD_NAV_VCDISPLAY
 70
     0
  0
ENDTAB
  0
TABLE
  2
DIMSTYLE
 70
     1
  0
DIMSTYLE
  2
STANDARD
 70
     0
  3

  4

  5

  6

  7

 40
1.0
 41
0.18
 42
0.0625
 43
0.38
 44
0.18
 45
0.0
 46
0.0
 47
0.0
 48
0.0
140
0.18
141
0.09
142
0.0
143
25.399999999999999
144
1.0
145
0.0
146
1.0
147
0.09
 71
     0
 72
     0
 73
     1
 74
     1
 75
     0
 76
     0
 77
     0
 78
     0
170
     0
171
     2
172
     0
173
     0
174
     0
175
     0
176
     0
177
     0
178
     0
  0
ENDTAB
  0
ENDSEC
  0
SECTION
  2
BLOCKS
  0
BLOCK
  8
0
  2
$MODEL_SPACE
 70
     0
 10
0.0
 20
0.0
 30
0.0
  3
$MODEL_SPACE
  1

  0
ENDBLK
  5
1ED
  8
0
  0
BLOCK
 67
     1
  8
0
  2
$PAPER_SPACE
 70
     0
 10
0.0
 20
0.0
 30
0.0
  3
$PAPER_SPACE
  1

  0
ENDBLK
  5
1EB
 67
     1
  8
0
  0
BLOCK
  8
0
  2
BATU
 70
     0
 10
0.0
 20
0.0
 30
0.0
  3
BATU
  1

  0
LINE
  5
A98D
  8
ITTEN
 10
0.5
 20
0.0
 30
0.0
 11
-0.5
 21
0.0
 31
0.0
  0
LINE
  5
A98E
  8
ITTEN
 10
0.0
 20
0.5
 30
0.0
 11
0.0
 21
-0.5
 31
0.0
  0
ENDBLK
  5
A990
  8
0
  0
ENDSEC
  0
SECTION
  2
ENTITIES
  0
LINE
  5
8E4C
  8
1
 10
250.30359627720529
 20
63.221696395545379
 30
0.0
 11
250.30359627720529
 21
122.22169639554539
 31
0.0
  0
ARC
  5
8E4D
  8
0
 10
325.80359627720532
 20
107.72169639554539
 30
0.0
 40
4.5
 50
270.0
 51
17.713727034627791
  0
ARC
  5
8E4E
  8
0
 10
174.80359627720529
 20
107.72169639554539
 30
0.0
 40
4.5
 50
162.28627296537331
 51
270.0
  0
LINE
  5
8E4F
  8
0
 10
330.09024503606219
 20
109.09087221266709
 30
0.0
 11
329.53468948050659
 21
110.8302189809328
 31
0.0
  0
LINE
  5
8E50
  8
0
 10
171.07250307390419
 20
110.8302189809328
 30
0.0
 11
170.51694751834839
 21
109.09087221266709
 31
0.0
  0
ARC
  5
8E51
  8
0
 10
327.6295122543479
 20
110.22169639554539
 30
0.0
 40
2.000000000000028
 50
17.713727034626238
 51
90.0
  0
ARC
  5
8E52
  8
0
 10
172.9776803000627
 20
110.22169639554539
 30
0.0
 40
2.000000000000028
 50
90.0
 51
162.28627296537371
  0
POLYLINE
  5
8E60
  8
0
 66
     1
 10
0.0
 20
0.0
 30
0.0
 70
   128
  0
VERTEX
  5
8E61
  8
0
 10
238.01628408995089
 20
100.99972989049471
 30
0.0
  0
VERTEX
  5
8E62
  8
0
 10
237.73756532040059
 20
99.895131025581748
 30
0.0
  0
VERTEX
  5
8E63
  8
0
 10
237.23825441714939
 20
98.391683954863936
 30
0.0
  0
VERTEX
  5
8E64
  8
0
 10
236.5191746693533
 20
96.729876656203658
 30
0.0
  0
VERTEX
  5
8E65
  8
0
 10
235.56416669902021
 20
95.028991062312514
 30
0.0
  0
VERTEX
  5
8E66
  8
0
 10
234.91251004901349
 20
94.103064570694357
 30
0.0
  0
VERTEX
  5
8E67
  8
0
 10
234.31159744080719
 20
93.425808657079145
 30
0.0
  0
VERTEX
  5
8E68
  8
0
 10
234.05740970787221
 20
93.211660344272047
 30
0.0
  0
SEQEND
  5
8E69
  8
0
  0
ARC
  5
8E6A
  8
0
 10
271.30359627720532
 20
95.221696395545379
 30
0.0
 40
1.0
 50
0.0
 51
90.0
  0
ARC
  5
8E6B
  8
0
 10
229.30359627720529
 20
95.221696395545379
 30
0.0
 40
1.0
 50
90.0
 51
180.0000000000004
  0
ARC
  5
8E6C
  8
0
 10
269.30359627720532
 20
73.221696395545393
 30
0.0
 40
1.0
 50
270.0
 51
0.0
  0
ARC
  5
8E6D
  8
0
 10
231.30359627720529
 20
73.221696395545393
 30
0.0
 40
1.0
 50
180.0000000000004
 51
270.0
  0
LINE
  5
8E6E
  8
0
 10
270.30359624282698
 20
73.221434180842223
 30
0.0
 11
270.30359583017048
 21
85.221696827679068
 31
0.0
  0
LINE
  5
8E6F
  8
0
 10
230.30359672424021
 20
85.221696827679068
 30
0.0
 11
230.30359631158359
 21
73.221434180853166
 31
0.0
  0
LINE
  5
8E70
  8
0
 10
228.30359627720529
 20
95.221696395545379
 30
0.0
 11
228.30359627720529
 21
86.721696395545393
 31
0.0
  0
LINE
  5
8E71
  8
0
 10
272.30359627720532
 20
86.721696395543404
 30
0.0
 11
272.30359627720532
 21
95.221696395545379
 31
0.0
  0
ARC
  5
8E72
  8
0
 10
229.80359627720529
 20
86.721696395545393
 30
0.0
 40
1.5
 50
180.0000000000004
 51
270.0
  0
ARC
  5
8E73
  8
0
 10
270.80359627720532
 20
86.721696395545393
 30
0.0
 40
1.5
 50
270.0
 51
0.0
  0
LINE
  5
8E74
  8
0
 10
325.80359627720532
 20
103.22169639554539
 30
0.0
 11
174.80359627720529
 21
103.22169639554539
 31
0.0
  0
LINE
  5
8E75
  8
0
 10
330.09024503606219
 20
109.09087221266709
 30
0.0
 11
170.51694751834839
 21
109.09087221266709
 31
0.0
  0
LINE
  5
8E76
  8
0
 10
329.53468948050659
 20
110.8302189809328
 30
0.0
 11
171.07250307390419
 21
110.8302189809328
 31
0.0
  0
LINE
  5
8E77
  8
0
 10
327.6295122543479
 20
112.22169639554539
 30
0.0
 11
172.9776803000627
 21
112.22169639554539
 31
0.0
  0
LINE
  5
8E83
  8
0
 10
233.68516178174599
 20
86.869831883301217
 30
0.0
 11
266.92203077266458
 21
86.869831883301217
 31
0.0
  0
POLYLINE
  5
8E84
  8
0
 66
     1
 10
0.0
 20
0.0
 30
0.0
 70
   128
  0
VERTEX
  5
8E85
  8
0
 10
239.4592737863214
 20
103.22169639554539
 30
0.0
  0
VERTEX
  5
8E86
  8
0
 10
239.91711346474111
 20
102.1267699041656
 30
0.0
  0
VERTEX
  5
8E87
  8
0
 10
240.1132974964064
 20
100.9243188389829
 30
0.0
  0
VERTEX
  5
8E88
  8
0
 10
240.05133288022691
 20
99.103266555934354
 30
0.0
  0
VERTEX
  5
8E89
  8
0
 10
239.65572753962689
 20
97.023487273722097
 30
0.0
  0
VERTEX
  5
8E8A
  8
0
 10
238.92257923301869
 20
94.682118106751844
 30
0.0
  0
VERTEX
  5
8E8B
  8
0
 10
237.87148764398509
 20
92.242146093516737
 30
0.0
  0
VERTEX
  5
8E8C
  8
0
 10
236.0740145858806
 20
89.237410757809073
 30
0.0
  0
VERTEX
  5
8E8D
  8
0
 10
234.95216855820831
 20
87.911559451489836
 30
0.0
  0
VERTEX
  5
8E8E
  8
0
 10
233.68516193744361
 20
86.869832310944005
 30
0.0
  0
SEQEND
  5
8E8F
  8
0
  0
POLYLINE
  5
8E9B
  8
0
 66
     1
 10
0.0
 20
0.0
 30
0.0
 70
   128
  0
VERTEX
  5
8E9C
  8
0
 10
266.92203061696711
 20
86.869832310944005
 30
0.0
  0
VERTEX
  5
8E9D
  8
0
 10
267.91002975818333
 20
86.884405646591574
 30
0.0
  0
VERTEX
  5
8E9E
  8
0
 10
268.82400924381432
 20
87.090680558352858
 30
0.0
  0
VERTEX
  5
8E9F
  8
0
 10
269.31312495884117
 20
87.294435311227247
 30
0.0
  0
VERTEX
  5
8EA0
  8
0
 10
269.77084951516798
 20
87.556529972820684
 30
0.0
  0
VERTEX
  5
8EA1
  8
0
 10
269.78242771741571
 20
87.564155642061635
 30
0.0
  0
SEQEND
  5
8EA2
  8
0
  0
POLYLINE
  5
8EA3
  8
0
 66
     1
 10
0.0
 20
0.0
 30
0.0
 70
   128
  0
VERTEX
  5
8EA4
  8
0
 10
230.824764836995
 20
87.564155642061635
 30
0.0
  0
VERTEX
  5
8EA5
  8
0
 10
230.83634303924259
 20
87.556529972820684
 30
0.0
  0
VERTEX
  5
8EA6
  8
0
 10
231.12220132764989
 20
87.384149614839956
 30
0.0
  0
VERTEX
  5
8EA7
  8
0
 10
231.4220201414507
 20
87.234003652005583
 30
0.0
  0
VERTEX
  5
8EA8
  8
0
 10
232.47243838426289
 20
86.916312757997915
 30
0.0
  0
VERTEX
  5
8EA9
  8
0
 10
233.68516193744361
 20
86.869832310944005
 30
0.0
  0
SEQEND
  5
8EAA
  8
0
  0
POLYLINE
  5
8EAB
  8
0
 66
     1
 10
0.0
 20
0.0
 30
0.0
 70
   128
  0
VERTEX
  5
8EAC
  8
0
 10
230.824764836995
 20
87.564155642061635
 30
0.0
  0
VERTEX
  5
8EAD
  8
0
 10
232.24942015525519
 20
87.918387908606917
 30
0.0
  0
VERTEX
  5
8EAE
  8
0
 10
233.49204102572619
 20
88.848864842324645
 30
0.0
  0
VERTEX
  5
8EAF
  8
0
 10
234.96074138250771
 20
90.742709297805234
 30
0.0
  0
VERTEX
  5
8EB0
  8
0
 10
236.13102642860829
 20
92.984628114967734
 30
0.0
  0
VERTEX
  5
8EB1
  8
0
 10
237.0330169987362
 20
95.365066263943106
 30
0.0
  0
VERTEX
  5
8EB2
  8
0
 10
237.696831133632
 20
97.674470577507407
 30
0.0
  0
VERTEX
  5
8EB3
  8
0
 10
238.20891791996181
 20
100.3880577125839
 30
0.0
  0
VERTEX
  5
8EB4
  8
0
 10
238.2884111449946
 20
103.22169639554539
 30
0.0
  0
SEQEND
  5
8EB5
  8
0
  0
LINE
  5
8EB6
  8
0
 10
238.25093453791561
 20
101.8857827374033
 30
0.0
 11
238.2561536696237
 21
102.0718349107794
 31
0.0
  0
POLYLINE
  5
8ECC
  8
0
 66
     1
 10
0.0
 20
0.0
 30
0.0
 70
   128
  0
VERTEX
  5
8ECD
  8
0
 10
238.26742504274279
 20
102.4736196742808
 30
0.0
  0
VERTEX
  5
8ECE
  8
0
 10
237.8495587226432
 20
100.0212544539264
 30
0.0
  0
VERTEX
  5
8ECF
  8
0
 10
236.96199433919611
 20
97.261885363727004
 30
0.0
  0
VERTEX
  5
8ED0
  8
0
 10
236.1007994231266
 20
95.301484871774107
 30
0.0
  0
VERTEX
  5
8ED1
  8
0
 10
235.01453550574001
 20
93.426993299394056
 30
0.0
  0
VERTEX
  5
8ED2
  8
0
 10
233.67526756641089
 20
91.829953897862836
 30
0.0
  0
VERTEX
  5
8ED3
  8
0
 10
232.3741261106413
 20
90.910976935296446
 30
0.0
  0
VERTEX
  5
8ED4
  8
0
 10
230.824764836995
 20
90.556239891915709
 30
0.0
  0
SEQEND
  5
8ED5
  8
0
  0
POLYLINE
  5
8ED6
  8
0
 66
     1
 10
0.0
 20
0.0
 30
0.0
 70
   128
  0
VERTEX
  5
8ED7
  8
0
 10
234.0697273802441
 20
93.196729380755826
 30
0.0
  0
VERTEX
  5
8ED8
  8
0
 10
233.7687462758702
 20
92.946620840697676
 30
0.0
  0
VERTEX
  5
8ED9
  8
0
 10
232.4923277091664
 20
91.844214309125334
 30
0.0
  0
VERTEX
  5
8EDA
  8
0
 10
231.3067373078745
 20
90.893220339088828
 30
0.0
  0
VERTEX
  5
8EDB
  8
0
 10
231.2466092598122
 20
90.849291715889365
 30
0.0
  0
VERTEX
  5
8EDC
  8
0
 10
230.87891938206371
 20
90.592274624972745
 30
0.0
  0
VERTEX
  5
8EDD
  8
0
 10
230.83633931395229
 20
90.563899088769347
 30
0.0
  0
VERTEX
  5
8EDE
  8
0
 10
230.824764836995
 20
90.556239891915709
 30
0.0
  0
SEQEND
  5
8EDF
  8
0
  0
LINE
  5
8EE0
  8
0
 10
269.78242771741571
 20
90.556239891915709
 30
0.0
 11
269.78242771741571
 21
87.564155642061635
 31
0.0
  0
LINE
  5
8EE1
  8
0
 10
230.824764836995
 20
90.556239891915709
 30
0.0
 11
230.824764836995
 21
87.564155642061635
 31
0.0
  0
POLYLINE
  5
8EE2
  8
0
 66
     1
 10
0.0
 20
0.0
 30
0.0
 70
   128
  0
VERTEX
  5
8EE3
  8
0
 10
266.92203061696711
 20
86.869832310944005
 30
0.0
  0
VERTEX
  5
8EE4
  8
0
 10
266.89933801111403
 20
86.838212978213235
 30
0.0
  0
VERTEX
  5
8EE5
  8
0
 10
266.8788079362792
 20
86.804070692627818
 30
0.0
  0
VERTEX
  5
8EE6
  8
0
 10
266.86059499201002
 20
86.767666224508673
 30
0.0
  0
VERTEX
  5
8EE7
  8
0
 10
266.84483887669262
 20
86.729278039305598
 30
0.0
  0
VERTEX
  5
8EE8
  8
0
 10
266.83166066226181
 20
86.689199503629595
 30
0.0
  0
VERTEX
  5
8EE9
  8
0
 10
266.8211609315556
 20
86.647739816575438
 30
0.0
  0
VERTEX
  5
8EEA
  8
0
 10
266.8134216409606
 20
86.605214696495935
 30
0.0
  0
VERTEX
  5
8EEB
  8
0
 10
266.80850239512142
 20
86.561950106292159
 30
0.0
  0
SEQEND
  5
8EEC
  8
0
  0
LINE
  5
8EED
  8
0
 10
233.79869071326971
 20
86.561949922411586
 30
0.0
 11
266.8085018411407
 21
86.561949922411586
 31
0.0
  0
POLYLINE
  5
8EEE
  8
0
 66
     1
 10
0.0
 20
0.0
 30
0.0
 70
   128
  0
VERTEX
  5
8EEF
  8
0
 10
233.68516193744361
 20
86.869832310944005
 30
0.0
  0
VERTEX
  5
8EF0
  8
0
 10
233.70785454329669
 20
86.838212978213235
 30
0.0
  0
VERTEX
  5
8EF1
  8
0
 10
233.72838461813151
 20
86.804070692627818
 30
0.0
  0
VERTEX
  5
8EF2
  8
0
 10
233.74659756240069
 20
86.767666224508673
 30
0.0
  0
VERTEX
  5
8EF3
  8
0
 10
233.76235367771801
 20
86.729278039305598
 30
0.0
  0
VERTEX
  5
8EF4
  8
0
 10
233.77553189214879
 20
86.689199503629595
 30
0.0
  0
VERTEX
  5
8EF5
  8
0
 10
233.78603162285501
 20
86.647739816575438
 30
0.0
  0
VERTEX
  5
8EF6
  8
0
 10
233.79377091345009
 20
86.605214696495935
 30
0.0
  0
VERTEX
  5
8EF7
  8
0
 10
233.79869015928921
 20
86.561950106292159
 30
0.0
  0
SEQEND
  5
8EF8
  8
0
  0
LINE
  5
8EF9
  8
0
 10
265.68971180436853
 20
85.221696395545379
 30
0.0
 11
234.91748075004219
 21
85.221696395545379
 31
0.0
  0
POLYLINE
  5
8EFA
  8
0
 66
     1
 10
0.0
 20
0.0
 30
0.0
 70
   128
  0
VERTEX
  5
8EFB
  8
0
 10
234.91748051759421
 20
85.221696827679068
 30
0.0
  0
VERTEX
  5
8EFC
  8
0
 10
234.712705035178
 20
85.246746610968515
 30
0.0
  0
VERTEX
  5
8EFD
  8
0
 10
234.51476918574991
 20
85.321059633164793
 30
0.0
  0
VERTEX
  5
8EFE
  8
0
 10
234.3302834969443
 20
85.442154850929185
 30
0.0
  0
VERTEX
  5
8EFF
  8
0
 10
234.1654114615601
 20
85.605985667674929
 30
0.0
  0
VERTEX
  5
8F00
  8
0
 10
234.0256571960133
 20
85.807082425921365
 30
0.0
  0
VERTEX
  5
8F01
  8
0
 10
233.915690351693
 20
86.038726564615175
 30
0.0
  0
VERTEX
  5
8F02
  8
0
 10
233.8391822021884
 20
86.293181587129027
 30
0.0
  0
VERTEX
  5
8F03
  8
0
 10
233.79869015928921
 20
86.561950106292159
 30
0.0
  0
SEQEND
  5
8F04
  8
0
  0
POLYLINE
  5
8F05
  8
0
 66
     1
 10
0.0
 20
0.0
 30
0.0
 70
   128
  0
VERTEX
  5
8F06
  8
0
 10
265.6897120368165
 20
85.221696827679068
 30
0.0
  0
VERTEX
  5
8F07
  8
0
 10
265.8944875192326
 20
85.246746610968515
 30
0.0
  0
VERTEX
  5
8F08
  8
0
 10
266.09242336866077
 20
85.321059633164793
 30
0.0
  0
VERTEX
  5
8F09
  8
0
 10
266.27690905746641
 20
85.442154850929185
 30
0.0
  0
VERTEX
  5
8F0A
  8
0
 10
266.44178109285048
 20
85.605985667674929
 30
0.0
  0
VERTEX
  5
8F0B
  8
0
 10
266.58153535839728
 20
85.807082425921365
 30
0.0
  0
VERTEX
  5
8F0C
  8
0
 10
266.69150220271757
 20
86.038726564615175
 30
0.0
  0
VERTEX
  5
8F0D
  8
0
 10
266.76801035222229
 20
86.293181587129027
 30
0.0
  0
VERTEX
  5
8F0E
  8
0
 10
266.80850239512142
 20
86.561950106292159
 30
0.0
  0
SEQEND
  5
8F0F
  8
0
  0
LINE
  5
8F10
  8
0
 10
235.61486710316581
 20
95.221696395545379
 30
0.0
 11
228.30359627720529
 21
95.221696395545379
 31
0.0
  0
LINE
  5
8F11
  8
0
 10
272.30359627720532
 20
95.221696395545379
 30
0.0
 11
264.96088201693033
 21
95.221696395545379
 31
0.0
  0
LINE
  5
8F12
  8
0
 10
271.30359627720532
 20
96.221696395545393
 30
0.0
 11
264.43982816085457
 21
96.221696395545393
 31
0.0
  0
LINE
  5
8F13
  8
0
 10
236.15681269901069
 20
96.221696395545393
 30
0.0
 11
229.30359627720529
 21
96.221696395545393
 31
0.0
  0
LINE
  5
8F14
  8
0
 10
269.30359627720532
 20
72.221696395545393
 30
0.0
 11
231.30359627720529
 21
72.221696395545393
 31
0.0
  0
LINE
  5
8F15
  8
0
 10
270.30359627720532
 20
73.221696395545393
 30
0.0
 11
230.30359627720529
 21
73.221696395545393
 31
0.0
  0
POLYLINE
  5
8F16
  8
0
 66
     1
 10
0.0
 20
0.0
 30
0.0
 70
   128
  0
VERTEX
  5
8F17
  8
0
 10
230.824764836995
 20
90.556239891915709
 30
0.0
  0
VERTEX
  5
8F18
  8
0
 10
230.835786108343
 20
90.565631348758146
 30
0.0
  0
VERTEX
  5
8F19
  8
0
 10
230.87875919458091
 20
90.602388788133055
 30
0.0
  0
VERTEX
  5
8F1A
  8
0
 10
231.20999710675889
 20
90.892834771542937
 30
0.0
  0
VERTEX
  5
8F1B
  8
0
 10
232.43144342717349
 20
92.034233916669294
 30
0.0
  0
VERTEX
  5
8F1C
  8
0
 10
233.79819655832469
 20
93.306910429268285
 30
0.0
  0
VERTEX
  5
8F1D
  8
0
 10
235.03088487353739
 20
94.337495226531416
 30
0.0
  0
VERTEX
  5
8F1E
  8
0
 10
235.11530367699081
 20
94.391210187344939
 30
0.0
  0
SEQEND
  5
8F1F
  8
0
  0
POLYLINE
  5
8F2A
  8
0
 66
     1
 10
0.0
 20
0.0
 30
0.0
 70
   128
  0
VERTEX
  5
8F2B
  8
0
 10
232.3506474685353
 20
86.721696142225653
 30
0.0
  0
VERTEX
  5
8F2C
  8
0
 10
231.55237177428421
 20
87.060740400224134
 30
0.0
  0
VERTEX
  5
8F2D
  8
0
 10
230.8357935589236
 20
87.554797712831885
 30
0.0
  0
VERTEX
  5
8F2E
  8
0
 10
230.824764836995
 20
87.564155642061635
 30
0.0
  0
SEQEND
  5
8F2F
  8
0
  0
LINE
  5
8F30
  8
0
 10
228.30359627720529
 20
86.721696395545393
 30
0.0
 11
232.35064834829751
 21
86.721696395543006
 31
0.0
  0
LINE
  5
8F31
  8
0
 10
268.25654420611318
 20
86.721696395543006
 30
0.0
 11
272.30359627720532
 21
86.721696395543404
 31
0.0
  0
POLYLINE
  5
8F32
  8
0
 66
     1
 10
0.0
 20
0.0
 30
0.0
 70
   128
  0
VERTEX
  5
8F33
  8
0
 10
269.78242771741571
 20
87.564155642061635
 30
0.0
  0
VERTEX
  5
8F34
  8
0
 10
269.77139899548712
 20
87.554797712831885
 30
0.0
  0
VERTEX
  5
8F35
  8
0
 10
269.05482078012642
 20
87.060740400224134
 30
0.0
  0
VERTEX
  5
8F36
  8
0
 10
268.25654508587542
 20
86.721696142225653
 30
0.0
  0
SEQEND
  5
8F37
  8
0
  0
POLYLINE
  5
8F38
  8
0
 66
     1
 10
0.0
 20
0.0
 30
0.0
 70
   128
  0
VERTEX
  5
8F39
  8
0
 10
266.80850239512142
 20
86.561950106292159
 30
0.0
  0
VERTEX
  5
8F3A
  8
0
 10
267.0654226284903
 20
86.566615101068408
 30
0.0
  0
VERTEX
  5
8F3B
  8
0
 10
267.31686668512037
 20
86.580479700236708
 30
0.0
  0
VERTEX
  5
8F3C
  8
0
 10
267.7976004969758
 20
86.634219806759745
 30
0.0
  0
VERTEX
  5
8F3D
  8
0
 10
268.25654508587542
 20
86.721696142225653
 30
0.0
  0
SEQEND
  5
8F3E
  8
0
  0
POLYLINE
  5
8F3F
  8
0
 66
     1
 10
0.0
 20
0.0
 30
0.0
 70
   128
  0
VERTEX
  5
8F40
  8
0
 10
232.3506474685353
 20
86.721696142225653
 30
0.0
  0
VERTEX
  5
8F41
  8
0
 10
232.93584028300461
 20
86.616504188745424
 30
0.0
  0
VERTEX
  5
8F42
  8
0
 10
233.5615940582436
 20
86.565918471782595
 30
0.0
  0
VERTEX
  5
8F43
  8
0
 10
233.79869015928921
 20
86.561950106292159
 30
0.0
  0
SEQEND
  5
8F44
  8
0
  0
POLYLINE
  5
8F45
  8
0
 66
     1
 10
0.0
 20
0.0
 30
0.0
 70
   128
  0
VERTEX
  5
8F46
  8
0
 10
268.25654508587542
 20
86.721696142225653
 30
0.0
  0
VERTEX
  5
8F47
  8
0
 10
268.23302360293093
 20
86.429060619442865
 30
0.0
  0
VERTEX
  5
8F48
  8
0
 10
268.16336812493017
 20
86.147670816748544
 30
0.0
  0
VERTEX
  5
8F49
  8
0
 10
268.05025154766258
 20
85.888341251879126
 30
0.0
  0
VERTEX
  5
8F4A
  8
0
 10
267.89802314755138
 20
85.661036145060464
 30
0.0
  0
VERTEX
  5
8F4B
  8
0
 10
267.71253349301043
 20
85.474492233364984
 30
0.0
  0
VERTEX
  5
8F4C
  8
0
 10
267.50090906438049
 20
85.335876975326926
 30
0.0
  0
VERTEX
  5
8F4D
  8
0
 10
267.2712821703833
 20
85.250518467395693
 30
0.0
  0
VERTEX
  5
8F4E
  8
0
 10
267.032479886381
 20
85.221696827679068
 30
0.0
  0
SEQEND
  5
8F4F
  8
0
  0
LINE
  5
8F50
  8
0
 10
267.03247957459689
 20
85.221696395545379
 30
0.0
 11
265.68971180436853
 21
85.221696395545379
 31
0.0
  0
POLYLINE
  5
8F51
  8
0
 66
     1
 10
0.0
 20
0.0
 30
0.0
 70
   128
  0
VERTEX
  5
8F52
  8
0
 10
233.5747126680296
 20
85.221696827679068
 30
0.0
  0
VERTEX
  5
8F53
  8
0
 10
233.3359103840273
 20
85.250518467395693
 30
0.0
  0
VERTEX
  5
8F54
  8
0
 10
233.10628349003011
 20
85.335876975326926
 30
0.0
  0
VERTEX
  5
8F55
  8
0
 10
232.89465906140029
 20
85.474492233364984
 30
0.0
  0
VERTEX
  5
8F56
  8
0
 10
232.7091694068593
 20
85.661036145060464
 30
0.0
  0
VERTEX
  5
8F57
  8
0
 10
232.5569410067481
 20
85.888341251879126
 30
0.0
  0
VERTEX
  5
8F58
  8
0
 10
232.4438244294804
 20
86.147670816748544
 30
0.0
  0
VERTEX
  5
8F59
  8
0
 10
232.37416895147979
 20
86.429060619442865
 30
0.0
  0
VERTEX
  5
8F5A
  8
0
 10
232.3506474685353
 20
86.721696142225653
 30
0.0
  0
SEQEND
  5
8F5B
  8
0
  0
LINE
  5
8F5C
  8
0
 10
234.91748075004219
 20
85.221696395545379
 30
0.0
 11
233.5747129798138
 21
85.221696395545379
 31
0.0
  0
LINE
  5
8F5D
  8
0
 10
233.5747129798138
 20
85.221696395545379
 30
0.0
 11
229.80359627720529
 21
85.221696395545379
 31
0.0
  0
LINE
  5
8F5E
  8
0
 10
270.80359627720532
 20
85.221696395545379
 30
0.0
 11
267.03247957459689
 21
85.221696395545379
 31
0.0
  0
CIRCLE
  5
8F6C
  8
0
 10
250.30359627720529
 20
322.22169639554539
 30
0.0
 40
80.0
  0
POLYLINE
  5
8F6D
  8
0
 66
     1
 10
0.0
 20
0.0
 30
0.0
 70
   128
  0
VERTEX
  5
8F6E
  8
0
 10
236.1451965015811
 20
379.46739049640217
 30
0.0
  0
VERTEX
  5
8F6F
  8
0
 10
236.19323598262491
 20
379.43490969028989
 30
0.0
  0
VERTEX
  5
8F70
  8
0
 10
236.31323130842861
 20
379.4231489488177
 30
0.0
  0
VERTEX
  5
8F71
  8
0
 10
236.5006050285381
 20
379.43255530682131
 30
0.0
  0
VERTEX
  5
8F72
  8
0
 10
236.7482055169028
 20
379.46277113643208
 30
0.0
  0
VERTEX
  5
8F73
  8
0
 10
237.0465854373258
 20
379.51263787236729
 30
0.0
  0
VERTEX
  5
8F74
  8
0
 10
237.38435937133249
 20
379.58025934186497
 30
0.0
  0
VERTEX
  5
8F75
  8
0
 10
237.74863781449019
 20
379.66305391874829
 30
0.0
  0
VERTEX
  5
8F76
  8
0
 10
238.12552077737271
 20
379.7578588315539
 30
0.0
  0
SEQEND
  5
8F77
  8
0
  0
POLYLINE
  5
8F78
  8
0
 66
     1
 10
0.0
 20
0.0
 30
0.0
 70
   128
  0
VERTEX
  5
8F79
  8
0
 10
238.12552077737271
 20
379.7578588315539
 30
0.0
  0
VERTEX
  5
8F7A
  8
0
 10
238.96369060543
 20
376.19097532716319
 30
0.0
  0
VERTEX
  5
8F7B
  8
0
 10
239.6138115045112
 20
372.61477859702632
 30
0.0
  0
VERTEX
  5
8F7C
  8
0
 10
240.08568005677881
 20
368.97729339089909
 30
0.0
  0
VERTEX
  5
8F7D
  8
0
 10
240.3710149418992
 20
365.36679046240369
 30
0.0
  0
VERTEX
  5
8F7E
  8
0
 10
240.46458957758361
 20
359.96143894281909
 30
0.0
  0
VERTEX
  5
8F7F
  8
0
 10
240.17834199634009
 20
354.68772055593058
 30
0.0
  0
VERTEX
  5
8F80
  8
0
 10
239.5239528458994
 20
349.42458385613497
 30
0.0
  0
VERTEX
  5
8F81
  8
0
 10
238.5155065175575
 20
344.27679704514082
 30
0.0
  0
VERTEX
  5
8F82
  8
0
 10
237.71339656826669
 20
341.14473687496718
 30
0.0
  0
SEQEND
  5
8F83
  8
0
  0
POLYLINE
  5
8F84
  8
0
 66
     1
 10
0.0
 20
0.0
 30
0.0
 70
   128
  0
VERTEX
  5
8F85
  8
0
 10
236.1894957911652
 20
339.85321970668372
 30
0.0
  0
VERTEX
  5
8F86
  8
0
 10
236.5376632851046
 20
340.17918074515399
 30
0.0
  0
VERTEX
  5
8F87
  8
0
 10
236.91012153443509
 20
340.4971659370953
 30
0.0
  0
VERTEX
  5
8F88
  8
0
 10
237.3057035919708
 20
340.8180792072111
 30
0.0
  0
VERTEX
  5
8F89
  8
0
 10
237.71339656826669
 20
341.14473687496718
 30
0.0
  0
SEQEND
  5
8F8A
  8
0
  0
POLYLINE
  5
8F8B
  8
0
 66
     1
 10
0.0
 20
0.0
 30
0.0
 70
   128
  0
VERTEX
  5
8F8C
  8
0
 10
230.824764836995
 20
332.44789300498297
 30
0.0
  0
VERTEX
  5
8F8D
  8
0
 10
230.83633931395229
 20
332.46991878387269
 30
0.0
  0
VERTEX
  5
8F8E
  8
0
 10
230.87891938206371
 20
332.55058715131821
 30
0.0
  0
VERTEX
  5
8F8F
  8
0
 10
231.2466092598122
 20
333.22494292643597
 30
0.0
  0
VERTEX
  5
8F90
  8
0
 10
231.3067373078745
 20
333.33168087539019
 30
0.0
  0
VERTEX
  5
8F91
  8
0
 10
232.4923277091664
 20
335.2712085658008
 30
0.0
  0
VERTEX
  5
8F92
  8
0
 10
233.7687462758702
 20
337.07128653314652
 30
0.0
  0
VERTEX
  5
8F93
  8
0
 10
234.9166702669543
 20
338.4887110629374
 30
0.0
  0
VERTEX
  5
8F94
  8
0
 10
236.1894957911652
 20
339.85321970668372
 30
0.0
  0
SEQEND
  5
8F95
  8
0
  0
POLYLINE
  5
8F96
  8
0
 66
     1
 10
0.0
 20
0.0
 30
0.0
 70
   128
  0
VERTEX
  5
8F97
  8
0
 10
230.824764836995
 20
332.44789300498297
 30
0.0
  0
VERTEX
  5
8F98
  8
0
 10
231.96502776858031
 20
334.7293622979218
 30
0.0
  0
VERTEX
  5
8F99
  8
0
 10
233.00331274089041
 20
337.02286614116957
 30
0.0
  0
VERTEX
  5
8F9A
  8
0
 10
233.92632791814029
 20
339.28403446462693
 30
0.0
  0
VERTEX
  5
8F9B
  8
0
 10
235.58472750749999
 20
344.10325998452242
 30
0.0
  0
VERTEX
  5
8F9C
  8
0
 10
236.8341973241848
 20
348.91879187908711
 30
0.0
  0
VERTEX
  5
8F9D
  8
0
 10
237.69441900816381
 20
353.7950813957745
 30
0.0
  0
VERTEX
  5
8F9E
  8
0
 10
238.1850779246968
 20
358.79656674352231
 30
0.0
  0
VERTEX
  5
8F9F
  8
0
 10
238.29003984150111
 20
364.17951436725178
 30
0.0
  0
VERTEX
  5
8FA0
  8
0
 10
237.9388828020972
 20
369.70205606904551
 30
0.0
  0
VERTEX
  5
8FA1
  8
0
 10
237.10610253777921
 20
375.27139859285882
 30
0.0
  0
VERTEX
  5
8FA2
  8
0
 10
236.1451965015811
 20
379.46739049640217
 30
0.0
  0
SEQEND
  5
8FA3
  8
0
  0
POLYLINE
  5
8FA4
  8
0
 66
     1
 10
0.0
 20
0.0
 30
0.0
 70
   128
  0
VERTEX
  5
8FA5
  8
0
 10
264.46199605282959
 20
264.97600229468873
 30
0.0
  0
VERTEX
  5
8FA6
  8
0
 10
264.41395657178577
 20
265.00848310080102
 30
0.0
  0
VERTEX
  5
8FA7
  8
0
 10
264.29396124598202
 20
265.0202438422732
 30
0.0
  0
VERTEX
  5
8FA8
  8
0
 10
264.10658752587261
 20
265.01083748426959
 30
0.0
  0
VERTEX
  5
8FA9
  8
0
 10
263.85898703750792
 20
264.98062165465882
 30
0.0
  0
VERTEX
  5
8FAA
  8
0
 10
263.56060711708483
 20
264.93075491872361
 30
0.0
  0
VERTEX
  5
8FAB
  8
0
 10
263.22283318307808
 20
264.86313344922593
 30
0.0
  0
VERTEX
  5
8FAC
  8
0
 10
262.85855473992052
 20
264.78033887234261
 30
0.0
  0
VERTEX
  5
8FAD
  8
0
 10
262.481671777038
 20
264.685533959537
 30
0.0
  0
SEQEND
  5
8FAE
  8
0
  0
POLYLINE
  5
8FAF
  8
0
 66
     1
 10
0.0
 20
0.0
 30
0.0
 70
   128
  0
VERTEX
  5
8FB0
  8
0
 10
262.481671777038
 20
264.685533959537
 30
0.0
  0
VERTEX
  5
8FB1
  8
0
 10
261.64350194898071
 20
268.25241746392783
 30
0.0
  0
VERTEX
  5
8FB2
  8
0
 10
260.99338104989943
 20
271.82861419406458
 30
0.0
  0
VERTEX
  5
8FB3
  8
0
 10
260.52151249763187
 20
275.46609940019181
 30
0.0
  0
VERTEX
  5
8FB4
  8
0
 10
260.23617761251148
 20
279.07660232868722
 30
0.0
  0
VERTEX
  5
8FB5
  8
0
 10
260.14260297682699
 20
284.48195384827193
 30
0.0
  0
VERTEX
  5
8FB6
  8
0
 10
260.42885055807051
 20
289.75567223516032
 30
0.0
  0
VERTEX
  5
8FB7
  8
0
 10
261.0832397085112
 20
295.01880893495621
 30
0.0
  0
VERTEX
  5
8FB8
  8
0
 10
262.09168603685322
 20
300.1665957459503
 30
0.0
  0
VERTEX
  5
8FB9
  8
0
 10
262.89379598614391
 20
303.29865591612401
 30
0.0
  0
SEQEND
  5
8FBA
  8
0
  0
POLYLINE
  5
8FBB
  8
0
 66
     1
 10
0.0
 20
0.0
 30
0.0
 70
   128
  0
VERTEX
  5
8FBC
  8
0
 10
264.41769676324537
 20
304.59017308440741
 30
0.0
  0
VERTEX
  5
8FBD
  8
0
 10
264.06952926930597
 20
304.2642120459372
 30
0.0
  0
VERTEX
  5
8FBE
  8
0
 10
263.69707101997551
 20
303.94622685399588
 30
0.0
  0
VERTEX
  5
8FBF
  8
0
 10
263.30148896243992
 20
303.62531358387997
 30
0.0
  0
VERTEX
  5
8FC0
  8
0
 10
262.89379598614391
 20
303.29865591612401
 30
0.0
  0
SEQEND
  5
8FC1
  8
0
  0
POLYLINE
  5
8FC2
  8
0
 66
     1
 10
0.0
 20
0.0
 30
0.0
 70
   128
  0
VERTEX
  5
8FC3
  8
0
 10
269.78242771741571
 20
311.9954997861081
 30
0.0
  0
VERTEX
  5
8FC4
  8
0
 10
269.77085324045828
 20
311.9734740072185
 30
0.0
  0
VERTEX
  5
8FC5
  8
0
 10
269.72827317234692
 20
311.89280563977297
 30
0.0
  0
VERTEX
  5
8FC6
  8
0
 10
269.36058329459843
 20
311.2184498646551
 30
0.0
  0
VERTEX
  5
8FC7
  8
0
 10
269.3004552465361
 20
311.11171191570099
 30
0.0
  0
VERTEX
  5
8FC8
  8
0
 10
268.11486484524431
 20
309.17218422529038
 30
0.0
  0
VERTEX
  5
8FC9
  8
0
 10
266.83844627854052
 20
307.37210625794472
 30
0.0
  0
VERTEX
  5
8FCA
  8
0
 10
265.69052228745642
 20
305.95468172815379
 30
0.0
  0
VERTEX
  5
8FCB
  8
0
 10
264.41769676324537
 20
304.59017308440741
 30
0.0
  0
SEQEND
  5
8FCC
  8
0
  0
POLYLINE
  5
8FCD
  8
0
 66
     1
 10
0.0
 20
0.0
 30
0.0
 70
   128
  0
VERTEX
  5
8FCE
  8
0
 10
269.78242771741571
 20
311.9954997861081
 30
0.0
  0
VERTEX
  5
8FCF
  8
0
 10
268.6421647858304
 20
309.71403049316939
 30
0.0
  0
VERTEX
  5
8FD0
  8
0
 10
267.60387981352028
 20
307.4205266499215
 30
0.0
  0
VERTEX
  5
8FD1
  8
0
 10
266.68086463627043
 20
305.15935832646431
 30
0.0
  0
VERTEX
  5
8FD2
  8
0
 10
265.02246504691061
 20
300.3401328065687
 30
0.0
  0
VERTEX
  5
8FD3
  8
0
 10
263.77299523022589
 20
295.52460091200408
 30
0.0
  0
VERTEX
  5
8FD4
  8
0
 10
262.91277354624691
 20
290.64831139531668
 30
0.0
  0
VERTEX
  5
8FD5
  8
0
 10
262.42211462971392
 20
285.64682604756888
 30
0.0
  0
VERTEX
  5
8FD6
  8
0
 10
262.3171527129096
 20
280.26387842383912
 30
0.0
  0
VERTEX
  5
8FD7
  8
0
 10
262.66830975231352
 20
274.74133672204539
 30
0.0
  0
VERTEX
  5
8FD8
  8
0
 10
263.50109001663151
 20
269.1719941982322
 30
0.0
  0
VERTEX
  5
8FD9
  8
0
 10
264.46199605282959
 20
264.97600229468873
 30
0.0
  0
SEQEND
  5
8FDA
  8
0
  0
POLYLINE
  5
8FDB
  8
0
 66
     1
 10
0.0
 20
0.0
 30
0.0
 70
   128
  0
VERTEX
  5
8FDC
  8
0
 10
236.666996982364
 20
382.22980501142069
 30
0.0
  0
VERTEX
  5
8FDD
  8
0
 10
237.71950604435619
 20
380.8218650707297
 30
0.0
  0
VERTEX
  5
8FDE
  8
0
 10
238.12552077737271
 20
379.7578588315539
 30
0.0
  0
SEQEND
  5
8FDF
  8
0
  0
ARC
  5
8FE0
  8
0
 10
250.30359627720529
 20
322.22169639554539
 30
0.0
 40
61.538037585821868
 50
77.197193769870935
 51
102.80280623012899
  0
POLYLINE
  5
8FE1
  8
0
 66
     1
 10
0.0
 20
0.0
 30
0.0
 70
   128
  0
VERTEX
  5
8FE2
  8
0
 10
262.481671777038
 20
379.7578588315539
 30
0.0
  0
VERTEX
  5
8FE3
  8
0
 10
263.20338996168789
 20
381.35808335629031
 30
0.0
  0
VERTEX
  5
8FE4
  8
0
 10
263.9401955720466
 20
382.22980501142069
 30
0.0
  0
SEQEND
  5
8FE5
  8
0
  0
POLYLINE
  5
8FE6
  8
0
 66
     1
 10
0.0
 20
0.0
 30
0.0
 70
   128
  0
VERTEX
  5
8FE7
  8
0
 10
262.89379598614391
 20
341.14473687496718
 30
0.0
  0
VERTEX
  5
8FE8
  8
0
 10
261.72761062201681
 20
345.91890873399319
 30
0.0
  0
VERTEX
  5
8FE9
  8
0
 10
260.88509244885859
 20
350.7464677282864
 30
0.0
  0
VERTEX
  5
8FEA
  8
0
 10
260.29593871947941
 20
356.38682173576882
 30
0.0
  0
VERTEX
  5
8FEB
  8
0
 10
260.13318637427511
 20
362.19406129804179
 30
0.0
  0
VERTEX
  5
8FEC
  8
0
 10
260.30459629413298
 20
366.47197978582898
 30
0.0
  0
VERTEX
  5
8FED
  8
0
 10
260.73487570550861
 20
370.80354990449467
 30
0.0
  0
VERTEX
  5
8FEE
  8
0
 10
261.46121418145123
 20
375.2843737789683
 30
0.0
  0
VERTEX
  5
8FEF
  8
0
 10
262.481671777038
 20
379.7578588315539
 30
0.0
  0
SEQEND
  5
8FF0
  8
0
  0
ARC
  5
8FF1
  8
0
 10
250.30359627720529
 20
322.22169639554562
 30
0.0
 40
22.7287171398754
 50
56.36270596387822
 51
123.6372940361218
  0
POLYLINE
  5
8FF2
  8
0
 66
     1
 10
0.0
 20
0.0
 30
0.0
 70
   128
  0
VERTEX
  5
8FF3
  8
0
 10
263.9401955720466
 20
262.21358777967021
 30
0.0
  0
VERTEX
  5
8FF4
  8
0
 10
262.88768651005438
 20
263.6215277203612
 30
0.0
  0
VERTEX
  5
8FF5
  8
0
 10
262.481671777038
 20
264.685533959537
 30
0.0
  0
SEQEND
  5
8FF6
  8
0
  0
ARC
  5
8FF7
  8
0
 10
250.30359627720529
 20
322.22169639554539
 30
0.0
 40
61.53803758582206
 50
257.19719376987092
 51
282.80280623012908
  0
POLYLINE
  5
8FF8
  8
0
 66
     1
 10
0.0
 20
0.0
 30
0.0
 70
   128
  0
VERTEX
  5
8FF9
  8
0
 10
238.12552077737271
 20
264.685533959537
 30
0.0
  0
VERTEX
  5
8FFA
  8
0
 10
237.4038025927228
 20
263.08530943480059
 30
0.0
  0
VERTEX
  5
8FFB
  8
0
 10
236.666996982364
 20
262.21358777967021
 30
0.0
  0
SEQEND
  5
8FFC
  8
0
  0
POLYLINE
  5
8FFD
  8
0
 66
     1
 10
0.0
 20
0.0
 30
0.0
 70
   128
  0
VERTEX
  5
8FFE
  8
0
 10
237.71339656826669
 20
303.29865591612401
 30
0.0
  0
VERTEX
  5
8FFF
  8
0
 10
238.8795819323939
 20
298.52448405709799
 30
0.0
  0
VERTEX
  5
9000
  8
0
 10
239.7221001055521
 20
293.69692506280478
 30
0.0
  0
VERTEX
  5
9001
  8
0
 10
240.31125383493119
 20
288.05657105532208
 30
0.0
  0
VERTEX
  5
9002
  8
0
 10
240.4740061801356
 20
282.24933149304923
 30
0.0
  0
VERTEX
  5
9003
  8
0
 10
240.3025962602776
 20
277.97141300526192
 30
0.0
  0
VERTEX
  5
9004
  8
0
 10
239.8723168489021
 20
273.63984288659623
 30
0.0
  0
VERTEX
  5
9005
  8
0
 10
239.14597837295949
 20
269.1590190121226
 30
0.0
  0
VERTEX
  5
9006
  8
0
 10
238.12552077737271
 20
264.685533959537
 30
0.0
  0
SEQEND
  5
9007
  8
0
  0
ARC
  5
9008
  8
0
 10
250.30359627720529
 20
322.22169639554562
 30
0.0
 40
22.7287171398754
 50
236.36270596388141
 51
303.637294036122
  0
POLYLINE
  5
9009
  8
0
 66
     1
 10
0.0
 20
0.0
 30
0.0
 70
   128
  0
VERTEX
  5
900A
  8
0
 10
262.481671777038
 20
379.7578588315539
 30
0.0
  0
VERTEX
  5
900B
  8
0
 10
262.85855473992052
 20
379.66305391874829
 30
0.0
  0
VERTEX
  5
900C
  8
0
 10
263.22283318307808
 20
379.58025934186497
 30
0.0
  0
VERTEX
  5
900D
  8
0
 10
263.56060711708483
 20
379.51263787236729
 30
0.0
  0
VERTEX
  5
900E
  8
0
 10
263.85898703750792
 20
379.46277113643208
 30
0.0
  0
VERTEX
  5
900F
  8
0
 10
264.10658752587261
 20
379.43255530682131
 30
0.0
  0
VERTEX
  5
9010
  8
0
 10
264.29396124598202
 20
379.4231489488177
 30
0.0
  0
VERTEX
  5
9011
  8
0
 10
264.41395657178577
 20
379.43490969028989
 30
0.0
  0
VERTEX
  5
9012
  8
0
 10
264.46199605282959
 20
379.46739049640217
 30
0.0
  0
SEQEND
  5
9013
  8
0
  0
POLYLINE
  5
9014
  8
0
 66
     1
 10
0.0
 20
0.0
 30
0.0
 70
   128
  0
VERTEX
  5
9015
  8
0
 10
264.46199605282959
 20
379.46739049640217
 30
0.0
  0
VERTEX
  5
9016
  8
0
 10
263.4171173166913
 20
374.82848392811343
 30
0.0
  0
VERTEX
  5
9017
  8
0
 10
262.71827148315128
 20
370.18660457816651
 30
0.0
  0
VERTEX
  5
9018
  8
0
 10
262.35167963471832
 20
365.40690438833758
 30
0.0
  0
VERTEX
  5
9019
  8
0
 10
262.33260801103529
 20
360.71313174453297
 30
0.0
  0
VERTEX
  5
901A
  8
0
 10
262.75763383176741
 20
355.0737872907215
 30
0.0
  0
VERTEX
  5
901B
  8
0
 10
263.64519821521458
 20
349.61099365737971
 30
0.0
  0
VERTEX
  5
901C
  8
0
 10
264.50639313128409
 20
345.95742264774378
 30
0.0
  0
VERTEX
  5
901D
  8
0
 10
265.59265704867062
 20
342.31681192305621
 30
0.0
  0
VERTEX
  5
901E
  8
0
 10
266.93192498799982
 20
338.64374460664328
 30
0.0
  0
VERTEX
  5
901F
  8
0
 10
268.2330664437693
 20
335.60259735223588
 30
0.0
  0
VERTEX
  5
9020
  8
0
 10
269.78242771741571
 20
332.44789300498297
 30
0.0
  0
SEQEND
  5
9021
  8
0
  0
POLYLINE
  5
9022
  8
0
 66
     1
 10
0.0
 20
0.0
 30
0.0
 70
   128
  0
VERTEX
  5
9023
  8
0
 10
264.41769676324537
 20
339.85321970668372
 30
0.0
  0
VERTEX
  5
9024
  8
0
 10
265.69052228745642
 20
338.4887110629374
 30
0.0
  0
VERTEX
  5
9025
  8
0
 10
266.83844627854052
 20
337.07128653314652
 30
0.0
  0
VERTEX
  5
9026
  8
0
 10
268.11486484524431
 20
335.2712085658008
 30
0.0
  0
VERTEX
  5
9027
  8
0
 10
269.3004552465361
 20
333.33168087539019
 30
0.0
  0
VERTEX
  5
9028
  8
0
 10
269.36058329459843
 20
333.22494292643597
 30
0.0
  0
VERTEX
  5
9029
  8
0
 10
269.72827317234692
 20
332.55058715131821
 30
0.0
  0
VERTEX
  5
902A
  8
0
 10
269.77085324045828
 20
332.46991878387269
 30
0.0
  0
VERTEX
  5
902B
  8
0
 10
269.78242771741571
 20
332.44789300498297
 30
0.0
  0
SEQEND
  5
902C
  8
0
  0
POLYLINE
  5
902D
  8
0
 66
     1
 10
0.0
 20
0.0
 30
0.0
 70
   128
  0
VERTEX
  5
902E
  8
0
 10
262.89379598614391
 20
341.14473687496718
 30
0.0
  0
VERTEX
  5
902F
  8
0
 10
263.4340124395174
 20
340.71156943228777
 30
0.0
  0
VERTEX
  5
9030
  8
0
 10
263.96251099225702
 20
340.2730133571917
 30
0.0
  0
VERTEX
  5
9031
  8
0
 10
264.19490298297819
 20
340.06588721659722
 30
0.0
  0
VERTEX
  5
9032
  8
0
 10
264.41769676324537
 20
339.85321970668372
 30
0.0
  0
SEQEND
  5
9033
  8
0
  0
POLYLINE
  5
9034
  8
0
 66
     1
 10
0.0
 20
0.0
 30
0.0
 70
   128
  0
VERTEX
  5
9035
  8
0
 10
238.12552077737271
 20
264.685533959537
 30
0.0
  0
VERTEX
  5
9036
  8
0
 10
237.74863781449019
 20
264.78033887234261
 30
0.0
  0
VERTEX
  5
9037
  8
0
 10
237.38435937133249
 20
264.86313344922593
 30
0.0
  0
VERTEX
  5
9038
  8
0
 10
237.0465854373258
 20
264.93075491872361
 30
0.0
  0
VERTEX
  5
9039
  8
0
 10
236.7482055169028
 20
264.98062165465882
 30
0.0
  0
VERTEX
  5
903A
  8
0
 10
236.5006050285381
 20
265.01083748426959
 30
0.0
  0
VERTEX
  5
903B
  8
0
 10
236.31323130842861
 20
265.0202438422732
 30
0.0
  0
VERTEX
  5
903C
  8
0
 10
236.19323598262491
 20
265.00848310080102
 30
0.0
  0
VERTEX
  5
903D
  8
0
 10
236.1451965015811
 20
264.97600229468873
 30
0.0
  0
SEQEND
  5
903E
  8
0
  0
POLYLINE
  5
903F
  8
0
 66
     1
 10
0.0
 20
0.0
 30
0.0
 70
   128
  0
VERTEX
  5
9040
  8
0
 10
236.1451965015811
 20
264.97600229468873
 30
0.0
  0
VERTEX
  5
9041
  8
0
 10
237.19007523771941
 20
269.61490886297747
 30
0.0
  0
VERTEX
  5
9042
  8
0
 10
237.8889210712594
 20
274.2567882129245
 30
0.0
  0
VERTEX
  5
9043
  8
0
 10
238.25551291969239
 20
279.03648840275338
 30
0.0
  0
VERTEX
  5
9044
  8
0
 10
238.2745845433754
 20
283.73026104655793
 30
0.0
  0
VERTEX
  5
9045
  8
0
 10
237.8495587226432
 20
289.36960550036957
 30
0.0
  0
VERTEX
  5
9046
  8
0
 10
236.96199433919611
 20
294.83239913371142
 30
0.0
  0
VERTEX
  5
9047
  8
0
 10
236.1007994231266
 20
298.4859701433474
 30
0.0
  0
VERTEX
  5
9048
  8
0
 10
235.01453550574001
 20
302.12658086803492
 30
0.0
  0
VERTEX
  5
9049
  8
0
 10
233.67526756641089
 20
305.7996481844479
 30
0.0
  0
VERTEX
  5
904A
  8
0
 10
232.3741261106413
 20
308.84079543885531
 30
0.0
  0
VERTEX
  5
904B
  8
0
 10
230.824764836995
 20
311.9954997861081
 30
0.0
  0
SEQEND
  5
904C
  8
0
  0
POLYLINE
  5
904D
  8
0
 66
     1
 10
0.0
 20
0.0
 30
0.0
 70
   128
  0
VERTEX
  5
904E
  8
0
 10
236.1894957911652
 20
304.59017308440741
 30
0.0
  0
VERTEX
  5
904F
  8
0
 10
234.9166702669543
 20
305.95468172815379
 30
0.0
  0
VERTEX
  5
9050
  8
0
 10
233.7687462758702
 20
307.37210625794472
 30
0.0
  0
VERTEX
  5
9051
  8
0
 10
232.4923277091664
 20
309.17218422529038
 30
0.0
  0
VERTEX
  5
9052
  8
0
 10
231.3067373078745
 20
311.11171191570099
 30
0.0
  0
VERTEX
  5
9053
  8
0
 10
231.2466092598122
 20
311.2184498646551
 30
0.0
  0
VERTEX
  5
9054
  8
0
 10
230.87891938206371
 20
311.89280563977297
 30
0.0
  0
VERTEX
  5
9055
  8
0
 10
230.83633931395229
 20
311.9734740072185
 30
0.0
  0
VERTEX
  5
9056
  8
0
 10
230.824764836995
 20
311.9954997861081
 30
0.0
  0
SEQEND
  5
9057
  8
0
  0
POLYLINE
  5
9058
  8
0
 66
     1
 10
0.0
 20
0.0
 30
0.0
 70
   128
  0
VERTEX
  5
9059
  8
0
 10
237.71339656826669
 20
303.29865591612401
 30
0.0
  0
VERTEX
  5
905A
  8
0
 10
237.17318011489331
 20
303.73182335880341
 30
0.0
  0
VERTEX
  5
905B
  8
0
 10
236.64468156215369
 20
304.17037943389948
 30
0.0
  0
VERTEX
  5
905C
  8
0
 10
236.41228957143241
 20
304.37750557449402
 30
0.0
  0
VERTEX
  5
905D
  8
0
 10
236.1894957911652
 20
304.59017308440741
 30
0.0
  0
SEQEND
  5
905E
  8
0
  0
CIRCLE
  5
905F
  8
0
 10
250.30359627720529
 20
322.22169639554539
 30
0.0
 40
79.231093203301327
  0
CIRCLE
  5
9060
  8
0
 10
250.30359627720529
 20
322.22169639554539
 30
0.0
 40
77.325915977142699
  0
CIRCLE
  5
9061
  8
0
 10
250.30359627720529
 20
322.22169639554539
 30
0.0
 40
63.0
  0
CIRCLE
  5
9063
  8
0
 10
250.30359627720529
 20
392.22169639554551
 30
0.0
 40
3.3999999999999768
  0
CIRCLE
  5
9064
  8
0
 10
250.30359627720529
 20
322.22169639554539
 30
0.0
 40
62.0
  0
POLYLINE
  5
9065
  8
0
 66
     1
 10
0.0
 20
0.0
 30
0.0
 70
   128
  0
VERTEX
  5
9066
  8
0
 10
263.9401955720466
 20
382.22980501142069
 30
0.0
  0
VERTEX
  5
9067
  8
0
 10
264.19859474566402
 20
381.95434214559123
 30
0.0
  0
VERTEX
  5
9068
  8
0
 10
264.44882528897938
 20
381.6942833551459
 30
0.0
  0
VERTEX
  5
9069
  8
0
 10
264.6817919057292
 20
381.45908715215251
 30
0.0
  0
VERTEX
  5
906A
  8
0
 10
264.88902328577461
 20
381.25730680313632
 30
0.0
  0
VERTEX
  5
906B
  8
0
 10
265.06298689213207
 20
381.0962736794047
 30
0.0
  0
VERTEX
  5
906C
  8
0
 10
265.19735811319771
 20
380.98184021201661
 30
0.0
  0
VERTEX
  5
906D
  8
0
 10
265.28725123074469
 20
380.91817127552548
 30
0.0
  0
VERTEX
  5
906E
  8
0
 10
265.32940009650412
 20
380.90758027520701
 30
0.0
  0
SEQEND
  5
906F
  8
0
  0
POLYLINE
  5
9070
  8
0
 66
     1
 10
0.0
 20
0.0
 30
0.0
 70
   128
  0
VERTEX
  5
9071
  8
0
 10
263.9401955720466
 20
382.22980501142069
 30
0.0
  0
VERTEX
  5
9072
  8
0
 10
264.9416513931435
 20
382.21539931383649
 30
0.0
  0
VERTEX
  5
9073
  8
0
 10
266.58712701913532
 20
381.9852955826812
 30
0.0
  0
VERTEX
  5
9074
  8
0
 10
268.21634547826471
 20
381.57768176880398
 30
0.0
  0
VERTEX
  5
9075
  8
0
 10
268.23004150804701
 20
381.5735504218631
 30
0.0
  0
SEQEND
  5
9076
  8
0
  0
POLYLINE
  5
9077
  8
0
 66
     1
 10
0.0
 20
0.0
 30
0.0
 70
   128
  0
VERTEX
  5
9078
  8
0
 10
268.23004150804701
 20
381.5735504218631
 30
0.0
  0
VERTEX
  5
9079
  8
0
 10
268.22251828428921
 20
381.57581167307421
 30
0.0
  0
VERTEX
  5
907A
  8
0
 10
267.4677372169179
 20
381.6998452135615
 30
0.0
  0
VERTEX
  5
907B
  8
0
 10
266.40305297490772
 20
381.54407965031191
 30
0.0
  0
VERTEX
  5
907C
  8
0
 10
265.77362699475702
 20
381.24629857030442
 30
0.0
  0
VERTEX
  5
907D
  8
0
 10
265.32940009650412
 20
380.90758027520701
 30
0.0
  0
SEQEND
  5
907E
  8
0
  0
POLYLINE
  5
907F
  8
0
 66
     1
 10
0.0
 20
0.0
 30
0.0
 70
   128
  0
VERTEX
  5
9080
  8
0
 10
235.2777924579066
 20
380.90758027520701
 30
0.0
  0
VERTEX
  5
9081
  8
0
 10
234.83356555965361
 20
381.24629857030442
 30
0.0
  0
VERTEX
  5
9082
  8
0
 10
234.20413957950291
 20
381.54407965031191
 30
0.0
  0
VERTEX
  5
9083
  8
0
 10
233.13945533749279
 20
381.6998452135615
 30
0.0
  0
VERTEX
  5
9084
  8
0
 10
232.38467427012139
 20
381.57581167307421
 30
0.0
  0
VERTEX
  5
9085
  8
0
 10
232.37715104636371
 20
381.5735504218631
 30
0.0
  0
SEQEND
  5
9086
  8
0
  0
POLYLINE
  5
9087
  8
0
 66
     1
 10
0.0
 20
0.0
 30
0.0
 70
   128
  0
VERTEX
  5
9088
  8
0
 10
232.37715104636371
 20
381.5735504218631
 30
0.0
  0
VERTEX
  5
9089
  8
0
 10
232.390847076146
 20
381.57768176880398
 30
0.0
  0
VERTEX
  5
908A
  8
0
 10
234.00055432733711
 20
381.98140637960961
 30
0.0
  0
VERTEX
  5
908B
  8
0
 10
235.6655411612671
 20
382.21539931383649
 30
0.0
  0
VERTEX
  5
908C
  8
0
 10
236.666996982364
 20
382.22980501142069
 30
0.0
  0
SEQEND
  5
908D
  8
0
  0
POLYLINE
  5
908E
  8
0
 66
     1
 10
0.0
 20
0.0
 30
0.0
 70
   128
  0
VERTEX
  5
908F
  8
0
 10
235.2777924579066
 20
380.90758027520701
 30
0.0
  0
VERTEX
  5
9090
  8
0
 10
235.319941323666
 20
380.91817127552548
 30
0.0
  0
VERTEX
  5
9091
  8
0
 10
235.40983444121301
 20
380.98184021201661
 30
0.0
  0
VERTEX
  5
9092
  8
0
 10
235.5442056622785
 20
381.0962736794047
 30
0.0
  0
VERTEX
  5
9093
  8
0
 10
235.7181692686361
 20
381.25730680313632
 30
0.0
  0
VERTEX
  5
9094
  8
0
 10
235.92540064868149
 20
381.45908715215251
 30
0.0
  0
VERTEX
  5
9095
  8
0
 10
236.15836726543131
 20
381.6942833551459
 30
0.0
  0
VERTEX
  5
9096
  8
0
 10
236.40859780874669
 20
381.95434214559123
 30
0.0
  0
VERTEX
  5
9097
  8
0
 10
236.666996982364
 20
382.22980501142069
 30
0.0
  0
SEQEND
  5
9098
  8
0
  0
POLYLINE
  5
9099
  8
0
 66
     1
 10
0.0
 20
0.0
 30
0.0
 70
   128
  0
VERTEX
  5
909A
  8
0
 10
265.32940009650412
 20
263.53581251588389
 30
0.0
  0
VERTEX
  5
909B
  8
0
 10
265.77362699475702
 20
263.1970942207866
 30
0.0
  0
VERTEX
  5
909C
  8
0
 10
266.40305297490772
 20
262.89931314077899
 30
0.0
  0
VERTEX
  5
909D
  8
0
 10
267.4677372169179
 20
262.7435475775294
 30
0.0
  0
VERTEX
  5
909E
  8
0
 10
268.22251828428921
 20
262.86758111801669
 30
0.0
  0
VERTEX
  5
909F
  8
0
 10
268.23004150804701
 20
262.86984236922791
 30
0.0
  0
SEQEND
  5
90A0
  8
0
  0
POLYLINE
  5
90A1
  8
0
 66
     1
 10
0.0
 20
0.0
 30
0.0
 70
   128
  0
VERTEX
  5
90A2
  8
0
 10
268.23004150804701
 20
262.86984236922791
 30
0.0
  0
VERTEX
  5
90A3
  8
0
 10
268.21634547826471
 20
262.86571102228692
 30
0.0
  0
VERTEX
  5
90A4
  8
0
 10
266.60663822707352
 20
262.4619864114814
 30
0.0
  0
VERTEX
  5
90A5
  8
0
 10
264.9416513931435
 20
262.22799347725442
 30
0.0
  0
VERTEX
  5
90A6
  8
0
 10
263.9401955720466
 20
262.21358777967021
 30
0.0
  0
SEQEND
  5
90A7
  8
0
  0
POLYLINE
  5
90A8
  8
0
 66
     1
 10
0.0
 20
0.0
 30
0.0
 70
   128
  0
VERTEX
  5
90A9
  8
0
 10
265.32940009650412
 20
263.53581251588389
 30
0.0
  0
VERTEX
  5
90AA
  8
0
 10
265.28725123074469
 20
263.52522151556542
 30
0.0
  0
VERTEX
  5
90AB
  8
0
 10
265.19735811319771
 20
263.46155257907441
 30
0.0
  0
VERTEX
  5
90AC
  8
0
 10
265.06298689213207
 20
263.3471191116862
 30
0.0
  0
VERTEX
  5
90AD
  8
0
 10
264.88902328577461
 20
263.18608598795458
 30
0.0
  0
VERTEX
  5
90AE
  8
0
 10
264.6817919057292
 20
262.98430563893839
 30
0.0
  0
VERTEX
  5
90AF
  8
0
 10
264.44882528897938
 20
262.749109435945
 30
0.0
  0
VERTEX
  5
90B0
  8
0
 10
264.19859474566402
 20
262.48905064549967
 30
0.0
  0
VERTEX
  5
90B1
  8
0
 10
263.9401955720466
 20
262.21358777967021
 30
0.0
  0
SEQEND
  5
90B2
  8
0
  0
POLYLINE
  5
90B3
  8
0
 66
     1
 10
0.0
 20
0.0
 30
0.0
 70
   128
  0
VERTEX
  5
90B4
  8
0
 10
236.666996982364
 20
262.21358777967021
 30
0.0
  0
VERTEX
  5
90B5
  8
0
 10
236.40859780874669
 20
262.48905064549967
 30
0.0
  0
VERTEX
  5
90B6
  8
0
 10
236.15836726543131
 20
262.749109435945
 30
0.0
  0
VERTEX
  5
90B7
  8
0
 10
235.92540064868149
 20
262.98430563893839
 30
0.0
  0
VERTEX
  5
90B8
  8
0
 10
235.7181692686361
 20
263.18608598795458
 30
0.0
  0
VERTEX
  5
90B9
  8
0
 10
235.5442056622785
 20
263.3471191116862
 30
0.0
  0
VERTEX
  5
90BA
  8
0
 10
235.40983444121301
 20
263.46155257907441
 30
0.0
  0
VERTEX
  5
90BB
  8
0
 10
235.319941323666
 20
263.52522151556542
 30
0.0
  0
VERTEX
  5
90BC
  8
0
 10
235.2777924579066
 20
263.53581251588389
 30
0.0
  0
SEQEND
  5
90BD
  8
0
  0
POLYLINE
  5
90BE
  8
0
 66
     1
 10
0.0
 20
0.0
 30
0.0
 70
   128
  0
VERTEX
  5
90BF
  8
0
 10
236.666996982364
 20
262.21358777967021
 30
0.0
  0
VERTEX
  5
90C0
  8
0
 10
235.6655411612671
 20
262.22799347725442
 30
0.0
  0
VERTEX
  5
90C1
  8
0
 10
234.02006553527531
 20
262.45809720840981
 30
0.0
  0
VERTEX
  5
90C2
  8
0
 10
232.390847076146
 20
262.86571102228692
 30
0.0
  0
VERTEX
  5
90C3
  8
0
 10
232.37715104636371
 20
262.86984236922791
 30
0.0
  0
SEQEND
  5
90C4
  8
0
  0
POLYLINE
  5
90C5
  8
0
 66
     1
 10
0.0
 20
0.0
 30
0.0
 70
   128
  0
VERTEX
  5
90C6
  8
0
 10
232.37715104636371
 20
262.86984236922791
 30
0.0
  0
VERTEX
  5
90C7
  8
0
 10
232.38467427012139
 20
262.86758111801669
 30
0.0
  0
VERTEX
  5
90C8
  8
0
 10
233.13945533749279
 20
262.7435475775294
 30
0.0
  0
VERTEX
  5
90C9
  8
0
 10
234.20413957950291
 20
262.89931314077899
 30
0.0
  0
VERTEX
  5
90CA
  8
0
 10
234.83356555965361
 20
263.1970942207866
 30
0.0
  0
VERTEX
  5
90CB
  8
0
 10
235.2777924579066
 20
263.53581251588389
 30
0.0
  0
SEQEND
  5
90CC
  8
0
  0
POLYLINE
  5
90CD
  8
0
 66
     1
 10
0.0
 20
0.0
 30
0.0
 70
   128
  0
VERTEX
  5
90CE
  8
0
 10
236.1451965015811
 20
379.46739049640217
 30
0.0
  0
VERTEX
  5
90CF
  8
0
 10
235.72922779288709
 20
380.3828843125396
 30
0.0
  0
VERTEX
  5
90D0
  8
0
 10
235.2777924579066
 20
380.90758027520701
 30
0.0
  0
SEQEND
  5
90D1
  8
0
  0
POLYLINE
  5
90D2
  8
0
 66
     1
 10
0.0
 20
0.0
 30
0.0
 70
   128
  0
VERTEX
  5
90D3
  8
0
 10
264.46199605282959
 20
264.97600229468873
 30
0.0
  0
VERTEX
  5
90D4
  8
0
 10
264.87796476152357
 20
264.06050847855141
 30
0.0
  0
VERTEX
  5
90D5
  8
0
 10
265.32940009650412
 20
263.53581251588389
 30
0.0
  0
SEQEND
  5
90D6
  8
0
  0
POLYLINE
  5
90D7
  8
0
 66
     1
 10
0.0
 20
0.0
 30
0.0
 70
   128
  0
VERTEX
  5
90D8
  8
0
 10
265.32940009650412
 20
380.90758027520701
 30
0.0
  0
VERTEX
  5
90D9
  8
0
 10
264.7124100666922
 20
380.1074996778064
 30
0.0
  0
VERTEX
  5
90DA
  8
0
 10
264.46199605282959
 20
379.46739049640217
 30
0.0
  0
SEQEND
  5
90DB
  8
0
  0
POLYLINE
  5
90DC
  8
0
 66
     1
 10
0.0
 20
0.0
 30
0.0
 70
   128
  0
VERTEX
  5
90DD
  8
0
 10
235.2777924579066
 20
263.53581251588389
 30
0.0
  0
VERTEX
  5
90DE
  8
0
 10
235.8947824877184
 20
264.33589311328461
 30
0.0
  0
VERTEX
  5
90DF
  8
0
 10
236.1451965015811
 20
264.97600229468873
 30
0.0
  0
SEQEND
  5
90E0
  8
0
  0
CIRCLE
  5
90E1
  8
0
 10
250.30359627720529
 20
322.22169639554539
 30
0.0
 40
79.786648758856813
  0
POLYLINE
  5
90E2
  8
0
 66
     1
 10
0.0
 20
0.0
 30
0.0
 70
   128
  0
VERTEX
  5
90E3
  8
0
 10
236.42049266066971
 20
305.1553722658449
 30
0.0
  0
VERTEX
  5
90E4
  8
0
 10
236.92890910473281
 20
304.76792158570822
 30
0.0
  0
VERTEX
  5
90E5
  8
0
 10
238.142187726168
 20
303.94312741246762
 30
0.0
  0
SEQEND
  5
90E6
  8
0
  0
ARC
  5
90E7
  8
0
 10
250.30359627720529
 20
322.22169639554562
 30
0.0
 40
21.999999999999972
 50
129.12764560091989
 51
230.87235439908059
  0
LINE
  5
90E8
  8
0
 10
238.1421872828312
 20
340.50026521421751
 30
0.0
 11
236.42049228113979
 21
339.28802064637421
 31
0.0
  0
ARC
  5
90E9
  8
0
 10
250.30359627720529
 20
322.22169639554562
 30
0.0
 40
21.954633834053642
 50
56.36270596387822
 51
123.6372940361218
  0
POLYLINE
  5
90EA
  8
0
 66
     1
 10
0.0
 20
0.0
 30
0.0
 70
   128
  0
VERTEX
  5
90EB
  8
0
 10
264.18669989374098
 20
339.28802052524622
 30
0.0
  0
VERTEX
  5
90EC
  8
0
 10
263.67828344967779
 20
339.67547120538291
 30
0.0
  0
VERTEX
  5
90ED
  8
0
 10
262.46500482824263
 20
340.50026537862362
 30
0.0
  0
SEQEND
  5
90EE
  8
0
  0
ARC
  5
90EF
  8
0
 10
250.30359627720529
 20
322.22169639554562
 30
0.0
 40
22.0
 50
309.1276456009204
 51
50.872354399080109
  0
LINE
  5
90F0
  8
0
 10
262.46500527157968
 20
303.94312757687362
 30
0.0
 11
264.1867002732713
 21
305.15537214471692
 31
0.0
  0
ARC
  5
90F1
  8
0
 10
250.30359627720529
 20
322.22169639554562
 30
0.0
 40
21.954633834053642
 50
236.36270596388141
 51
303.63729403612177
  0
CIRCLE
  5
90F2
  8
0
 10
250.30359627720529
 20
322.22169639554562
 30
0.0
 40
20.99999999999994
  0
POLYLINE
  5
90F3
  8
0
 66
     1
 10
0.0
 20
0.0
 30
0.0
 70
   128
  0
VERTEX
  5
90F4
  8
0
 10
236.1894957911652
 20
339.85321970668372
 30
0.0
  0
VERTEX
  5
90F5
  8
0
 10
236.25969702419459
 20
339.7706672736698
 30
0.0
  0
VERTEX
  5
90F6
  8
0
 10
236.32260600146469
 20
339.68364821758797
 30
0.0
  0
VERTEX
  5
90F7
  8
0
 10
236.3752601858657
 20
339.59626408305701
 30
0.0
  0
VERTEX
  5
90F8
  8
0
 10
236.41517760273629
 20
339.51263131585659
 30
0.0
  0
VERTEX
  5
90F9
  8
0
 10
236.44047698047581
 20
339.4366931357676
 30
0.0
  0
VERTEX
  5
90FA
  8
0
 10
236.44996622618851
 20
339.3720258214766
 30
0.0
  0
VERTEX
  5
90FB
  8
0
 10
236.44319830503881
 20
339.32167852309283
 30
0.0
  0
VERTEX
  5
90FC
  8
0
 10
236.42049266066971
 20
339.28802052524622
 30
0.0
  0
SEQEND
  5
90FD
  8
0
  0
POLYLINE
  5
90FE
  8
0
 66
     1
 10
0.0
 20
0.0
 30
0.0
 70
   128
  0
VERTEX
  5
90FF
  8
0
 10
238.142187726168
 20
340.50026537862362
 30
0.0
  0
VERTEX
  5
9100
  8
0
 10
238.11529206153571
 20
340.54068850365218
 30
0.0
  0
VERTEX
  5
9101
  8
0
 10
238.07500863489329
 20
340.60123378422787
 30
0.0
  0
VERTEX
  5
9102
  8
0
 10
238.02360801067769
 20
340.67848885443749
 30
0.0
  0
VERTEX
  5
9103
  8
0
 10
237.9639875334185
 20
340.76809884992178
 30
0.0
  0
VERTEX
  5
9104
  8
0
 10
237.899507414965
 20
340.86501227703633
 30
0.0
  0
VERTEX
  5
9105
  8
0
 10
237.83380353864851
 20
340.9637659975582
 30
0.0
  0
VERTEX
  5
9106
  8
0
 10
237.77057791170299
 20
341.05879256513651
 30
0.0
  0
VERTEX
  5
9107
  8
0
 10
237.71339656826669
 20
341.14473687496718
 30
0.0
  0
SEQEND
  5
9108
  8
0
  0
POLYLINE
  5
9109
  8
0
 66
     1
 10
0.0
 20
0.0
 30
0.0
 70
   128
  0
VERTEX
  5
910A
  8
0
 10
264.41769676324537
 20
304.59017308440741
 30
0.0
  0
VERTEX
  5
910B
  8
0
 10
264.34749553021612
 20
304.67272551742133
 30
0.0
  0
VERTEX
  5
910C
  8
0
 10
264.28458655294588
 20
304.7597445735031
 30
0.0
  0
VERTEX
  5
910D
  8
0
 10
264.2319323685449
 20
304.84712870803412
 30
0.0
  0
VERTEX
  5
910E
  8
0
 10
264.19201495167431
 20
304.93076147523459
 30
0.0
  0
VERTEX
  5
910F
  8
0
 10
264.16671557393488
 20
305.00669965532359
 30
0.0
  0
VERTEX
  5
9110
  8
0
 10
264.15722632822212
 20
305.07136696961459
 30
0.0
  0
VERTEX
  5
9111
  8
0
 10
264.16399424937191
 20
305.1217142679983
 30
0.0
  0
VERTEX
  5
9112
  8
0
 10
264.18669989374098
 20
305.1553722658449
 30
0.0
  0
SEQEND
  5
9113
  8
0
  0
POLYLINE
  5
9114
  8
0
 66
     1
 10
0.0
 20
0.0
 30
0.0
 70
   128
  0
VERTEX
  5
9115
  8
0
 10
262.46500482824263
 20
303.94312741246762
 30
0.0
  0
VERTEX
  5
9116
  8
0
 10
262.491900492875
 20
303.90270428743901
 30
0.0
  0
VERTEX
  5
9117
  8
0
 10
262.53218391951742
 20
303.8421590068632
 30
0.0
  0
VERTEX
  5
9118
  8
0
 10
262.58358454373302
 20
303.7649039366537
 30
0.0
  0
VERTEX
  5
9119
  8
0
 10
262.64320502099213
 20
303.6752939411694
 30
0.0
  0
VERTEX
  5
911A
  8
0
 10
262.70768513944557
 20
303.57838051405491
 30
0.0
  0
VERTEX
  5
911B
  8
0
 10
262.77338901576218
 20
303.47962679353287
 30
0.0
  0
VERTEX
  5
911C
  8
0
 10
262.83661464270767
 20
303.38460022595461
 30
0.0
  0
VERTEX
  5
911D
  8
0
 10
262.89379598614391
 20
303.29865591612401
 30
0.0
  0
SEQEND
  5
911E
  8
0
  0
POLYLINE
  5
911F
  8
0
 66
     1
 10
0.0
 20
0.0
 30
0.0
 70
   128
  0
VERTEX
  5
9120
  8
0
 10
262.46500482824263
 20
340.50026537862362
 30
0.0
  0
VERTEX
  5
9121
  8
0
 10
262.491900492875
 20
340.54068850365218
 30
0.0
  0
VERTEX
  5
9122
  8
0
 10
262.53218391951742
 20
340.60123378422787
 30
0.0
  0
VERTEX
  5
9123
  8
0
 10
262.58358454373302
 20
340.67848885443749
 30
0.0
  0
VERTEX
  5
9124
  8
0
 10
262.64320502099213
 20
340.76809884992178
 30
0.0
  0
VERTEX
  5
9125
  8
0
 10
262.70768513944557
 20
340.86501227703633
 30
0.0
  0
VERTEX
  5
9126
  8
0
 10
262.77338901576218
 20
340.9637659975582
 30
0.0
  0
VERTEX
  5
9127
  8
0
 10
262.83661464270767
 20
341.05879256513651
 30
0.0
  0
VERTEX
  5
9128
  8
0
 10
262.89379598614391
 20
341.14473687496718
 30
0.0
  0
SEQEND
  5
9129
  8
0
  0
POLYLINE
  5
912A
  8
0
 66
     1
 10
0.0
 20
0.0
 30
0.0
 70
   128
  0
VERTEX
  5
912B
  8
0
 10
264.18669989374098
 20
339.28802052524622
 30
0.0
  0
VERTEX
  5
912C
  8
0
 10
264.16399424937191
 20
339.32167852309283
 30
0.0
  0
VERTEX
  5
912D
  8
0
 10
264.15722632822212
 20
339.3720258214766
 30
0.0
  0
VERTEX
  5
912E
  8
0
 10
264.16671557393488
 20
339.4366931357676
 30
0.0
  0
VERTEX
  5
912F
  8
0
 10
264.19201495167431
 20
339.51263131585659
 30
0.0
  0
VERTEX
  5
9130
  8
0
 10
264.2319323685449
 20
339.59626408305701
 30
0.0
  0
VERTEX
  5
9131
  8
0
 10
264.28458655294588
 20
339.68364821758797
 30
0.0
  0
VERTEX
  5
9132
  8
0
 10
264.34749553021612
 20
339.7706672736698
 30
0.0
  0
VERTEX
  5
9133
  8
0
 10
264.41769676324537
 20
339.85321970668372
 30
0.0
  0
SEQEND
  5
9134
  8
0
  0
POLYLINE
  5
9135
  8
0
 66
     1
 10
0.0
 20
0.0
 30
0.0
 70
   128
  0
VERTEX
  5
9136
  8
0
 10
238.142187726168
 20
303.94312741246762
 30
0.0
  0
VERTEX
  5
9137
  8
0
 10
238.11529206153571
 20
303.90270428743901
 30
0.0
  0
VERTEX
  5
9138
  8
0
 10
238.07500863489329
 20
303.8421590068632
 30
0.0
  0
VERTEX
  5
9139
  8
0
 10
238.02360801067769
 20
303.7649039366537
 30
0.0
  0
VERTEX
  5
913A
  8
0
 10
237.9639875334185
 20
303.6752939411694
 30
0.0
  0
VERTEX
  5
913B
  8
0
 10
237.899507414965
 20
303.57838051405491
 30
0.0
  0
VERTEX
  5
913C
  8
0
 10
237.83380353864851
 20
303.47962679353287
 30
0.0
  0
VERTEX
  5
913D
  8
0
 10
237.77057791170299
 20
303.38460022595461
 30
0.0
  0
VERTEX
  5
913E
  8
0
 10
237.71339656826669
 20
303.29865591612401
 30
0.0
  0
SEQEND
  5
913F
  8
0
  0
POLYLINE
  5
9140
  8
0
 66
     1
 10
0.0
 20
0.0
 30
0.0
 70
   128
  0
VERTEX
  5
9141
  8
0
 10
236.42049266066971
 20
305.1553722658449
 30
0.0
  0
VERTEX
  5
9142
  8
0
 10
236.44319830503881
 20
305.1217142679983
 30
0.0
  0
VERTEX
  5
9143
  8
0
 10
236.44996622618851
 20
305.07136696961459
 30
0.0
  0
VERTEX
  5
9144
  8
0
 10
236.44047698047581
 20
305.00669965532359
 30
0.0
  0
VERTEX
  5
9145
  8
0
 10
236.41517760273629
 20
304.93076147523459
 30
0.0
  0
VERTEX
  5
9146
  8
0
 10
236.3752601858657
 20
304.84712870803412
 30
0.0
  0
VERTEX
  5
9147
  8
0
 10
236.32260600146469
 20
304.7597445735031
 30
0.0
  0
VERTEX
  5
9148
  8
0
 10
236.25969702419459
 20
304.67272551742133
 30
0.0
  0
VERTEX
  5
9149
  8
0
 10
236.1894957911652
 20
304.59017308440741
 30
0.0
  0
SEQEND
  5
914A
  8
0
  0
CIRCLE
  5
916B
  8
3
 10
250.30359627720529
 20
392.22169639554551
 30
0.0
 40
4.0
  0
LINE
  5
916C
  8
1
 10
509.30359627720532
 20
322.22169639554562
 30
0.0
 11
450.3035962772052
 21
322.22169639554539
 31
0.0
  0
ARC
  5
916D
  8
0
 10
464.8035962772048
 20
397.72169639554539
 30
0.0
 40
4.5
 50
0.0
 51
107.7137270346244
  0
ARC
  5
916E
  8
0
 10
464.80359627720549
 20
246.72169639554551
 30
0.0
 40
4.5
 50
252.2862729653757
 51
0.0
  0
LINE
  5
916F
  8
0
 10
463.43442046008312
 20
402.00834515440232
 30
0.0
 11
461.69507369181741
 21
401.45278959884672
 31
0.0
  0
LINE
  5
9170
  8
0
 10
461.6950736918181
 20
242.99060319224421
 30
0.0
 11
463.43442046008357
 21
242.43504763668861
 31
0.0
  0
ARC
  5
9171
  8
0
 10
462.3035962772048
 20
399.54761237268821
 30
0.0
 40
2.0000000000000262
 50
107.7137270346244
 51
180.0000000000004
  0
ARC
  5
9172
  8
0
 10
462.30359627720549
 20
244.89578041840269
 30
0.0
 40
2.0
 50
180.0000000000004
 51
252.2862729653757
  0
POLYLINE
  5
9173
  8
0
 66
     1
 10
0.0
 20
0.0
 30
0.0
 70
   128
  0
VERTEX
  5
9174
  8
0
 10
469.30359627720497
 20
356.95278033625669
 30
0.0
  0
VERTEX
  5
9175
  8
0
 10
471.76161393937258
 20
351.79720075812872
 30
0.0
  0
VERTEX
  5
9176
  8
0
 10
473.44627216872362
 20
348.44625556853339
 30
0.0
  0
VERTEX
  5
9177
  8
0
 10
475.22624567565111
 20
344.96485816326668
 30
0.0
  0
VERTEX
  5
9178
  8
0
 10
476.7806230526844
 20
341.85550363746228
 30
0.0
  0
VERTEX
  5
9179
  8
0
 10
477.4969460856596
 20
340.33280985441752
 30
0.0
  0
SEQEND
  5
917A
  8
0
  0
POLYLINE
  5
917B
  8
0
 66
     1
 10
0.0
 20
0.0
 30
0.0
 70
   128
  0
VERTEX
  5
917C
  8
0
 10
477.496037114827
 20
304.10927908506932
 30
0.0
  0
VERTEX
  5
917D
  8
0
 10
476.92623161193552
 20
302.88707653072419
 30
0.0
  0
VERTEX
  5
917E
  8
0
 10
475.65227918740919
 20
300.3190644272857
 30
0.0
  0
VERTEX
  5
917F
  8
0
 10
473.96984309372118
 20
297.02107423928311
 30
0.0
  0
VERTEX
  5
9180
  8
0
 10
472.18411960121807
 20
293.49905813124712
 30
0.0
  0
VERTEX
  5
9181
  8
0
 10
470.6019683223646
 20
290.23481162276789
 30
0.0
  0
VERTEX
  5
9182
  8
0
 10
469.30359627720549
 20
287.33750486395201
 30
0.0
  0
SEQEND
  5
9183
  8
0
  0
ARC
  5
9184
  8
0
 10
532.60246287423865
 20
255.1122064268807
 30
0.0
 40
65.0
 50
136.24151693731801
 51
166.8628279981225
  0
ARC
  5
9185
  8
0
 10
532.6024628742382
 20
389.33118636421062
 30
0.0
 40
64.999999999999986
 50
193.13717200187759
 51
223.75848306268449
  0
ARC
  5
9186
  8
0
 10
499.30359627720509
 20
341.22169639554562
 30
0.0
 40
1.000000000000056
 50
0.0
 51
90.0
  0
ARC
  5
9187
  8
0
 10
499.30359627720532
 20
303.22169639554562
 30
0.0
 40
1.000000000000056
 50
270.0
 51
0.0
  0
LINE
  5
9188
  8
0
 10
499.30385849204828
 20
342.2216963611674
 30
0.0
 11
487.30359584507141
 21
342.22169594851073
 31
0.0
  0
LINE
  5
9189
  8
0
 10
487.30359584507158
 20
302.22169684258029
 30
0.0
 11
499.30385849213508
 21
302.2216964299239
 31
0.0
  0
ARC
  5
918A
  8
0
 10
486.01659157471698
 20
299.72169639554562
 30
0.0
 40
0.5000000000000135
 50
96.113459376187407
 51
136.24151693731801
  0
ARC
  5
918B
  8
0
 10
486.01659157471681
 20
344.72169639554551
 30
0.0
 40
0.4999999999999988
 50
223.75848306268131
 51
263.88654062381909
  0
ARC
  5
918C
  8
0
 10
485.80359627720532
 20
301.71032230386447
 30
0.0
 40
1.5
 50
276.11345937618739
 51
0.0
  0
ARC
  5
918D
  8
0
 10
485.80359627720497
 20
342.73307048722648
 30
0.0
 40
1.500000000000103
 50
0.0
 51
83.886540623809339
  0
LINE
  5
918E
  8
0
 10
469.3035962772048
 20
397.72169639519592
 30
0.0
 11
469.30359627720549
 21
246.72169639554551
 31
0.0
  0
LINE
  5
918F
  8
0
 10
463.43442046008312
 20
402.00834515440232
 30
0.0
 11
463.43442046008357
 21
242.43504763668861
 31
0.0
  0
LINE
  5
9190
  8
0
 10
461.69507369181741
 20
401.45278959884672
 30
0.0
 11
461.6950736918181
 21
242.99060319224421
 31
0.0
  0
LINE
  5
9191
  8
0
 10
460.3035962772048
 20
399.54761237268821
 30
0.0
 11
460.30359627720549
 21
244.89578041840269
 31
0.0
  0
POLYLINE
  5
9192
  8
0
 66
     1
 10
0.0
 20
0.0
 30
0.0
 70
   128
  0
VERTEX
  5
9193
  8
0
 10
469.3035962772052
 20
362.30941453342552
 30
0.0
  0
VERTEX
  5
9194
  8
0
 10
472.50403821882401
 20
355.07378729072138
 30
0.0
  0
VERTEX
  5
9195
  8
0
 10
475.26340730902342
 20
349.61099365737959
 30
0.0
  0
VERTEX
  5
9196
  8
0
 10
477.22380780097632
 20
345.95742264774378
 30
0.0
  0
VERTEX
  5
9197
  8
0
 10
479.09829937335638
 20
342.31681192305632
 30
0.0
  0
VERTEX
  5
9198
  8
0
 10
480.6953387748876
 20
338.64374460664328
 30
0.0
  0
VERTEX
  5
9199
  8
0
 10
481.61431573745398
 20
335.60259735223588
 30
0.0
  0
VERTEX
  5
919A
  8
0
 10
481.96905278083472
 20
332.44789300498309
 30
0.0
  0
SEQEND
  5
919B
  8
0
  0
POLYLINE
  5
919C
  8
0
 66
     1
 10
0.0
 20
0.0
 30
0.0
 70
   128
  0
VERTEX
  5
919D
  8
0
 10
477.76339002367638
 20
339.85321970668377
 30
0.0
  0
VERTEX
  5
919E
  8
0
 10
478.62477027293829
 20
338.4887110629374
 30
0.0
  0
VERTEX
  5
919F
  8
0
 10
479.57867183205281
 20
337.07128653314652
 30
0.0
  0
VERTEX
  5
91A0
  8
0
 10
480.68107836362509
 20
335.2712085658008
 30
0.0
  0
VERTEX
  5
91A1
  8
0
 10
481.6320723336616
 20
333.33168087539019
 30
0.0
  0
VERTEX
  5
91A2
  8
0
 10
481.67600095686112
 20
333.22494292643609
 30
0.0
  0
VERTEX
  5
91A3
  8
0
 10
481.93301804777769
 20
332.55058715131821
 30
0.0
  0
VERTEX
  5
91A4
  8
0
 10
481.96139358398108
 20
332.46991878387269
 30
0.0
  0
VERTEX
  5
91A5
  8
0
 10
481.96905278083472
 20
332.44789300498309
 30
0.0
  0
SEQEND
  5
91A6
  8
0
  0
POLYLINE
  5
91A7
  8
0
 66
     1
 10
0.0
 20
0.0
 30
0.0
 70
   128
  0
VERTEX
  5
91A8
  8
0
 10
477.5100050908008
 20
340.33923411753722
 30
0.0
  0
VERTEX
  5
91A9
  8
0
 10
477.53754988726757
 20
340.2730133571917
 30
0.0
  0
VERTEX
  5
91AA
  8
0
 10
477.64483452257298
 20
340.06588721659722
 30
0.0
  0
VERTEX
  5
91AB
  8
0
 10
477.76339002367638
 20
339.85321970668377
 30
0.0
  0
SEQEND
  5
91AC
  8
0
  0
LINE
  5
91AD
  8
0
 10
470.49152277824072
 20
354.54917328444049
 30
0.0
 11
470.30359678384451
 21
354.94874792185362
 31
0.0
  0
POLYLINE
  5
91AE
  8
0
 66
     1
 10
0.0
 20
0.0
 30
0.0
 70
   128
  0
VERTEX
  5
91AF
  8
0
 10
469.30359627720549
 20
278.16110725598992
 30
0.0
  0
VERTEX
  5
91B0
  8
0
 10
471.06804497954067
 20
282.83313663688227
 30
0.0
  0
VERTEX
  5
91B1
  8
0
 10
473.7091975700539
 20
288.28611226764252
 30
0.0
  0
VERTEX
  5
91B2
  8
0
 10
476.68183207925972
 20
293.5532890447671
 30
0.0
  0
VERTEX
  5
91B3
  8
0
 10
479.71726194438162
 20
298.7108845451171
 30
0.0
  0
VERTEX
  5
91B4
  8
0
 10
482.54679687735262
 20
303.83511820819922
 30
0.0
  0
VERTEX
  5
91B5
  8
0
 10
483.8601740491074
 20
306.71430939820351
 30
0.0
  0
VERTEX
  5
91B6
  8
0
 10
484.73248057481459
 20
309.66552907612862
 30
0.0
  0
VERTEX
  5
91B7
  8
0
 10
484.96113703068909
 20
311.99549978610821
 30
0.0
  0
SEQEND
  5
91B8
  8
0
  0
POLYLINE
  5
91B9
  8
0
 66
     1
 10
0.0
 20
0.0
 30
0.0
 70
   128
  0
VERTEX
  5
91BA
  8
0
 10
485.65546036180672
 20
307.57124351349421
 30
0.0
  0
VERTEX
  5
91BB
  8
0
 10
485.64088702615908
 20
308.90186319139542
 30
0.0
  0
VERTEX
  5
91BC
  8
0
 10
485.43461211439779
 20
310.30345710006299
 30
0.0
  0
VERTEX
  5
91BD
  8
0
 10
485.23085736152348
 20
311.13500243064698
 30
0.0
  0
VERTEX
  5
91BE
  8
0
 10
484.96876269992998
 20
311.97346376267018
 30
0.0
  0
VERTEX
  5
91BF
  8
0
 10
484.96113703068909
 20
311.99549978610821
 30
0.0
  0
SEQEND
  5
91C0
  8
0
  0
POLYLINE
  5
91C1
  8
0
 66
     1
 10
0.0
 20
0.0
 30
0.0
 70
   128
  0
VERTEX
  5
91C2
  8
0
 10
485.65546036180672
 20
307.57124351349421
 30
0.0
  0
VERTEX
  5
91C3
  8
0
 10
484.72261600610432
 20
304.99239454057761
 30
0.0
  0
VERTEX
  5
91C4
  8
0
 10
483.54572974559483
 20
302.45938712742873
 30
0.0
  0
VERTEX
  5
91C5
  8
0
 10
480.74921951111969
 20
297.34721595433302
 30
0.0
  0
VERTEX
  5
91C6
  8
0
 10
477.9286047857683
 20
292.3638057151133
 30
0.0
  0
VERTEX
  5
91C7
  8
0
 10
475.23002684530428
 20
287.2285768577151
 30
0.0
  0
VERTEX
  5
91C8
  8
0
 10
472.74640374299702
 20
281.71037884440949
 30
0.0
  0
VERTEX
  5
91C9
  8
0
 10
470.68003178056892
 20
276.01382510748442
 30
0.0
  0
VERTEX
  5
91CA
  8
0
 10
469.30359627720549
 20
270.89960682444899
 30
0.0
  0
SEQEND
  5
91CB
  8
0
  0
POLYLINE
  5
91CC
  8
0
 66
     1
 10
0.0
 20
0.0
 30
0.0
 70
   128
  0
VERTEX
  5
91CD
  8
0
 10
477.76339002367672
 20
304.59017308440752
 30
0.0
  0
VERTEX
  5
91CE
  8
0
 10
477.58488715109053
 20
304.2642120459372
 30
0.0
  0
VERTEX
  5
91CF
  8
0
 10
477.5091277849358
 20
304.10319941130223
 30
0.0
  0
SEQEND
  5
91D0
  8
0
  0
POLYLINE
  5
91D1
  8
0
 66
     1
 10
0.0
 20
0.0
 30
0.0
 70
   128
  0
VERTEX
  5
91D2
  8
0
 10
481.969052780835
 20
311.99549978610821
 30
0.0
  0
VERTEX
  5
91D3
  8
0
 10
481.96139358398142
 20
311.9734740072185
 30
0.0
  0
VERTEX
  5
91D4
  8
0
 10
481.93301804777798
 20
311.89280563977297
 30
0.0
  0
VERTEX
  5
91D5
  8
0
 10
481.67600095686129
 20
311.21844986465521
 30
0.0
  0
VERTEX
  5
91D6
  8
0
 10
481.63207233366188
 20
311.11171191570111
 30
0.0
  0
VERTEX
  5
91D7
  8
0
 10
480.68107836362537
 20
309.17218422529038
 30
0.0
  0
VERTEX
  5
91D8
  8
0
 10
479.57867183205298
 20
307.37210625794472
 30
0.0
  0
VERTEX
  5
91D9
  8
0
 10
478.62477027293858
 20
305.95468172815379
 30
0.0
  0
VERTEX
  5
91DA
  8
0
 10
477.76339002367672
 20
304.59017308440752
 30
0.0
  0
SEQEND
  5
91DB
  8
0
  0
POLYLINE
  5
91DC
  8
0
 66
     1
 10
0.0
 20
0.0
 30
0.0
 70
   128
  0
VERTEX
  5
91DD
  8
0
 10
481.969052780835
 20
311.99549978610821
 30
0.0
  0
VERTEX
  5
91DE
  8
0
 10
481.77344337519821
 20
309.7140304931695
 30
0.0
  0
VERTEX
  5
91DF
  8
0
 10
481.23937085684952
 20
307.42052664992161
 30
0.0
  0
VERTEX
  5
91E0
  8
0
 10
480.4459622543734
 20
305.15935832646431
 30
0.0
  0
VERTEX
  5
91E1
  8
0
 10
478.25446896669092
 20
300.34013280656882
 30
0.0
  0
VERTEX
  5
91E2
  8
0
 10
475.74581750151327
 20
295.52460091200408
 30
0.0
  0
VERTEX
  5
91E3
  8
0
 10
473.17760795768908
 20
290.64831139531663
 30
0.0
  0
VERTEX
  5
91E4
  8
0
 10
470.80744229671183
 20
285.64682604756882
 30
0.0
  0
VERTEX
  5
91E5
  8
0
 10
469.30359627720549
 20
281.78960833440948
 30
0.0
  0
SEQEND
  5
91E6
  8
0
  0
POLYLINE
  5
91E7
  8
0
 66
     1
 10
0.0
 20
0.0
 30
0.0
 70
   128
  0
VERTEX
  5
91E8
  8
0
 10
469.30359627720497
 20
373.36949174316419
 30
0.0
  0
VERTEX
  5
91E9
  8
0
 10
470.39852276858483
 20
369.34209244337609
 30
0.0
  0
VERTEX
  5
91EA
  8
0
 10
471.60097383376751
 20
365.70725964394143
 30
0.0
  0
VERTEX
  5
91EB
  8
0
 10
473.42202611681608
 20
361.1232415029101
 30
0.0
  0
VERTEX
  5
91EC
  8
0
 10
475.50180539902829
 20
356.66630046453997
 30
0.0
  0
VERTEX
  5
91ED
  8
0
 10
477.84317456599859
 20
352.22980195668282
 30
0.0
  0
VERTEX
  5
91EE
  8
0
 10
480.28314657923369
 20
347.91045637813153
 30
0.0
  0
VERTEX
  5
91EF
  8
0
 10
483.28788191494141
 20
342.4902595767075
 30
0.0
  0
VERTEX
  5
91F0
  8
0
 10
484.61373322126059
 20
339.70787564304408
 30
0.0
  0
VERTEX
  5
91F1
  8
0
 10
485.65546036180638
 20
336.87214927759709
 30
0.0
  0
SEQEND
  5
91F2
  8
0
  0
POLYLINE
  5
91F3
  8
0
 66
     1
 10
0.0
 20
0.0
 30
0.0
 70
   128
  0
VERTEX
  5
91F4
  8
0
 10
484.9611370306888
 20
332.44789300498309
 30
0.0
  0
VERTEX
  5
91F5
  8
0
 10
484.96876269992981
 20
332.46992902842112
 30
0.0
  0
VERTEX
  5
91F6
  8
0
 10
485.14114305791048
 20
333.00080897298398
 30
0.0
  0
VERTEX
  5
91F7
  8
0
 10
485.29128902074478
 20
333.53202046838351
 30
0.0
  0
VERTEX
  5
91F8
  8
0
 10
485.60897991475252
 20
335.2135783248836
 30
0.0
  0
VERTEX
  5
91F9
  8
0
 10
485.65546036180638
 20
336.87214927759709
 30
0.0
  0
SEQEND
  5
91FA
  8
0
  0
POLYLINE
  5
91FB
  8
0
 66
     1
 10
0.0
 20
0.0
 30
0.0
 70
   128
  0
VERTEX
  5
91FC
  8
0
 10
484.9611370306888
 20
332.44789300498309
 30
0.0
  0
VERTEX
  5
91FD
  8
0
 10
484.60690476414351
 20
335.3344965913588
 30
0.0
  0
VERTEX
  5
91FE
  8
0
 10
483.67642783042578
 20
338.18858118739672
 30
0.0
  0
VERTEX
  5
91FF
  8
0
 10
481.7825833749452
 20
342.13699029770441
 30
0.0
  0
VERTEX
  5
9200
  8
0
 10
479.54066455778269
 20
346.02533282723971
 30
0.0
  0
VERTEX
  5
9201
  8
0
 10
477.16022640880732
 20
349.92012383428158
 30
0.0
  0
VERTEX
  5
9202
  8
0
 10
474.85082209524302
 20
353.88787837710908
 30
0.0
  0
VERTEX
  5
9203
  8
0
 10
472.1372349601665
 20
359.24654455867341
 30
0.0
  0
VERTEX
  5
9204
  8
0
 10
469.30359627720497
 20
365.97225653969173
 30
0.0
  0
SEQEND
  5
9205
  8
0
  0
POLYLINE
  5
9206
  8
0
 66
     1
 10
0.0
 20
0.0
 30
0.0
 70
   128
  0
VERTEX
  5
9207
  8
0
 10
477.30359606858877
 20
339.28802052524628
 30
0.0
  0
VERTEX
  5
9208
  8
0
 10
477.15574488457833
 20
339.67547120538302
 30
0.0
  0
VERTEX
  5
9209
  8
0
 10
477.00581498858122
 20
340.50026537862362
 30
0.0
  0
SEQEND
  5
920A
  8
0
  0
LINE
  5
920B
  8
0
 10
477.30359627720497
 20
339.28802064637438
 30
0.0
 11
477.30359627720532
 21
305.15537214471692
 31
0.0
  0
LINE
  5
920C
  8
0
 10
477.00581407008048
 20
303.94312757687368
 30
0.0
 11
477.30359627720532
 21
305.15537214471692
 31
0.0
  0
LINE
  5
920D
  8
0
 10
477.00581407008048
 20
303.00458492096379
 30
0.0
 11
477.00581407008048
 21
303.94312757687368
 31
0.0
  0
LINE
  5
920E
  8
0
 10
477.00581407008048
 20
340.50026521421751
 30
0.0
 11
477.00581407008048
 21
341.4756859775041
 31
0.0
  0
LINE
  5
920F
  8
0
 10
476.30359627720497
 20
342.85377151209241
 30
0.0
 11
476.30359627720532
 21
301.59320169001978
 31
0.0
  0
LINE
  5
9210
  8
0
 10
481.969052780835
 20
311.99549978610821
 30
0.0
 11
484.96113703068909
 21
311.99549978610821
 31
0.0
  0
POLYLINE
  5
9211
  8
0
 66
     1
 10
0.0
 20
0.0
 30
0.0
 70
   128
  0
VERTEX
  5
9212
  8
0
 10
477.303596068589
 20
305.15537226584502
 30
0.0
  0
VERTEX
  5
9213
  8
0
 10
478.18779744621929
 20
306.38570154097619
 30
0.0
  0
VERTEX
  5
9214
  8
0
 10
479.21838224348238
 20
307.67618866649212
 30
0.0
  0
VERTEX
  5
9215
  8
0
 10
480.49105875608137
 20
309.3912163936788
 30
0.0
  0
VERTEX
  5
9216
  8
0
 10
481.63245790120777
 20
311.29308884975262
 30
0.0
  0
VERTEX
  5
9217
  8
0
 10
481.9229038846176
 20
311.89330389735051
 30
0.0
  0
VERTEX
  5
9218
  8
0
 10
481.95966132399258
 20
311.97453105834069
 30
0.0
  0
VERTEX
  5
9219
  8
0
 10
481.969052780835
 20
311.99549978610821
 30
0.0
  0
SEQEND
  5
921A
  8
0
  0
POLYLINE
  5
921B
  8
0
 66
     1
 10
0.0
 20
0.0
 30
0.0
 70
   128
  0
VERTEX
  5
921C
  8
0
 10
481.96905278083472
 20
332.44789300498309
 30
0.0
  0
VERTEX
  5
921D
  8
0
 10
481.95966132399229
 20
332.46886173275061
 30
0.0
  0
VERTEX
  5
921E
  8
0
 10
481.92290388461743
 20
332.55008889374079
 30
0.0
  0
VERTEX
  5
921F
  8
0
 10
481.63245790120749
 20
333.15030394133868
 30
0.0
  0
VERTEX
  5
9220
  8
0
 10
480.4910587560812
 20
335.05217639741238
 30
0.0
  0
VERTEX
  5
9221
  8
0
 10
479.21838224348221
 20
336.76720412459912
 30
0.0
  0
VERTEX
  5
9222
  8
0
 10
478.18779744621901
 20
338.05769125011511
 30
0.0
  0
VERTEX
  5
9223
  8
0
 10
477.30359606858877
 20
339.28802052524628
 30
0.0
  0
SEQEND
  5
9224
  8
0
  0
LINE
  5
9225
  8
0
 10
481.96905278083472
 20
332.44789300498309
 30
0.0
 11
484.9611370306888
 21
332.44789300498309
 31
0.0
  0
POLYLINE
  5
9226
  8
0
 66
     1
 10
0.0
 20
0.0
 30
0.0
 70
   128
  0
VERTEX
  5
9227
  8
0
 10
485.80359653052483
 20
334.93749985483231
 30
0.0
  0
VERTEX
  5
9228
  8
0
 10
485.4645522725263
 20
333.727851528793
 30
0.0
  0
VERTEX
  5
9229
  8
0
 10
484.97049495991848
 20
332.46887290862151
 30
0.0
  0
VERTEX
  5
922A
  8
0
 10
484.9611370306888
 20
332.44789300498309
 30
0.0
  0
SEQEND
  5
922B
  8
0
  0
LINE
  5
922C
  8
0
 10
485.80359627720298
 20
309.50589281648013
 30
0.0
 11
485.80359627720759
 21
334.93749997463249
 31
0.0
  0
POLYLINE
  5
922D
  8
0
 66
     1
 10
0.0
 20
0.0
 30
0.0
 70
   128
  0
VERTEX
  5
922E
  8
0
 10
484.96113703068909
 20
311.99549978610821
 30
0.0
  0
VERTEX
  5
922F
  8
0
 10
484.97049495991882
 20
311.97451988246979
 30
0.0
  0
VERTEX
  5
9230
  8
0
 10
485.46455227252659
 20
310.7155412622983
 30
0.0
  0
VERTEX
  5
9231
  8
0
 10
485.803596530525
 20
309.50589293625887
 30
0.0
  0
SEQEND
  5
9232
  8
0
  0
LINE
  5
9233
  8
0
 10
487.3035962772052
 20
334.07051336696759
 30
0.0
 11
487.3035962772052
 21
310.37287942414372
 31
0.0
  0
POLYLINE
  5
9234
  8
0
 66
     1
 10
0.0
 20
0.0
 30
0.0
 70
   128
  0
VERTEX
  5
9235
  8
0
 10
487.30359584507158
 20
310.37287974741997
 30
0.0
  0
VERTEX
  5
9236
  8
0
 10
487.27477420535502
 20
310.20373852935381
 30
0.0
  0
VERTEX
  5
9237
  8
0
 10
487.18941569742378
 20
310.04109794285841
 30
0.0
  0
VERTEX
  5
9238
  8
0
 10
487.05080043938568
 20
309.89120716240939
 30
0.0
  0
VERTEX
  5
9239
  8
0
 10
486.8642565276902
 20
309.75982734945359
 30
0.0
  0
VERTEX
  5
923A
  8
0
 10
486.63695142087158
 20
309.6520062723452
 30
0.0
  0
VERTEX
  5
923B
  8
0
 10
486.37762185600218
 20
309.57188831654128
 30
0.0
  0
VERTEX
  5
923C
  8
0
 10
486.0962320533078
 20
309.52255150315108
 30
0.0
  0
VERTEX
  5
923D
  8
0
 10
485.803596530525
 20
309.50589293625887
 30
0.0
  0
SEQEND
  5
923E
  8
0
  0
POLYLINE
  5
923F
  8
0
 66
     1
 10
0.0
 20
0.0
 30
0.0
 70
   128
  0
VERTEX
  5
9240
  8
0
 10
487.30359584507141
 20
334.07051304367133
 30
0.0
  0
VERTEX
  5
9241
  8
0
 10
487.27477420535467
 20
334.23965426173748
 30
0.0
  0
VERTEX
  5
9242
  8
0
 10
487.1894156974235
 20
334.40229484823288
 30
0.0
  0
VERTEX
  5
9243
  8
0
 10
487.05080043938551
 20
334.5521856286818
 30
0.0
  0
VERTEX
  5
9244
  8
0
 10
486.86425652768997
 20
334.68356544163771
 30
0.0
  0
VERTEX
  5
9245
  8
0
 10
486.6369514208713
 20
334.79138651874598
 30
0.0
  0
VERTEX
  5
9246
  8
0
 10
486.37762185600189
 20
334.87150447454991
 30
0.0
  0
VERTEX
  5
9247
  8
0
 10
486.09623205330757
 20
334.92084128794022
 30
0.0
  0
VERTEX
  5
9248
  8
0
 10
485.80359653052483
 20
334.93749985483231
 30
0.0
  0
SEQEND
  5
9249
  8
0
  0
LINE
  5
924A
  8
0
 10
485.65546078944931
 20
300.06750639530259
 30
0.0
 11
485.65546078944931
 21
307.57124351903047
 31
0.0
  0
LINE
  5
924B
  8
0
 10
485.65546078944931
 20
336.87214927206082
 30
0.0
 11
485.65546078944931
 21
344.37588639578843
 31
0.0
  0
LINE
  5
924C
  8
0
 10
500.3035962772052
 20
341.22169633209501
 30
0.0
 11
500.3035962772052
 21
303.22169639554562
 31
0.0
  0
LINE
  5
924D
  8
0
 10
499.30359627720509
 20
342.22169639554562
 30
0.0
 11
499.30359627720532
 21
302.22169639554562
 31
0.0
  0
POLYLINE
  5
924E
  8
0
 66
     1
 10
0.0
 20
0.0
 30
0.0
 70
   128
  0
VERTEX
  5
924F
  8
0
 10
477.76339002367672
 20
304.59017308440752
 30
0.0
  0
VERTEX
  5
9250
  8
0
 10
477.76951067563709
 20
304.67272551742138
 30
0.0
  0
VERTEX
  5
9251
  8
0
 10
477.75367819186857
 20
304.75974457350321
 30
0.0
  0
VERTEX
  5
9252
  8
0
 10
477.71663576778587
 20
304.84712870803418
 30
0.0
  0
VERTEX
  5
9253
  8
0
 10
477.6601287018936
 20
304.9307614752347
 30
0.0
  0
VERTEX
  5
9254
  8
0
 10
477.58682243940052
 20
305.00669965532359
 30
0.0
  0
VERTEX
  5
9255
  8
0
 10
477.50017032441309
 20
305.07136696961459
 30
0.0
  0
VERTEX
  5
9256
  8
0
 10
477.40425527509859
 20
305.12171426799841
 30
0.0
  0
VERTEX
  5
9257
  8
0
 10
477.303596068589
 20
305.15537226584502
 30
0.0
  0
SEQEND
  5
9258
  8
0
  0
POLYLINE
  5
9259
  8
0
 66
     1
 10
0.0
 20
0.0
 30
0.0
 70
   128
  0
VERTEX
  5
925A
  8
0
 10
485.96334256645849
 20
307.67132809397521
 30
0.0
  0
VERTEX
  5
925B
  8
0
 10
485.9586775716823
 20
307.96830451127829
 30
0.0
  0
VERTEX
  5
925C
  8
0
 10
485.944812972514
 20
308.27011076745328
 30
0.0
  0
VERTEX
  5
925D
  8
0
 10
485.89107286599102
 20
308.88011401531043
 30
0.0
  0
VERTEX
  5
925E
  8
0
 10
485.803596530525
 20
309.50589293625887
 30
0.0
  0
SEQEND
  5
925F
  8
0
  0
POLYLINE
  5
9260
  8
0
 66
     1
 10
0.0
 20
0.0
 30
0.0
 70
   128
  0
VERTEX
  5
9261
  8
0
 10
485.65546036180672
 20
307.57124351349421
 30
0.0
  0
VERTEX
  5
9262
  8
0
 10
485.68707969453749
 20
307.59124832239689
 30
0.0
  0
VERTEX
  5
9263
  8
0
 10
485.72122198012289
 20
307.60934764531203
 30
0.0
  0
VERTEX
  5
9264
  8
0
 10
485.75762644824198
 20
307.62540457782092
 30
0.0
  0
VERTEX
  5
9265
  8
0
 10
485.79601463344511
 20
307.63929432269867
 30
0.0
  0
VERTEX
  5
9266
  8
0
 10
485.83609316912111
 20
307.65091164049448
 30
0.0
  0
VERTEX
  5
9267
  8
0
 10
485.87755285617533
 20
307.66016712424101
 30
0.0
  0
VERTEX
  5
9268
  8
0
 10
485.92007797625479
 20
307.6669899934227
 30
0.0
  0
VERTEX
  5
9269
  8
0
 10
485.96334256645849
 20
307.67132809397521
 30
0.0
  0
SEQEND
  5
926A
  8
0
  0
POLYLINE
  5
926B
  8
0
 66
     1
 10
0.0
 20
0.0
 30
0.0
 70
   128
  0
VERTEX
  5
926C
  8
0
 10
485.65546036180638
 20
336.87214927759709
 30
0.0
  0
VERTEX
  5
926D
  8
0
 10
485.6870796945372
 20
336.85214446869441
 30
0.0
  0
VERTEX
  5
926E
  8
0
 10
485.72122198012261
 20
336.83404514577933
 30
0.0
  0
VERTEX
  5
926F
  8
0
 10
485.75762644824181
 20
336.81798821327033
 30
0.0
  0
VERTEX
  5
9270
  8
0
 10
485.79601463344483
 20
336.80409846839251
 30
0.0
  0
VERTEX
  5
9271
  8
0
 10
485.83609316912077
 20
336.79248115059681
 30
0.0
  0
VERTEX
  5
9272
  8
0
 10
485.87755285617499
 20
336.78322566685023
 30
0.0
  0
VERTEX
  5
9273
  8
0
 10
485.9200779762545
 20
336.7764027976686
 30
0.0
  0
VERTEX
  5
9274
  8
0
 10
485.96334256645832
 20
336.77206469711598
 30
0.0
  0
SEQEND
  5
9275
  8
0
  0
POLYLINE
  5
9276
  8
0
 66
     1
 10
0.0
 20
0.0
 30
0.0
 70
   128
  0
VERTEX
  5
9277
  8
0
 10
485.80359653052483
 20
334.93749985483231
 30
0.0
  0
VERTEX
  5
9278
  8
0
 10
485.90878848400502
 20
335.72783602413477
 30
0.0
  0
VERTEX
  5
9279
  8
0
 10
485.95937420096777
 20
336.49840487179102
 30
0.0
  0
VERTEX
  5
927A
  8
0
 10
485.96334256645832
 20
336.77206469711598
 30
0.0
  0
SEQEND
  5
927B
  8
0
  0
POLYLINE
  5
927C
  8
0
 66
     1
 10
0.0
 20
0.0
 30
0.0
 70
   128
  0
VERTEX
  5
927D
  8
0
 10
477.30359606858877
 20
339.28802052524628
 30
0.0
  0
VERTEX
  5
927E
  8
0
 10
477.40425527509842
 20
339.32167852309288
 30
0.0
  0
VERTEX
  5
927F
  8
0
 10
477.50017032441292
 20
339.3720258214766
 30
0.0
  0
VERTEX
  5
9280
  8
0
 10
477.58682243940018
 20
339.4366931357676
 30
0.0
  0
VERTEX
  5
9281
  8
0
 10
477.66012870189343
 20
339.51263131585659
 30
0.0
  0
VERTEX
  5
9282
  8
0
 10
477.71663576778559
 20
339.59626408305712
 30
0.0
  0
VERTEX
  5
9283
  8
0
 10
477.7536781918684
 20
339.68364821758809
 30
0.0
  0
VERTEX
  5
9284
  8
0
 10
477.76951067563681
 20
339.77066727366991
 30
0.0
  0
VERTEX
  5
9285
  8
0
 10
477.76339002367638
 20
339.85321970668377
 30
0.0
  0
SEQEND
  5
9286
  8
0
  0
POLYLINE
  5
9287
  8
0
 66
     1
 10
0.0
 20
0.0
 30
0.0
 70
   128
  0
VERTEX
  5
9288
  8
0
 10
485.96334256645849
 20
307.67132809397521
 30
0.0
  0
VERTEX
  5
9289
  8
0
 10
486.23211108562168
 20
307.70702475693759
 30
0.0
  0
VERTEX
  5
928A
  8
0
 10
486.48656610813549
 20
307.77447206911393
 30
0.0
  0
VERTEX
  5
928B
  8
0
 10
486.7182102468293
 20
307.87141622987332
 30
0.0
  0
VERTEX
  5
928C
  8
0
 10
486.91930700507578
 20
307.9946208932692
 30
0.0
  0
VERTEX
  5
928D
  8
0
 10
487.08313782182148
 20
308.13996868219908
 30
0.0
  0
VERTEX
  5
928E
  8
0
 10
487.20423303958592
 20
308.30260740604939
 30
0.0
  0
VERTEX
  5
928F
  8
0
 10
487.27854606178221
 20
308.47710372891959
 30
0.0
  0
VERTEX
  5
9290
  8
0
 10
487.30359584507158
 20
308.65762943413802
 30
0.0
  0
SEQEND
  5
9291
  8
0
  0
LINE
  5
9292
  8
0
 10
487.3035962772052
 20
310.37287942414372
 30
0.0
 11
487.3035962772052
 21
308.65762930216732
 31
0.0
  0
POLYLINE
  5
9293
  8
0
 66
     1
 10
0.0
 20
0.0
 30
0.0
 70
   128
  0
VERTEX
  5
9294
  8
0
 10
487.30359584507141
 20
335.78576335695328
 30
0.0
  0
VERTEX
  5
9295
  8
0
 10
487.27854606178192
 20
335.9662890621716
 30
0.0
  0
VERTEX
  5
9296
  8
0
 10
487.20423303958557
 20
336.14078538504191
 30
0.0
  0
VERTEX
  5
9297
  8
0
 10
487.08313782182131
 20
336.3034241088921
 30
0.0
  0
VERTEX
  5
9298
  8
0
 10
486.9193070050755
 20
336.44877189782198
 30
0.0
  0
VERTEX
  5
9299
  8
0
 10
486.71821024682907
 20
336.57197656121792
 30
0.0
  0
VERTEX
  5
929A
  8
0
 10
486.48656610813532
 20
336.66892072197737
 30
0.0
  0
VERTEX
  5
929B
  8
0
 10
486.2321110856214
 20
336.7363680341536
 30
0.0
  0
VERTEX
  5
929C
  8
0
 10
485.96334256645832
 20
336.77206469711598
 30
0.0
  0
SEQEND
  5
929D
  8
0
  0
LINE
  5
929E
  8
0
 10
487.30359627720509
 20
335.78576348892381
 30
0.0
 11
487.3035962772052
 21
334.07051336696759
 31
0.0
  0
LINE
  5
929F
  8
0
 10
485.963342750339
 20
300.21885287262529
 30
0.0
 11
485.963342750339
 21
307.67132817272432
 31
0.0
  0
LINE
  5
92A0
  8
0
 10
485.963342750339
 20
336.77206461836693
 30
0.0
 11
485.963342750339
 21
344.22453991846601
 31
0.0
  0
LINE
  5
92A1
  8
0
 10
487.3035962772052
 20
308.65762930216732
 30
0.0
 11
487.3035962772052
 21
301.71032230386447
 31
0.0
  0
LINE
  5
92A2
  8
0
 10
487.30359627720509
 20
342.73307048722648
 30
0.0
 11
487.30359627720509
 21
335.78576348892381
 31
0.0
  0
POLYLINE
  5
92A3
  8
0
 66
     1
 10
0.0
 20
0.0
 30
0.0
 70
   128
  0
VERTEX
  5
92A4
  8
0
 10
477.00581498858151
 20
303.94312741246762
 30
0.0
  0
VERTEX
  5
92A5
  8
0
 10
477.11414270517048
 20
303.90270428743901
 30
0.0
  0
VERTEX
  5
92A6
  8
0
 10
477.20797159191778
 20
303.84215900686331
 30
0.0
  0
VERTEX
  5
92A7
  8
0
 10
477.28201173659983
 20
303.76490393665381
 30
0.0
  0
VERTEX
  5
92A8
  8
0
 10
477.31500290748289
 20
303.71258223441191
 30
0.0
  0
SEQEND
  5
92A9
  8
0
  0
POLYLINE
  5
92AA
  8
0
 66
     1
 10
0.0
 20
0.0
 30
0.0
 70
   128
  0
VERTEX
  5
92AB
  8
0
 10
477.00581498858122
 20
340.50026537862362
 30
0.0
  0
VERTEX
  5
92AC
  8
0
 10
477.1141427051702
 20
340.54068850365218
 30
0.0
  0
VERTEX
  5
92AD
  8
0
 10
477.20797159191761
 20
340.60123378422799
 30
0.0
  0
VERTEX
  5
92AE
  8
0
 10
477.28201173659949
 20
340.67848885443749
 30
0.0
  0
VERTEX
  5
92AF
  8
0
 10
477.31412932690768
 20
340.72915839043202
 30
0.0
  0
SEQEND
  5
92B0
  8
0
  0
LINE
  5
A97E
  8
1
 10
250.30359627720529
 20
422.22169639554539
 30
0.0
 11
250.30359627720529
 21
222.22169639554539
 31
0.0
  0
LINE
  5
A97F
  8
1
 10
350.30359627720532
 20
322.22169639554539
 30
0.0
 11
150.30359627720529
 21
322.22169639554539
 31
0.0
  0
LINE
  5
A985
  8
1
 10
259.30359627720532
 20
392.22169639554551
 30
0.0
 11
241.30359627720529
 21
392.22169639554551
 31
0.0
  0
INSERT
  5
A991
  8
0
  2
BATU
 10
0.0
 20
0.0
 30
0.0
 41
0.001
 42
0.001
 43
0.001
  0
POLYLINE
  5
A9CD
  8
0
 66
     1
 10
0.0
 20
0.0
 30
0.0
 70
   128
  0
VERTEX
  5
A9CE
  8
0
 10
262.33976751166779
 20
102.4736196742808
 30
0.0
  0
VERTEX
  5
A9CF
  8
0
 10
262.75763383176741
 20
100.0212544539264
 30
0.0
  0
VERTEX
  5
A9D0
  8
0
 10
263.64519821521458
 20
97.261885363727004
 30
0.0
  0
VERTEX
  5
A9D1
  8
0
 10
264.50639313128409
 20
95.301484871774107
 30
0.0
  0
VERTEX
  5
A9D2
  8
0
 10
265.59265704867062
 20
93.426993299394056
 30
0.0
  0
VERTEX
  5
A9D3
  8
0
 10
266.93192498799982
 20
91.829953897862836
 30
0.0
  0
VERTEX
  5
A9D4
  8
0
 10
268.2330664437693
 20
90.910976935296446
 30
0.0
  0
VERTEX
  5
A9D5
  8
0
 10
269.78242771741571
 20
90.556239891915709
 30
0.0
  0
SEQEND
  5
A9D6
  8
0
  0
POLYLINE
  5
A9D7
  8
0
 66
     1
 10
0.0
 20
0.0
 30
0.0
 70
   128
  0
VERTEX
  5
A9D8
  8
0
 10
269.78242771741571
 20
87.564155642061635
 30
0.0
  0
VERTEX
  5
A9D9
  8
0
 10
268.35777239915552
 20
87.918387908606917
 30
0.0
  0
VERTEX
  5
A9DA
  8
0
 10
267.11515152868452
 20
88.848864842324645
 30
0.0
  0
VERTEX
  5
A9DB
  8
0
 10
265.64645117190298
 20
90.742709297805234
 30
0.0
  0
VERTEX
  5
A9DC
  8
0
 10
264.47616612580242
 20
92.984628114967734
 30
0.0
  0
VERTEX
  5
A9DD
  8
0
 10
263.5741755556744
 20
95.365066263943106
 30
0.0
  0
VERTEX
  5
A9DE
  8
0
 10
262.9103614207786
 20
97.674470577507407
 30
0.0
  0
VERTEX
  5
A9DF
  8
0
 10
262.39827463444891
 20
100.3880577125839
 30
0.0
  0
VERTEX
  5
A9E0
  8
0
 10
262.31878140941598
 20
103.22169639554539
 30
0.0
  0
SEQEND
  5
A9E1
  8
0
  0
POLYLINE
  5
A9E2
  8
0
 66
     1
 10
0.0
 20
0.0
 30
0.0
 70
   128
  0
VERTEX
  5
A9E3
  8
0
 10
261.1479187680892
 20
103.22169639554539
 30
0.0
  0
VERTEX
  5
A9E4
  8
0
 10
260.69007908966961
 20
102.1267699041656
 30
0.0
  0
VERTEX
  5
A9E5
  8
0
 10
260.49389505800423
 20
100.9243188389829
 30
0.0
  0
VERTEX
  5
A9E6
  8
0
 10
260.55585967418369
 20
99.103266555934354
 30
0.0
  0
VERTEX
  5
A9E7
  8
0
 10
260.95146501478371
 20
97.023487273722097
 30
0.0
  0
VERTEX
  5
A9E8
  8
0
 10
261.68461332139191
 20
94.682118106751844
 30
0.0
  0
VERTEX
  5
A9E9
  8
0
 10
262.73570491042551
 20
92.242146093516737
 30
0.0
  0
VERTEX
  5
A9EA
  8
0
 10
264.53317796853003
 20
89.237410757809073
 30
0.0
  0
VERTEX
  5
A9EB
  8
0
 10
265.65502399620232
 20
87.911559451489836
 30
0.0
  0
VERTEX
  5
A9EC
  8
0
 10
266.92203061696711
 20
86.869832310944005
 30
0.0
  0
SEQEND
  5
A9ED
  8
0
  0
POLYLINE
  5
A9EE
  8
0
 66
     1
 10
0.0
 20
0.0
 30
0.0
 70
   128
  0
VERTEX
  5
A9EF
  8
0
 10
262.5909084644598
 20
100.99972989049471
 30
0.0
  0
VERTEX
  5
A9F0
  8
0
 10
262.86962723401012
 20
99.895131025581748
 30
0.0
  0
VERTEX
  5
A9F1
  8
0
 10
263.36893813726118
 20
98.391683954863936
 30
0.0
  0
VERTEX
  5
A9F2
  8
0
 10
264.0880178850573
 20
96.729876656203658
 30
0.0
  0
VERTEX
  5
A9F3
  8
0
 10
265.0430258553904
 20
95.028991062312514
 30
0.0
  0
VERTEX
  5
A9F4
  8
0
 10
265.69468250539722
 20
94.103064570694357
 30
0.0
  0
VERTEX
  5
A9F5
  8
0
 10
266.2955951136035
 20
93.425808657079145
 30
0.0
  0
VERTEX
  5
A9F6
  8
0
 10
266.54978284653839
 20
93.211660344272047
 30
0.0
  0
SEQEND
  5
A9F7
  8
0
  0
LINE
  5
A9F8
  8
0
 10
262.35625801649508
 20
101.8857827374033
 30
0.0
 11
262.35103888478687
 21
102.0718349107794
 31
0.0
  0
POLYLINE
  5
A9F9
  8
0
 66
     1
 10
0.0
 20
0.0
 30
0.0
 70
   128
  0
VERTEX
  5
A9FA
  8
0
 10
269.78242771741571
 20
90.556239891915709
 30
0.0
  0
VERTEX
  5
A9FB
  8
0
 10
269.77140644606772
 20
90.565631348758146
 30
0.0
  0
VERTEX
  5
A9FC
  8
0
 10
269.72843335982981
 20
90.602388788133055
 30
0.0
  0
VERTEX
  5
A9FD
  8
0
 10
269.39719544765171
 20
90.892834771542937
 30
0.0
  0
VERTEX
  5
A9FE
  8
0
 10
268.17574912723722
 20
92.034233916669294
 30
0.0
  0
VERTEX
  5
A9FF
  8
0
 10
266.80899599608603
 20
93.306910429268285
 30
0.0
  0
VERTEX
  5
AA00
  8
0
 10
265.5763076808733
 20
94.337495226531416
 30
0.0
  0
VERTEX
  5
AA01
  8
0
 10
265.4918888774198
 20
94.391210187344939
 30
0.0
  0
SEQEND
  5
AA02
  8
0
  0
POLYLINE
  5
AA03
  8
0
 66
     1
 10
0.0
 20
0.0
 30
0.0
 70
   128
  0
VERTEX
  5
AA04
  8
0
 10
266.53746517416653
 20
93.196729380755826
 30
0.0
  0
VERTEX
  5
AA05
  8
0
 10
266.83844627854052
 20
92.946620840697676
 30
0.0
  0
VERTEX
  5
AA06
  8
0
 10
268.11486484524431
 20
91.844214309125334
 30
0.0
  0
VERTEX
  5
AA07
  8
0
 10
269.3004552465361
 20
90.893220339088828
 30
0.0
  0
VERTEX
  5
AA08
  8
0
 10
269.36058329459843
 20
90.849291715889365
 30
0.0
  0
VERTEX
  5
AA09
  8
0
 10
269.72827317234692
 20
90.592274624972745
 30
0.0
  0
VERTEX
  5
AA0A
  8
0
 10
269.77085324045828
 20
90.563899088769347
 30
0.0
  0
VERTEX
  5
AA0B
  8
0
 10
269.78242771741571
 20
90.556239891915709
 30
0.0
  0
SEQEND
  5
AA0C
  8
0
  0
TEXT
  5
AAB5
  8
0
 62
     3
 10
0.0
 20
0.0
 30
0.0
 40
10.0
  1
STH160
  7
STANDARD1
  0
ENDSEC
  0
EOF
