  0
SECTION
  2
HEADER
  9
$ACADVER
  1
AC1009
  9
$INSBASE
 10
0.0
 20
0.0
 30
0.0
  9
$EXTMIN
 10
0.0
 20
-2.960436562073669
 30
0.0
  9
$EXTMAX
 10
244.64312715928889
 20
139.7849747726022
 30
0.0
  9
$LIMMIN
 10
0.0
 20
0.0
  9
$LIMMAX
 10
390.0
 20
270.0
  9
$ORTHOMODE
 70
     1
  9
$REGENMODE
 70
     1
  9
$FILLMODE
 70
     1
  9
$QTEXTMODE
 70
     0
  9
$MIRRTEXT
 70
     1
  9
$DRAGMODE
 70
     2
  9
$LTSCALE
 40
5.0
  9
$OSMODE
 70
    55
  9
$ATTMODE
 70
     1
  9
$TEXTSIZE
 40
2.5
  9
$TRACEWID
 40
1.0
  9
$TEXTSTYLE
  7
STANDARD
  9
$CLAYER
  8
4
  9
$CELTYPE
  6
BYLAYER
  9
$CECOLOR
 62
   256
  9
$DIMSCALE
 40
1.1999999999999991
  9
$DIMASZ
 40
3.0
  9
$DIMEXO
 40
1.0
  9
$DIMDLI
 40
6.0
  9
$DIMRND
 40
0.0
  9
$DIMDLE
 40
0.0
  9
$DIMEXE
 40
1.0
  9
$DIMTP
 40
495.0
  9
$DIMTM
 40
0.0
  9
$DIMTXT
 40
3.2000000000000002
  9
$DIMCEN
 40
0.0
  9
$DIMTSZ
 40
0.0
  9
$DIMTOL
 70
     0
  9
$DIMLIM
 70
     0
  9
$DIMTIH
 70
     0
  9
$DIMTOH
 70
     0
  9
$DIMSE1
 70
     0
  9
$DIMSE2
 70
     0
  9
$DIMTAD
 70
     1
  9
$DIMZIN
 70
     8
  9
$DIMBLK
  1

  9
$DIMASO
 70
     0
  9
$DIMSHO
 70
     1
  9
$DIMPOST
  1

  9
$DIMAPOST
  1

  9
$DIMALT
 70
     0
  9
$DIMALTD
 70
     2
  9
$DIMALTF
 40
25.399999999999999
  9
$DIMLFAC
 40
1.0
  9
$DIMTOFL
 70
     1
  9
$DIMTVP
 40
0.0
  9
$DIMTIX
 70
     1
  9
$DIMSOXD
 70
     0
  9
$DIMSAH
 70
     0
  9
$DIMBLK1
  1

  9
$DIMBLK2
  1

  9
$DIMSTYLE
  2
ITM
  9
$DIMCLRD
 70
   256
  9
$DIMCLRE
 70
   256
  9
$DIMCLRT
 70
   256
  9
$DIMTFAC
 40
1.0
  9
$DIMGAP
 40
1.0
  9
$LUNITS
 70
     2
  9
$LUPREC
 70
     2
  9
$SKETCHINC
 40
1.0
  9
$FILLETRAD
 40
0.4
  9
$AUNITS
 70
     0
  9
$AUPREC
 70
     0
  9
$MENU
  1
.
  9
$ELEVATION
 40
0.0
  9
$PELEVATION
 40
0.0
  9
$THICKNESS
 40
0.0
  9
$LIMCHECK
 70
     0
  9
$BLIPMODE
 70
     0
  9
$CHAMFERA
 40
1.1999999999999991
  9
$CHAMFERB
 40
1.1999999999999991
  9
$SKPOLY
 70
     0
  9
$TDCREATE
 40
2453354.0921258219
  9
$TDUPDATE
 40
2456598.5624035299
  9
$TDINDWG
 40
513.34286490739998
  9
$TDUSRTIMER
 40
513.34258693289996
  9
$USRTIMER
 70
     1
  9
$ANGBASE
 50
0.0
  9
$ANGDIR
 70
     0
  9
$PDMODE
 70
     0
  9
$PDSIZE
 40
0.0
  9
$PLINEWID
 40
0.0
  9
$COORDS
 70
     1
  9
$SPLFRAME
 70
     0
  9
$SPLINETYPE
 70
     6
  9
$SPLINESEGS
 70
     8
  9
$ATTDIA
 70
     0
  9
$ATTREQ
 70
     1
  9
$HANDLING
 70
     1
  9
$HANDSEED
  5
318
  9
$SURFTAB1
 70
     6
  9
$SURFTAB2
 70
     6
  9
$SURFTYPE
 70
     6
  9
$SURFU
 70
     6
  9
$SURFV
 70
     6
  9
$UCSNAME
  2

  9
$UCSORG
 10
0.0
 20
0.0
 30
0.0
  9
$UCSXDIR
 10
1.0
 20
0.0
 30
0.0
  9
$UCSYDIR
 10
0.0
 20
1.0
 30
0.0
  9
$PUCSNAME
  2

  9
$PUCSORG
 10
0.0
 20
0.0
 30
0.0
  9
$PUCSXDIR
 10
1.0
 20
0.0
 30
0.0
  9
$PUCSYDIR
 10
0.0
 20
1.0
 30
0.0
  9
$USERI1
 70
     4
  9
$USERI2
 70
     1
  9
$USERI3
 70
     1
  9
$USERI4
 70
     0
  9
$USERI5
 70
     0
  9
$USERR1
 40
1.0
  9
$USERR2
 40
3.0
  9
$USERR3
 40
3.2000000000000002
  9
$USERR4
 40
3.0
  9
$USERR5
 40
10.0
  9
$WORLDVIEW
 70
     1
  9
$SHADEDGE
 70
     3
  9
$SHADEDIF
 70
    70
  9
$TILEMODE
 70
     1
  9
$MAXACTVP
 70
    16
  9
$PLIMCHECK
 70
     0
  9
$PEXTMIN
 10
0.0
 20
0.0
 30
0.0
  9
$PEXTMAX
 10
0.0
 20
0.0
 30
0.0
  9
$PLIMMIN
 10
0.0
 20
0.0
  9
$PLIMMAX
 10
12.0
 20
9.0
  9
$UNITMODE
 70
     0
  9
$VISRETAIN
 70
     0
  9
$PLINEGEN
 70
     0
  9
$PSLTSCALE
 70
     1
  0
ENDSEC
  0
SECTION
  2
TABLES
  0
TABLE
  2
VPORT
 70
     1
  0
VPORT
  2
*ACTIVE
 70
     0
 10
0.0
 20
0.0
 11
1.0
 21
1.0
 12
194.9940495262785
 22
197.0509055860143
 13
0.0
 23
0.0
 14
5.0
 24
5.0
 15
10.0
 25
10.0
 16
0.0
 26
0.0
 36
1.0
 17
0.0
 27
0.0
 37
0.0
 40
403.57315882993248
 41
1.7807262569832401
 42
50.0
 43
0.0
 44
0.0
 50
0.0
 51
0.0
 71
    16
 72
   500
 73
     1
 74
     1
 75
     0
 76
     0
 77
     0
 78
     1
  0
ENDTAB
  0
TABLE
  2
LTYPE
 70
     4
  0
LTYPE
  2
CONTINUOUS
 70
     0
  3
Solid line
 72
    65
 73
     0
 40
0.0
  0
LTYPE
  2
CENTER
 70
     0
  3
____ _ ____ _ ____ _ ____ _ ____ _ ____ _ ____
 72
    65
 73
     4
 40
2.0
 49
1.25
 49
-0.25
 49
0.25
 49
-0.25
  0
LTYPE
  2
HIDDEN
 70
     0
  3
_ _ _ _ _ _ _ _ _ _ _ _ _ _ _ _ _ _ _ _ _ _ _
 72
    65
 73
     2
 40
0.375
 49
0.25
 49
-0.125
  0
LTYPE
  2
PHANTOM2
 70
     0
  3
___ _ _ ___ _ _ ___ _ _ ___ _ _
 72
    65
 73
     6
 40
1.25
 49
0.625
 49
-0.125
 49
0.125
 49
-0.125
 49
0.125
 49
-0.125
  0
ENDTAB
  0
TABLE
  2
LAYER
 70
     6
  0
LAYER
  2
0
 70
     0
 62
     7
  6
CONTINUOUS
  0
LAYER
  2
1
 70
     0
 62
     1
  6
CENTER
  0
LAYER
  2
WAKU
 70
     0
 62
     5
  6
CONTINUOUS
  0
LAYER
  2
4
 70
     0
 62
     4
  6
CONTINUOUS
  0
LAYER
  2
3
 70
     0
 62
     3
  6
CONTINUOUS
  0
LAYER
  2
2
 70
     0
 62
     2
  6
HIDDEN
  0
ENDTAB
  0
TABLE
  2
STYLE
 70
     3
  0
STYLE
  2
STANDARD
 70
     0
 40
0.0
 41
1.0
 50
0.0
 71
     0
 42
2.5
  3
ROMANS
  4
EXTFONT
  0
STYLE
  2
K
 70
     0
 40
0.0
 41
0.75
 50
0.0
 71
     0
 42
3.2000000000000002
  3
ROMANS.shx
  4
EXTFONT.shx
  0
STYLE
  2
STANDARD1
 70
     0
 40
0.0
 41
1.0
 50
0.0
 71
     0
 42
3.0
  3
txt
  4

  0
ENDTAB
  0
TABLE
  2
VIEW
 70
     0
  0
ENDTAB
  0
TABLE
  2
UCS
 70
     0
  0
ENDTAB
  0
TABLE
  2
APPID
 70
     3
  0
APPID
  2
ACAD
 70
     0
  0
APPID
  2
ACAD_MLEADERVER
 70
     0
  0
APPID
  2
ACAD_NAV_VCDISPLAY
 70
     0
  0
ENDTAB
  0
TABLE
  2
DIMSTYLE
 70
     2
  0
DIMSTYLE
  2
ITM
 70
     0
  3

  4

  5

  6

  7

 40
0.0
 41
2.5
 42
1.0
 43
6.0
 44
1.0
 45
0.0
 46
0.0
 47
495.0
 48
0.0
140
3.0
141
0.0
142
0.0
143
25.399999999999999
144
1.0
145
0.0
146
1.0
147
1.0
 71
     0
 72
     0
 73
     0
 74
     0
 75
     0
 76
     0
 77
     3
 78
     8
170
     0
171
     2
172
     1
173
     0
174
     0
175
     0
176
     0
177
     0
178
     0
  0
DIMSTYLE
  2
STANDARD
 70
     0
  3

  4

  5

  6

  7

 40
1.0
 41
0.18
 42
0.0625
 43
0.38
 44
0.18
 45
0.0
 46
0.0
 47
0.0
 48
0.0
140
0.18
141
0.09
142
0.0
143
25.399999999999999
144
1.0
145
0.0
146
1.0
147
0.09
 71
     0
 72
     0
 73
     1
 74
     1
 75
     0
 76
     0
 77
     0
 78
     0
170
     0
171
     2
172
     0
173
     0
174
     0
175
     0
176
     0
177
     0
178
     0
  0
ENDTAB
  0
ENDSEC
  0
SECTION
  2
BLOCKS
  0
BLOCK
  8
0
  2
$MODEL_SPACE
 70
     0
 10
0.0
 20
0.0
 30
0.0
  3
$MODEL_SPACE
  1

  0
ENDBLK
  5
12
  8
0
  0
BLOCK
 67
     1
  8
0
  2
$PAPER_SPACE
 70
     0
 10
0.0
 20
0.0
 30
0.0
  3
$PAPER_SPACE
  1

  0
ENDBLK
  5
19
 67
     1
  8
0
  0
BLOCK
  8
0
  2
ARROW1
 70
     0
 10
0.0
 20
0.0
 30
0.0
  3
ARROW1
  1

  0
SOLID
  5
4B
  8
WAKU
  6
CONTINUOUS
 62
     4
 10
-1.0
 20
0.1666666666666714
 30
0.0
 11
-1.0
 21
-0.1666666666666714
 31
0.0
 12
0.0
 22
0.0
 32
0.0
 13
0.0
 23
0.0
 33
0.0
  0
ENDBLK
  5
4D
  8
0
  0
ENDSEC
  0
SECTION
  2
ENTITIES
  0
CIRCLE
  5
74
  8
0
 10
217.7175340895995
 20
112.8593817029128
 30
0.0
 40
22.5
  0
CIRCLE
  5
75
  8
0
 10
217.7175340895995
 20
112.8593817029128
 30
0.0
 40
13.886218340478729
  0
LINE
  5
76
  8
1
 10
190.79194101991001
 20
112.8593817029128
 30
0.0
 11
244.64312715928889
 21
112.8593817029128
 31
0.0
  0
LINE
  5
79
  8
1
 10
217.7175340895995
 20
85.933788633223458
 30
0.0
 11
217.7175340895995
 21
139.7849747726022
 31
0.0
  0
LINE
  5
7A
  8
1
 10
88.699610826377693
 20
112.8593817029128
 30
0.0
 11
164.8237048617932
 21
112.8593817029128
 31
0.0
  0
LINE
  5
7B
  8
3
 10
93.899818689858179
 20
108.7793817029129
 30
0.0
 11
108.89981868985819
 21
108.7793817029129
 31
0.0
  0
LINE
  5
7D
  8
3
 10
93.899818689858179
 20
116.9393817029128
 30
0.0
 11
108.89981868985819
 21
116.9393817029128
 31
0.0
  0
LINE
  5
7E
  8
2
 10
98.149818689858193
 20
115.746133048861
 30
0.0
 11
98.149818689858193
 21
109.9726303569647
 31
0.0
  0
LINE
  5
81
  8
2
 10
98.149818689858193
 20
115.746133048861
 30
0.0
 11
93.899818689858179
 21
115.746133048861
 31
0.0
  0
LINE
  5
82
  8
2
 10
93.899818689858179
 20
115.746133048861
 30
0.0
 11
93.899818689858179
 21
109.9726303569647
 31
0.0
  0
LINE
  5
83
  8
2
 10
98.149818689858193
 20
114.3027573758869
 30
0.0
 11
93.899818689858179
 21
114.3027573758869
 31
0.0
  0
LINE
  5
84
  8
2
 10
98.149818689858193
 20
109.9726303569647
 30
0.0
 11
93.899818689858179
 21
109.9726303569647
 31
0.0
  0
LINE
  5
85
  8
2
 10
98.149818689858193
 20
111.4160060299388
 30
0.0
 11
93.899818689858179
 21
111.4160060299388
 31
0.0
  0
LINE
  5
86
  8
0
 10
156.49981868985819
 20
126.7593817029128
 30
0.0
 11
156.49981868985819
 21
98.959381702912864
 31
0.0
  0
LINE
  5
87
  8
0
 10
150.99981868985839
 20
133.75938170291269
 30
0.0
 11
150.99981868985839
 21
91.959381702912921
 31
0.0
  0
LINE
  5
88
  8
0
 10
129.49981868985839
 20
130.859381702913
 30
0.0
 11
129.49981868985839
 21
94.859381702912714
 31
0.0
  0
LINE
  5
89
  8
0
 10
122.89981868985799
 20
128.2593817029128
 30
0.0
 11
122.89981868985799
 21
97.459381702912893
 31
0.0
  0
LINE
  5
8A
  8
0
 10
111.8904975297035
 20
126.8593817029128
 30
0.0
 11
111.8904975297035
 21
98.859381702912856
 31
0.0
  0
LINE
  5
8B
  8
0
 10
110.89981868985819
 20
125.72316336243409
 30
0.0
 11
110.89981868985819
 21
99.99560004339159
 31
0.0
  0
LINE
  5
8C
  8
0
 10
108.89981868985819
 20
116.9393817029128
 30
0.0
 11
108.89981868985819
 21
108.7793817029129
 31
0.0
  0
LINE
  5
8D
  8
0
 10
107.97981868985811
 20
117.8593817029128
 30
0.0
 11
107.97981868985811
 21
107.8593817029128
 31
0.0
  0
LINE
  5
8E
  8
0
 10
94.819818689858209
 20
117.8593817029128
 30
0.0
 11
94.819818689858209
 21
107.8593817029128
 31
0.0
  0
LINE
  5
8F
  8
0
 10
93.899818689858179
 20
116.9393817029128
 30
0.0
 11
93.899818689858179
 21
108.7793817029129
 31
0.0
  0
LINE
  5
90
  8
2
 10
98.149818689858193
 20
110.3593817029128
 30
0.0
 11
99.593194362832264
 21
112.8593817029128
 31
0.0
  0
LINE
  5
91
  8
2
 10
99.593194362832264
 20
112.8593817029128
 30
0.0
 11
98.149818689858193
 21
115.3593817029128
 31
0.0
  0
ARC
  5
92
  8
0
 10
94.503000907291295
 20
113.49459430035181
 30
0.0
 40
63.399999999999558
 50
0.0
 51
12.07686742773843
  0
ARC
  5
93
  8
0
 10
94.503000907291565
 20
112.22416910547381
 30
0.0
 40
63.399999999999267
 50
347.92313257226158
 51
0.0000008537736463
  0
LINE
  5
94
  8
0
 10
157.90300090729079
 20
112.22416910547391
 30
0.0
 11
157.90300090729079
 21
113.49459430035181
 31
0.0
  0
ARC
  5
95
  8
0
 10
148.7132364277204
 20
126.302067068376
 30
0.0
 40
7.8000000000000274
 50
3.3611837633511219
 51
72.953269411385534
  0
ARC
  5
96
  8
0
 10
148.7132364277204
 20
99.416696337449721
 30
0.0
 40
7.8000000000000211
 50
287.04673058861442
 51
356.63881623664889
  0
ARC
  5
97
  8
0
 10
142.7898211489684
 20
113.47832898882029
 30
0.0
 40
21.87978882012386
 50
67.961345665726725
 51
127.4024635667751
  0
ARC
  5
98
  8
0
 10
120.256015889217
 20
144.6474965045405
 30
0.0
 40
16.600000000000151
 50
279.16425006721431
 51
303.83861858088108
  0
ARC
  5
99
  8
0
 10
120.256015889217
 20
81.071266901285284
 30
0.0
 40
16.600000000000069
 50
56.161381419118989
 51
80.835749932785617
  0
LINE
  5
9A
  8
0
 10
122.89981868985799
 20
128.2593817029128
 30
0.0
 11
111.8904975297035
 21
126.8593817029128
 31
0.0
  0
LINE
  5
9B
  8
0
 10
111.8904975297035
 20
126.8593817029128
 30
0.0
 11
110.89981868985819
 21
125.72316336243409
 31
0.0
  0
LINE
  5
9C
  8
0
 10
108.89981868985819
 20
108.7793817029129
 30
0.0
 11
110.6998186898582
 21
108.7793817029129
 31
0.0
  0
LINE
  5
9D
  8
0
 10
110.6998186898582
 20
116.9393817029128
 30
0.0
 11
108.89981868985819
 21
116.9393817029128
 31
0.0
  0
LINE
  5
9E
  8
0
 10
107.97981868985811
 20
107.8593817029128
 30
0.0
 11
108.89981868985819
 21
108.7793817029129
 31
0.0
  0
LINE
  5
9F
  8
0
 10
108.89981868985819
 20
116.9393817029128
 30
0.0
 11
107.97981868985811
 21
117.8593817029128
 31
0.0
  0
LINE
  5
A0
  8
0
 10
94.819818689858209
 20
107.8593817029128
 30
0.0
 11
107.97981868985811
 21
107.8593817029128
 31
0.0
  0
LINE
  5
A1
  8
0
 10
107.97981868985811
 20
117.8593817029128
 30
0.0
 11
94.819818689858209
 21
117.8593817029128
 31
0.0
  0
LINE
  5
A2
  8
0
 10
93.899818689858179
 20
108.7793817029129
 30
0.0
 11
94.819818689858209
 21
107.8593817029128
 31
0.0
  0
LINE
  5
A3
  8
0
 10
94.819818689858209
 20
117.8593817029128
 30
0.0
 11
93.899818689858179
 21
116.9393817029128
 31
0.0
  0
CIRCLE
  5
A4
  8
3
 10
41.598740732255919
 20
112.8593817029128
 30
0.0
 40
4.0799999999999983
  0
LINE
  5
A5
  8
1
 10
41.598740732255919
 20
85.933788633223458
 30
0.0
 11
41.598740732255919
 21
139.7849747726022
 31
0.0
  0
LINE
  5
A6
  8
1
 10
14.673147662566519
 20
112.8593817029128
 30
0.0
 11
68.524333801945318
 21
112.8593817029128
 31
0.0
  0
LINE
  5
A7
  8
0
 10
44.098740732255919
 20
114.3027573758869
 30
0.0
 11
41.598740732255919
 21
115.746133048861
 31
0.0
  0
LINE
  5
A8
  8
0
 10
41.598740732255919
 20
115.746133048861
 30
0.0
 11
39.098740732255919
 21
114.3027573758869
 31
0.0
  0
LINE
  5
A9
  8
0
 10
39.098740732255919
 20
114.3027573758869
 30
0.0
 11
39.098740732255919
 21
111.4160060299388
 31
0.0
  0
LINE
  5
AA
  8
0
 10
39.098740732255919
 20
111.4160060299388
 30
0.0
 11
41.598740732255919
 21
109.9726303569647
 31
0.0
  0
LINE
  5
AB
  8
0
 10
41.598740732255919
 20
109.9726303569647
 30
0.0
 11
44.098740732255919
 21
111.4160060299388
 31
0.0
  0
LINE
  5
AC
  8
0
 10
44.098740732255919
 20
111.4160060299388
 30
0.0
 11
44.098740732255919
 21
114.3027573758869
 31
0.0
  0
CIRCLE
  5
AD
  8
0
 10
41.598740732255919
 20
112.8593817029128
 30
0.0
 40
14.0
  0
CIRCLE
  5
AE
  8
0
 10
41.598740732255919
 20
112.8593817029128
 30
0.0
 40
12.86378165952126
  0
CIRCLE
  5
AF
  8
0
 10
41.598740732255919
 20
112.8593817029128
 30
0.0
 40
5.0
  0
CIRCLE
  5
B0
  8
0
 10
41.598740732255919
 20
112.8593817029128
 30
0.0
 40
22.5
  0
CIRCLE
  5
B1
  8
0
 10
217.7175340895995
 20
112.8593817029128
 30
0.0
 40
0.6352135421758192
  0
LINE
  5
B2
  8
0
 10
94.819818689858209
 20
52.984565897382588
 30
0.0
 11
93.899818689858179
 21
52.064565897382579
 31
0.0
  0
LINE
  5
B3
  8
0
 10
93.899818689858179
 20
43.904565897382611
 30
0.0
 11
94.819818689858209
 21
42.984565897382588
 31
0.0
  0
LINE
  5
B4
  8
0
 10
107.97981868985811
 20
52.984565897382588
 30
0.0
 11
94.819818689858209
 21
52.984565897382588
 31
0.0
  0
LINE
  5
B5
  8
0
 10
94.819818689858209
 20
42.984565897382588
 30
0.0
 11
107.97981868985811
 21
42.984565897382588
 31
0.0
  0
LINE
  5
B6
  8
0
 10
108.89981868985819
 20
52.064565897382579
 30
0.0
 11
107.97981868985811
 21
52.984565897382588
 31
0.0
  0
LINE
  5
B7
  8
0
 10
107.97981868985811
 20
42.984565897382588
 30
0.0
 11
108.89981868985819
 21
43.904565897382611
 31
0.0
  0
LINE
  5
B8
  8
0
 10
110.6998186898582
 20
52.064565897382579
 30
0.0
 11
108.89981868985819
 21
52.064565897382579
 31
0.0
  0
LINE
  5
B9
  8
0
 10
108.89981868985819
 20
43.904565897382611
 30
0.0
 11
110.6998186898582
 21
43.904565897382611
 31
0.0
  0
ARC
  5
BA
  8
0
 10
120.256015889217
 20
16.196451095755041
 30
0.0
 40
16.600000000000069
 50
56.161381419118989
 51
80.835749932785617
  0
ARC
  5
BB
  8
0
 10
120.256015889217
 20
79.772680699010238
 30
0.0
 40
16.600000000000151
 50
279.16425006721431
 51
303.83861858088108
  0
ARC
  5
BC
  8
0
 10
148.7132364277204
 20
34.541880531919453
 30
0.0
 40
7.8000000000000211
 50
287.04673058861442
 51
356.63881623664889
  0
LINE
  5
BD
  8
0
 10
157.90300090729079
 20
47.349353299943658
 30
0.0
 11
157.90300090729079
 21
48.619778494821531
 31
0.0
  0
ARC
  5
BE
  8
0
 10
94.503000907291565
 20
47.349353299943537
 30
0.0
 40
63.399999999999267
 50
347.92313257226158
 51
0.0000008537736463
  0
ARC
  5
BF
  8
0
 10
94.503000907291295
 20
48.619778494821617
 30
0.0
 40
63.399999999999558
 50
0.0
 51
12.07686742773843
  0
LINE
  5
C0
  8
0
 10
93.899818689858179
 20
52.064565897382579
 30
0.0
 11
93.899818689858179
 21
43.904565897382611
 31
0.0
  0
LINE
  5
C1
  8
0
 10
94.819818689858209
 20
52.984565897382588
 30
0.0
 11
94.819818689858209
 21
42.984565897382588
 31
0.0
  0
LINE
  5
C2
  8
0
 10
107.97981868985811
 20
52.984565897382588
 30
0.0
 11
107.97981868985811
 21
42.984565897382588
 31
0.0
  0
LINE
  5
C3
  8
0
 10
108.89981868985819
 20
52.064565897382579
 30
0.0
 11
108.89981868985819
 21
43.904565897382611
 31
0.0
  0
LINE
  5
C4
  8
0
 10
122.89981868985799
 20
63.384565897382572
 30
0.0
 11
122.89981868985799
 21
32.584565897382618
 31
0.0
  0
LINE
  5
C5
  8
0
 10
129.49981868985839
 20
65.984565897382737
 30
0.0
 11
129.49981868985839
 21
29.984565897382449
 31
0.0
  0
LINE
  5
C6
  8
0
 10
156.49981868985819
 20
61.884565897382572
 30
0.0
 11
156.49981868985819
 21
34.084565897382618
 31
0.0
  0
LINE
  5
C7
  8
3
 10
93.899818689858179
 20
52.064565897382579
 30
0.0
 11
108.89981868985819
 21
52.064565897382579
 31
0.0
  0
LINE
  5
C8
  8
3
 10
93.899818689858179
 20
43.904565897382611
 30
0.0
 11
108.89981868985819
 21
43.904565897382611
 31
0.0
  0
LINE
  5
C9
  8
1
 10
88.699610826377693
 20
47.984565897382588
 30
0.0
 11
164.8237048617932
 21
47.984565897382588
 31
0.0
  0
ARC
  5
CA
  8
0
 10
148.7132364277204
 20
61.427251262845743
 30
0.0
 40
7.8000000000000274
 50
3.3611837633511219
 51
72.953269411385534
  0
LINE
  5
CB
  8
0
 10
150.99981868985839
 20
68.884565897382515
 30
0.0
 11
150.99981868985839
 21
27.084565897382671
 31
0.0
  0
LINE
  5
CC
  8
2
 10
99.593194362832264
 20
47.984565897382588
 30
0.0
 11
98.149818689858193
 21
50.484565897382588
 31
0.0
  0
LINE
  5
CD
  8
2
 10
98.149818689858193
 20
45.484565897382588
 30
0.0
 11
99.593194362832264
 21
47.984565897382588
 31
0.0
  0
LINE
  5
CE
  8
2
 10
98.149818689858193
 20
50.484565897382588
 30
0.0
 11
93.899818689858179
 21
50.484565897382588
 31
0.0
  0
LINE
  5
CF
  8
2
 10
93.899818689858179
 20
45.484565897382588
 30
0.0
 11
93.899818689858179
 21
50.484565897382588
 31
0.0
  0
LINE
  5
D0
  8
2
 10
98.149818689858193
 20
47.984565897382588
 30
0.0
 11
93.899818689858179
 21
47.984565897382588
 31
0.0
  0
LINE
  5
D1
  8
2
 10
98.149818689858193
 20
45.484565897382588
 30
0.0
 11
93.899818689858179
 21
45.484565897382588
 31
0.0
  0
LINE
  5
D2
  8
2
 10
98.149818689858193
 20
50.484565897382588
 30
0.0
 11
98.149818689858193
 21
45.484565897382588
 31
0.0
  0
ARC
  5
D3
  8
0
 10
142.7898211489684
 20
112.2404344170054
 30
0.0
 40
21.87978882012386
 50
232.59753643322489
 51
292.0386543342733
  0
ARC
  5
D4
  8
0
 10
142.7898211489684
 20
48.603513183290033
 30
0.0
 40
21.87978882012386
 50
67.961345665726725
 51
127.4024635667751
  0
ARC
  5
D5
  8
0
 10
142.7898211489684
 20
47.365618611475149
 30
0.0
 40
21.87978882012386
 50
232.59753643322489
 51
292.0386543342733
  0
LINE
  5
D6
  8
0
 10
111.8904975297035
 20
98.859381702912856
 30
0.0
 11
110.89981868985819
 21
99.99560004339159
 31
0.0
  0
LINE
  5
D7
  8
0
 10
122.89981868985799
 20
97.459381702912893
 30
0.0
 11
111.8904975297035
 21
98.859381702912856
 31
0.0
  0
LINE
  5
D8
  8
0
 10
111.8904975297035
 20
33.984565897382588
 30
0.0
 11
110.89981868985819
 21
35.120784237861329
 31
0.0
  0
LINE
  5
D9
  8
0
 10
111.8904975297035
 20
61.984565897382602
 30
0.0
 11
110.89981868985819
 21
60.84834755690386
 31
0.0
  0
LINE
  5
DA
  8
0
 10
110.89981868985819
 20
60.84834755690386
 30
0.0
 11
110.89981868985819
 21
35.120784237861301
 31
0.0
  0
LINE
  5
DB
  8
0
 10
111.8904975297035
 20
61.984565897382602
 30
0.0
 11
111.8904975297035
 21
33.984565897382588
 31
0.0
  0
LINE
  5
DC
  8
0
 10
122.89981868985799
 20
32.584565897382618
 30
0.0
 11
111.8904975297035
 21
33.984565897382588
 31
0.0
  0
LINE
  5
DD
  8
0
 10
122.89981868985799
 20
63.384565897382572
 30
0.0
 11
111.8904975297035
 21
61.984565897382602
 31
0.0
  0
LINE
  5
DE
  8
0
 10
110.6998186898582
 20
118.8593817029128
 30
0.0
 11
110.6998186898582
 21
106.8593817029128
 31
0.0
  0
LINE
  5
DF
  8
0
 10
110.89981868985819
 20
118.8593817029128
 30
0.0
 11
110.6998186898582
 21
118.8593817029128
 31
0.0
  0
LINE
  5
E0
  8
0
 10
110.89981868985819
 20
106.8593817029128
 30
0.0
 11
110.6998186898582
 21
106.8593817029128
 31
0.0
  0
LINE
  5
E1
  8
0
 10
110.89981868985819
 20
41.984565897382588
 30
0.0
 11
110.6998186898582
 21
41.984565897382588
 31
0.0
  0
LINE
  5
E2
  8
0
 10
110.89981868985819
 20
53.984565897382588
 30
0.0
 11
110.6998186898582
 21
53.984565897382588
 31
0.0
  0
LINE
  5
E3
  8
0
 10
110.6998186898582
 20
53.984565897382588
 30
0.0
 11
110.6998186898582
 21
41.984565897382588
 31
0.0
  0
CIRCLE
  5
E4
  8
0
 10
41.598740732255919
 20
112.8593817029128
 30
0.0
 40
6.0
  0
POLYLINE
  5
E5
  8
0
 10
157.89981868985819
 20
113.49459666211753
 30
0.0
 66
     1
 70
     8
  0
VERTEX
  8
0
  5
214
 10
157.900
 20
113.495
 30
0.000000
  70
    32
  0
VERTEX
  8
0
  5
215
 10
157.897
 20
113.488
 30
0.000000
  70
    32
  0
VERTEX
  8
0
  5
216
 10
157.895
 20
113.480
 30
0.000000
  70
    32
  0
VERTEX
  8
0
  5
217
 10
157.893
 20
113.473
 30
0.000000
  70
    32
  0
VERTEX
  8
0
  5
218
 10
157.891
 20
113.466
 30
0.000000
  70
    32
  0
VERTEX
  8
0
  5
219
 10
157.888
 20
113.458
 30
0.000000
  70
    32
  0
VERTEX
  8
0
  5
21A
 10
157.886
 20
113.450
 30
0.000000
  70
    32
  0
VERTEX
  8
0
  5
21B
 10
157.884
 20
113.443
 30
0.000000
  70
    32
  0
VERTEX
  8
0
  5
21C
 10
157.882
 20
113.435
 30
0.000000
  70
    32
  0
VERTEX
  8
0
  5
21D
 10
157.880
 20
113.427
 30
0.000000
  70
    32
  0
VERTEX
  8
0
  5
21E
 10
157.878
 20
113.418
 30
0.000000
  70
    32
  0
VERTEX
  8
0
  5
21F
 10
157.876
 20
113.410
 30
0.000000
  70
    32
  0
VERTEX
  8
0
  5
220
 10
157.874
 20
113.402
 30
0.000000
  70
    32
  0
VERTEX
  8
0
  5
221
 10
157.872
 20
113.393
 30
0.000000
  70
    32
  0
VERTEX
  8
0
  5
222
 10
157.870
 20
113.385
 30
0.000000
  70
    32
  0
VERTEX
  8
0
  5
223
 10
157.868
 20
113.376
 30
0.000000
  70
    32
  0
VERTEX
  8
0
  5
224
 10
157.866
 20
113.367
 30
0.000000
  70
    32
  0
VERTEX
  8
0
  5
225
 10
157.864
 20
113.358
 30
0.000000
  70
    32
  0
VERTEX
  8
0
  5
226
 10
157.862
 20
113.349
 30
0.000000
  70
    32
  0
VERTEX
  8
0
  5
227
 10
157.860
 20
113.340
 30
0.000000
  70
    32
  0
VERTEX
  8
0
  5
228
 10
157.858
 20
113.331
 30
0.000000
  70
    32
  0
VERTEX
  8
0
  5
229
 10
157.857
 20
113.322
 30
0.000000
  70
    32
  0
VERTEX
  8
0
  5
22A
 10
157.855
 20
113.312
 30
0.000000
  70
    32
  0
VERTEX
  8
0
  5
22B
 10
157.853
 20
113.303
 30
0.000000
  70
    32
  0
VERTEX
  8
0
  5
22C
 10
157.852
 20
113.293
 30
0.000000
  70
    32
  0
VERTEX
  8
0
  5
22D
 10
157.850
 20
113.283
 30
0.000000
  70
    32
  0
VERTEX
  8
0
  5
22E
 10
157.849
 20
113.274
 30
0.000000
  70
    32
  0
VERTEX
  8
0
  5
22F
 10
157.847
 20
113.264
 30
0.000000
  70
    32
  0
VERTEX
  8
0
  5
230
 10
157.846
 20
113.254
 30
0.000000
  70
    32
  0
VERTEX
  8
0
  5
231
 10
157.844
 20
113.244
 30
0.000000
  70
    32
  0
VERTEX
  8
0
  5
232
 10
157.843
 20
113.234
 30
0.000000
  70
    32
  0
VERTEX
  8
0
  5
233
 10
157.841
 20
113.224
 30
0.000000
  70
    32
  0
VERTEX
  8
0
  5
234
 10
157.840
 20
113.213
 30
0.000000
  70
    32
  0
VERTEX
  8
0
  5
235
 10
157.839
 20
113.203
 30
0.000000
  70
    32
  0
VERTEX
  8
0
  5
236
 10
157.838
 20
113.193
 30
0.000000
  70
    32
  0
VERTEX
  8
0
  5
237
 10
157.836
 20
113.182
 30
0.000000
  70
    32
  0
VERTEX
  8
0
  5
238
 10
157.835
 20
113.172
 30
0.000000
  70
    32
  0
VERTEX
  8
0
  5
239
 10
157.834
 20
113.161
 30
0.000000
  70
    32
  0
VERTEX
  8
0
  5
23A
 10
157.833
 20
113.150
 30
0.000000
  70
    32
  0
VERTEX
  8
0
  5
23B
 10
157.832
 20
113.140
 30
0.000000
  70
    32
  0
VERTEX
  8
0
  5
23C
 10
157.831
 20
113.129
 30
0.000000
  70
    32
  0
VERTEX
  8
0
  5
23D
 10
157.830
 20
113.118
 30
0.000000
  70
    32
  0
VERTEX
  8
0
  5
23E
 10
157.829
 20
113.107
 30
0.000000
  70
    32
  0
VERTEX
  8
0
  5
23F
 10
157.828
 20
113.096
 30
0.000000
  70
    32
  0
VERTEX
  8
0
  5
240
 10
157.827
 20
113.085
 30
0.000000
  70
    32
  0
VERTEX
  8
0
  5
241
 10
157.826
 20
113.074
 30
0.000000
  70
    32
  0
VERTEX
  8
0
  5
242
 10
157.826
 20
113.063
 30
0.000000
  70
    32
  0
VERTEX
  8
0
  5
243
 10
157.825
 20
113.052
 30
0.000000
  70
    32
  0
VERTEX
  8
0
  5
244
 10
157.824
 20
113.041
 30
0.000000
  70
    32
  0
VERTEX
  8
0
  5
245
 10
157.823
 20
113.030
 30
0.000000
  70
    32
  0
VERTEX
  8
0
  5
246
 10
157.823
 20
113.019
 30
0.000000
  70
    32
  0
VERTEX
  8
0
  5
247
 10
157.822
 20
113.007
 30
0.000000
  70
    32
  0
VERTEX
  8
0
  5
248
 10
157.822
 20
112.996
 30
0.000000
  70
    32
  0
VERTEX
  8
0
  5
249
 10
157.821
 20
112.985
 30
0.000000
  70
    32
  0
VERTEX
  8
0
  5
24A
 10
157.821
 20
112.974
 30
0.000000
  70
    32
  0
VERTEX
  8
0
  5
24B
 10
157.820
 20
112.962
 30
0.000000
  70
    32
  0
VERTEX
  8
0
  5
24C
 10
157.820
 20
112.951
 30
0.000000
  70
    32
  0
VERTEX
  8
0
  5
24D
 10
157.820
 20
112.939
 30
0.000000
  70
    32
  0
VERTEX
  8
0
  5
24E
 10
157.819
 20
112.928
 30
0.000000
  70
    32
  0
VERTEX
  8
0
  5
24F
 10
157.819
 20
112.917
 30
0.000000
  70
    32
  0
VERTEX
  8
0
  5
250
 10
157.819
 20
112.905
 30
0.000000
  70
    32
  0
VERTEX
  8
0
  5
251
 10
157.819
 20
112.894
 30
0.000000
  70
    32
  0
VERTEX
  8
0
  5
252
 10
157.819
 20
112.882
 30
0.000000
  70
    32
  0
VERTEX
  8
0
  5
253
 10
157.819
 20
112.871
 30
0.000000
  70
    32
  0
VERTEX
  8
0
  5
254
 10
157.819
 20
112.859
 30
0.000000
  70
    32
  0
VERTEX
  8
0
  5
255
 10
157.819
 20
112.848
 30
0.000000
  70
    32
  0
VERTEX
  8
0
  5
256
 10
157.819
 20
112.836
 30
0.000000
  70
    32
  0
VERTEX
  8
0
  5
257
 10
157.819
 20
112.825
 30
0.000000
  70
    32
  0
VERTEX
  8
0
  5
258
 10
157.819
 20
112.814
 30
0.000000
  70
    32
  0
VERTEX
  8
0
  5
259
 10
157.819
 20
112.802
 30
0.000000
  70
    32
  0
VERTEX
  8
0
  5
25A
 10
157.819
 20
112.791
 30
0.000000
  70
    32
  0
VERTEX
  8
0
  5
25B
 10
157.820
 20
112.779
 30
0.000000
  70
    32
  0
VERTEX
  8
0
  5
25C
 10
157.820
 20
112.768
 30
0.000000
  70
    32
  0
VERTEX
  8
0
  5
25D
 10
157.820
 20
112.757
 30
0.000000
  70
    32
  0
VERTEX
  8
0
  5
25E
 10
157.821
 20
112.745
 30
0.000000
  70
    32
  0
VERTEX
  8
0
  5
25F
 10
157.821
 20
112.734
 30
0.000000
  70
    32
  0
VERTEX
  8
0
  5
260
 10
157.822
 20
112.723
 30
0.000000
  70
    32
  0
VERTEX
  8
0
  5
261
 10
157.822
 20
112.711
 30
0.000000
  70
    32
  0
VERTEX
  8
0
  5
262
 10
157.823
 20
112.700
 30
0.000000
  70
    32
  0
VERTEX
  8
0
  5
263
 10
157.823
 20
112.689
 30
0.000000
  70
    32
  0
VERTEX
  8
0
  5
264
 10
157.824
 20
112.678
 30
0.000000
  70
    32
  0
VERTEX
  8
0
  5
265
 10
157.825
 20
112.667
 30
0.000000
  70
    32
  0
VERTEX
  8
0
  5
266
 10
157.826
 20
112.655
 30
0.000000
  70
    32
  0
VERTEX
  8
0
  5
267
 10
157.826
 20
112.644
 30
0.000000
  70
    32
  0
VERTEX
  8
0
  5
268
 10
157.827
 20
112.633
 30
0.000000
  70
    32
  0
VERTEX
  8
0
  5
269
 10
157.828
 20
112.622
 30
0.000000
  70
    32
  0
VERTEX
  8
0
  5
26A
 10
157.829
 20
112.612
 30
0.000000
  70
    32
  0
VERTEX
  8
0
  5
26B
 10
157.830
 20
112.601
 30
0.000000
  70
    32
  0
VERTEX
  8
0
  5
26C
 10
157.831
 20
112.590
 30
0.000000
  70
    32
  0
VERTEX
  8
0
  5
26D
 10
157.832
 20
112.579
 30
0.000000
  70
    32
  0
VERTEX
  8
0
  5
26E
 10
157.833
 20
112.568
 30
0.000000
  70
    32
  0
VERTEX
  8
0
  5
26F
 10
157.834
 20
112.558
 30
0.000000
  70
    32
  0
VERTEX
  8
0
  5
270
 10
157.835
 20
112.547
 30
0.000000
  70
    32
  0
VERTEX
  8
0
  5
271
 10
157.836
 20
112.537
 30
0.000000
  70
    32
  0
VERTEX
  8
0
  5
272
 10
157.838
 20
112.526
 30
0.000000
  70
    32
  0
VERTEX
  8
0
  5
273
 10
157.839
 20
112.516
 30
0.000000
  70
    32
  0
VERTEX
  8
0
  5
274
 10
157.840
 20
112.505
 30
0.000000
  70
    32
  0
VERTEX
  8
0
  5
275
 10
157.841
 20
112.495
 30
0.000000
  70
    32
  0
VERTEX
  8
0
  5
276
 10
157.843
 20
112.485
 30
0.000000
  70
    32
  0
VERTEX
  8
0
  5
277
 10
157.844
 20
112.475
 30
0.000000
  70
    32
  0
VERTEX
  8
0
  5
278
 10
157.846
 20
112.465
 30
0.000000
  70
    32
  0
VERTEX
  8
0
  5
279
 10
157.847
 20
112.455
 30
0.000000
  70
    32
  0
VERTEX
  8
0
  5
27A
 10
157.849
 20
112.445
 30
0.000000
  70
    32
  0
VERTEX
  8
0
  5
27B
 10
157.850
 20
112.435
 30
0.000000
  70
    32
  0
VERTEX
  8
0
  5
27C
 10
157.852
 20
112.426
 30
0.000000
  70
    32
  0
VERTEX
  8
0
  5
27D
 10
157.853
 20
112.416
 30
0.000000
  70
    32
  0
VERTEX
  8
0
  5
27E
 10
157.855
 20
112.407
 30
0.000000
  70
    32
  0
VERTEX
  8
0
  5
27F
 10
157.857
 20
112.397
 30
0.000000
  70
    32
  0
VERTEX
  8
0
  5
280
 10
157.858
 20
112.388
 30
0.000000
  70
    32
  0
VERTEX
  8
0
  5
281
 10
157.860
 20
112.379
 30
0.000000
  70
    32
  0
VERTEX
  8
0
  5
282
 10
157.862
 20
112.370
 30
0.000000
  70
    32
  0
VERTEX
  8
0
  5
283
 10
157.864
 20
112.361
 30
0.000000
  70
    32
  0
VERTEX
  8
0
  5
284
 10
157.866
 20
112.352
 30
0.000000
  70
    32
  0
VERTEX
  8
0
  5
285
 10
157.868
 20
112.343
 30
0.000000
  70
    32
  0
VERTEX
  8
0
  5
286
 10
157.870
 20
112.334
 30
0.000000
  70
    32
  0
VERTEX
  8
0
  5
287
 10
157.872
 20
112.326
 30
0.000000
  70
    32
  0
VERTEX
  8
0
  5
288
 10
157.874
 20
112.317
 30
0.000000
  70
    32
  0
VERTEX
  8
0
  5
289
 10
157.876
 20
112.309
 30
0.000000
  70
    32
  0
VERTEX
  8
0
  5
28A
 10
157.878
 20
112.300
 30
0.000000
  70
    32
  0
VERTEX
  8
0
  5
28B
 10
157.880
 20
112.292
 30
0.000000
  70
    32
  0
VERTEX
  8
0
  5
28C
 10
157.882
 20
112.284
 30
0.000000
  70
    32
  0
VERTEX
  8
0
  5
28D
 10
157.884
 20
112.276
 30
0.000000
  70
    32
  0
VERTEX
  8
0
  5
28E
 10
157.886
 20
112.268
 30
0.000000
  70
    32
  0
VERTEX
  8
0
  5
28F
 10
157.888
 20
112.261
 30
0.000000
  70
    32
  0
VERTEX
  8
0
  5
290
 10
157.891
 20
112.253
 30
0.000000
  70
    32
  0
VERTEX
  8
0
  5
291
 10
157.893
 20
112.246
 30
0.000000
  70
    32
  0
VERTEX
  8
0
  5
292
 10
157.895
 20
112.238
 30
0.000000
  70
    32
  0
VERTEX
  8
0
  5
293
 10
157.897
 20
112.231
 30
0.000000
  70
    32
  0
VERTEX
  8
0
  5
294
 10
157.900
 20
112.224
 30
0.000000
  70
    32
  0
SEQEND
  8
0
  5
295
  0
POLYLINE
  5
E6
  8
0
 10
157.90300090729079
 20
48.619780856588307
 30
0.0
 66
     1
 70
     8
  0
VERTEX
  8
0
  5
296
 10
157.903
 20
48.6198
 30
0.000000
  70
    32
  0
VERTEX
  8
0
  5
297
 10
157.901
 20
48.6127
 30
0.000000
  70
    32
  0
VERTEX
  8
0
  5
298
 10
157.898
 20
48.6055
 30
0.000000
  70
    32
  0
VERTEX
  8
0
  5
299
 10
157.896
 20
48.5982
 30
0.000000
  70
    32
  0
VERTEX
  8
0
  5
29A
 10
157.894
 20
48.5908
 30
0.000000
  70
    32
  0
VERTEX
  8
0
  5
29B
 10
157.892
 20
48.5832
 30
0.000000
  70
    32
  0
VERTEX
  8
0
  5
29C
 10
157.889
 20
48.5755
 30
0.000000
  70
    32
  0
VERTEX
  8
0
  5
29D
 10
157.887
 20
48.5677
 30
0.000000
  70
    32
  0
VERTEX
  8
0
  5
29E
 10
157.885
 20
48.5598
 30
0.000000
  70
    32
  0
VERTEX
  8
0
  5
29F
 10
157.883
 20
48.5517
 30
0.000000
  70
    32
  0
VERTEX
  8
0
  5
2A0
 10
157.881
 20
48.5436
 30
0.000000
  70
    32
  0
VERTEX
  8
0
  5
2A1
 10
157.879
 20
48.5353
 30
0.000000
  70
    32
  0
VERTEX
  8
0
  5
2A2
 10
157.877
 20
48.5269
 30
0.000000
  70
    32
  0
VERTEX
  8
0
  5
2A3
 10
157.875
 20
48.5184
 30
0.000000
  70
    32
  0
VERTEX
  8
0
  5
2A4
 10
157.873
 20
48.5098
 30
0.000000
  70
    32
  0
VERTEX
  8
0
  5
2A5
 10
157.871
 20
48.5011
 30
0.000000
  70
    32
  0
VERTEX
  8
0
  5
2A6
 10
157.869
 20
48.4923
 30
0.000000
  70
    32
  0
VERTEX
  8
0
  5
2A7
 10
157.867
 20
48.4834
 30
0.000000
  70
    32
  0
VERTEX
  8
0
  5
2A8
 10
157.865
 20
48.4744
 30
0.000000
  70
    32
  0
VERTEX
  8
0
  5
2A9
 10
157.863
 20
48.4652
 30
0.000000
  70
    32
  0
VERTEX
  8
0
  5
2AA
 10
157.862
 20
48.4560
 30
0.000000
  70
    32
  0
VERTEX
  8
0
  5
2AB
 10
157.860
 20
48.4467
 30
0.000000
  70
    32
  0
VERTEX
  8
0
  5
2AC
 10
157.858
 20
48.4373
 30
0.000000
  70
    32
  0
VERTEX
  8
0
  5
2AD
 10
157.857
 20
48.4278
 30
0.000000
  70
    32
  0
VERTEX
  8
0
  5
2AE
 10
157.855
 20
48.4182
 30
0.000000
  70
    32
  0
VERTEX
  8
0
  5
2AF
 10
157.853
 20
48.4085
 30
0.000000
  70
    32
  0
VERTEX
  8
0
  5
2B0
 10
157.852
 20
48.3988
 30
0.000000
  70
    32
  0
VERTEX
  8
0
  5
2B1
 10
157.850
 20
48.3889
 30
0.000000
  70
    32
  0
VERTEX
  8
0
  5
2B2
 10
157.849
 20
48.3790
 30
0.000000
  70
    32
  0
VERTEX
  8
0
  5
2B3
 10
157.847
 20
48.3690
 30
0.000000
  70
    32
  0
VERTEX
  8
0
  5
2B4
 10
157.846
 20
48.3589
 30
0.000000
  70
    32
  0
VERTEX
  8
0
  5
2B5
 10
157.845
 20
48.3487
 30
0.000000
  70
    32
  0
VERTEX
  8
0
  5
2B6
 10
157.843
 20
48.3385
 30
0.000000
  70
    32
  0
VERTEX
  8
0
  5
2B7
 10
157.842
 20
48.3281
 30
0.000000
  70
    32
  0
VERTEX
  8
0
  5
2B8
 10
157.841
 20
48.3178
 30
0.000000
  70
    32
  0
VERTEX
  8
0
  5
2B9
 10
157.839
 20
48.3073
 30
0.000000
  70
    32
  0
VERTEX
  8
0
  5
2BA
 10
157.838
 20
48.2968
 30
0.000000
  70
    32
  0
VERTEX
  8
0
  5
2BB
 10
157.837
 20
48.2862
 30
0.000000
  70
    32
  0
VERTEX
  8
0
  5
2BC
 10
157.836
 20
48.2756
 30
0.000000
  70
    32
  0
VERTEX
  8
0
  5
2BD
 10
157.835
 20
48.2649
 30
0.000000
  70
    32
  0
VERTEX
  8
0
  5
2BE
 10
157.834
 20
48.2541
 30
0.000000
  70
    32
  0
VERTEX
  8
0
  5
2BF
 10
157.833
 20
48.2433
 30
0.000000
  70
    32
  0
VERTEX
  8
0
  5
2C0
 10
157.832
 20
48.2324
 30
0.000000
  70
    32
  0
VERTEX
  8
0
  5
2C1
 10
157.831
 20
48.2215
 30
0.000000
  70
    32
  0
VERTEX
  8
0
  5
2C2
 10
157.830
 20
48.2105
 30
0.000000
  70
    32
  0
VERTEX
  8
0
  5
2C3
 10
157.830
 20
48.1995
 30
0.000000
  70
    32
  0
VERTEX
  8
0
  5
2C4
 10
157.829
 20
48.1885
 30
0.000000
  70
    32
  0
VERTEX
  8
0
  5
2C5
 10
157.828
 20
48.1774
 30
0.000000
  70
    32
  0
VERTEX
  8
0
  5
2C6
 10
157.827
 20
48.1662
 30
0.000000
  70
    32
  0
VERTEX
  8
0
  5
2C7
 10
157.827
 20
48.1551
 30
0.000000
  70
    32
  0
VERTEX
  8
0
  5
2C8
 10
157.826
 20
48.1438
 30
0.000000
  70
    32
  0
VERTEX
  8
0
  5
2C9
 10
157.825
 20
48.1326
 30
0.000000
  70
    32
  0
VERTEX
  8
0
  5
2CA
 10
157.825
 20
48.1213
 30
0.000000
  70
    32
  0
VERTEX
  8
0
  5
2CB
 10
157.824
 20
48.1100
 30
0.000000
  70
    32
  0
VERTEX
  8
0
  5
2CC
 10
157.824
 20
48.0987
 30
0.000000
  70
    32
  0
VERTEX
  8
0
  5
2CD
 10
157.824
 20
48.0874
 30
0.000000
  70
    32
  0
VERTEX
  8
0
  5
2CE
 10
157.823
 20
48.0760
 30
0.000000
  70
    32
  0
VERTEX
  8
0
  5
2CF
 10
157.823
 20
48.0646
 30
0.000000
  70
    32
  0
VERTEX
  8
0
  5
2D0
 10
157.823
 20
48.0532
 30
0.000000
  70
    32
  0
VERTEX
  8
0
  5
2D1
 10
157.822
 20
48.0418
 30
0.000000
  70
    32
  0
VERTEX
  8
0
  5
2D2
 10
157.822
 20
48.0304
 30
0.000000
  70
    32
  0
VERTEX
  8
0
  5
2D3
 10
157.822
 20
48.0189
 30
0.000000
  70
    32
  0
VERTEX
  8
0
  5
2D4
 10
157.822
 20
48.0075
 30
0.000000
  70
    32
  0
VERTEX
  8
0
  5
2D5
 10
157.822
 20
47.9960
 30
0.000000
  70
    32
  0
VERTEX
  8
0
  5
2D6
 10
157.822
 20
47.9846
 30
0.000000
  70
    32
  0
VERTEX
  8
0
  5
2D7
 10
157.822
 20
47.9731
 30
0.000000
  70
    32
  0
VERTEX
  8
0
  5
2D8
 10
157.822
 20
47.9617
 30
0.000000
  70
    32
  0
VERTEX
  8
0
  5
2D9
 10
157.822
 20
47.9502
 30
0.000000
  70
    32
  0
VERTEX
  8
0
  5
2DA
 10
157.822
 20
47.9388
 30
0.000000
  70
    32
  0
VERTEX
  8
0
  5
2DB
 10
157.822
 20
47.9273
 30
0.000000
  70
    32
  0
VERTEX
  8
0
  5
2DC
 10
157.823
 20
47.9159
 30
0.000000
  70
    32
  0
VERTEX
  8
0
  5
2DD
 10
157.823
 20
47.9045
 30
0.000000
  70
    32
  0
VERTEX
  8
0
  5
2DE
 10
157.823
 20
47.8931
 30
0.000000
  70
    32
  0
VERTEX
  8
0
  5
2DF
 10
157.824
 20
47.8818
 30
0.000000
  70
    32
  0
VERTEX
  8
0
  5
2E0
 10
157.824
 20
47.8704
 30
0.000000
  70
    32
  0
VERTEX
  8
0
  5
2E1
 10
157.824
 20
47.8591
 30
0.000000
  70
    32
  0
VERTEX
  8
0
  5
2E2
 10
157.825
 20
47.8478
 30
0.000000
  70
    32
  0
VERTEX
  8
0
  5
2E3
 10
157.825
 20
47.8365
 30
0.000000
  70
    32
  0
VERTEX
  8
0
  5
2E4
 10
157.826
 20
47.8253
 30
0.000000
  70
    32
  0
VERTEX
  8
0
  5
2E5
 10
157.827
 20
47.8141
 30
0.000000
  70
    32
  0
VERTEX
  8
0
  5
2E6
 10
157.827
 20
47.8029
 30
0.000000
  70
    32
  0
VERTEX
  8
0
  5
2E7
 10
157.828
 20
47.7918
 30
0.000000
  70
    32
  0
VERTEX
  8
0
  5
2E8
 10
157.829
 20
47.7807
 30
0.000000
  70
    32
  0
VERTEX
  8
0
  5
2E9
 10
157.830
 20
47.7696
 30
0.000000
  70
    32
  0
VERTEX
  8
0
  5
2EA
 10
157.830
 20
47.7586
 30
0.000000
  70
    32
  0
VERTEX
  8
0
  5
2EB
 10
157.831
 20
47.7476
 30
0.000000
  70
    32
  0
VERTEX
  8
0
  5
2EC
 10
157.832
 20
47.7367
 30
0.000000
  70
    32
  0
VERTEX
  8
0
  5
2ED
 10
157.833
 20
47.7259
 30
0.000000
  70
    32
  0
VERTEX
  8
0
  5
2EE
 10
157.834
 20
47.7150
 30
0.000000
  70
    32
  0
VERTEX
  8
0
  5
2EF
 10
157.835
 20
47.7043
 30
0.000000
  70
    32
  0
VERTEX
  8
0
  5
2F0
 10
157.836
 20
47.6936
 30
0.000000
  70
    32
  0
VERTEX
  8
0
  5
2F1
 10
157.837
 20
47.6829
 30
0.000000
  70
    32
  0
VERTEX
  8
0
  5
2F2
 10
157.838
 20
47.6723
 30
0.000000
  70
    32
  0
VERTEX
  8
0
  5
2F3
 10
157.839
 20
47.6618
 30
0.000000
  70
    32
  0
VERTEX
  8
0
  5
2F4
 10
157.841
 20
47.6514
 30
0.000000
  70
    32
  0
VERTEX
  8
0
  5
2F5
 10
157.842
 20
47.6410
 30
0.000000
  70
    32
  0
VERTEX
  8
0
  5
2F6
 10
157.843
 20
47.6307
 30
0.000000
  70
    32
  0
VERTEX
  8
0
  5
2F7
 10
157.845
 20
47.6204
 30
0.000000
  70
    32
  0
VERTEX
  8
0
  5
2F8
 10
157.846
 20
47.6103
 30
0.000000
  70
    32
  0
VERTEX
  8
0
  5
2F9
 10
157.847
 20
47.6002
 30
0.000000
  70
    32
  0
VERTEX
  8
0
  5
2FA
 10
157.849
 20
47.5902
 30
0.000000
  70
    32
  0
VERTEX
  8
0
  5
2FB
 10
157.850
 20
47.5802
 30
0.000000
  70
    32
  0
VERTEX
  8
0
  5
2FC
 10
157.852
 20
47.5704
 30
0.000000
  70
    32
  0
VERTEX
  8
0
  5
2FD
 10
157.853
 20
47.5606
 30
0.000000
  70
    32
  0
VERTEX
  8
0
  5
2FE
 10
157.855
 20
47.5509
 30
0.000000
  70
    32
  0
VERTEX
  8
0
  5
2FF
 10
157.857
 20
47.5413
 30
0.000000
  70
    32
  0
VERTEX
  8
0
  5
300
 10
157.858
 20
47.5318
 30
0.000000
  70
    32
  0
VERTEX
  8
0
  5
301
 10
157.860
 20
47.5224
 30
0.000000
  70
    32
  0
VERTEX
  8
0
  5
302
 10
157.862
 20
47.5131
 30
0.000000
  70
    32
  0
VERTEX
  8
0
  5
303
 10
157.863
 20
47.5039
 30
0.000000
  70
    32
  0
VERTEX
  8
0
  5
304
 10
157.865
 20
47.4948
 30
0.000000
  70
    32
  0
VERTEX
  8
0
  5
305
 10
157.867
 20
47.4858
 30
0.000000
  70
    32
  0
VERTEX
  8
0
  5
306
 10
157.869
 20
47.4768
 30
0.000000
  70
    32
  0
VERTEX
  8
0
  5
307
 10
157.871
 20
47.4680
 30
0.000000
  70
    32
  0
VERTEX
  8
0
  5
308
 10
157.873
 20
47.4593
 30
0.000000
  70
    32
  0
VERTEX
  8
0
  5
309
 10
157.875
 20
47.4507
 30
0.000000
  70
    32
  0
VERTEX
  8
0
  5
30A
 10
157.877
 20
47.4422
 30
0.000000
  70
    32
  0
VERTEX
  8
0
  5
30B
 10
157.879
 20
47.4338
 30
0.000000
  70
    32
  0
VERTEX
  8
0
  5
30C
 10
157.881
 20
47.4255
 30
0.000000
  70
    32
  0
VERTEX
  8
0
  5
30D
 10
157.883
 20
47.4174
 30
0.000000
  70
    32
  0
VERTEX
  8
0
  5
30E
 10
157.885
 20
47.4093
 30
0.000000
  70
    32
  0
VERTEX
  8
0
  5
30F
 10
157.887
 20
47.4014
 30
0.000000
  70
    32
  0
VERTEX
  8
0
  5
310
 10
157.889
 20
47.3936
 30
0.000000
  70
    32
  0
VERTEX
  8
0
  5
311
 10
157.892
 20
47.3859
 30
0.000000
  70
    32
  0
VERTEX
  8
0
  5
312
 10
157.894
 20
47.3784
 30
0.000000
  70
    32
  0
VERTEX
  8
0
  5
313
 10
157.896
 20
47.3709
 30
0.000000
  70
    32
  0
VERTEX
  8
0
  5
314
 10
157.898
 20
47.3636
 30
0.000000
  70
    32
  0
VERTEX
  8
0
  5
315
 10
157.901
 20
47.3564
 30
0.000000
  70
    32
  0
VERTEX
  8
0
  5
316
 10
157.903
 20
47.3493
 30
0.000000
  70
    32
  0
SEQEND
  8
0
  5
317
  0
CIRCLE
  5
E7
  8
0
 10
41.598740732255919
 20
112.8593817029128
 30
0.0
 40
2.5000000000000071
  0
TEXT
  5
17B
  8
0
 62
     3
 10
0.0
 20
0.0
 30
0.0
 40
10.0
  1
STG47X10-SOFT
  7
STANDARD1
  0
ENDSEC
  0
EOF
