  0
SECTION
  2
HEADER
  9
$ACADVER
  1
AC1009
  9
$INSBASE
 10
0.0
 20
0.0
 30
0.0
  9
$EXTMIN
 10
0.0
 20
-2.960436562073669
 30
0.0
  9
$EXTMAX
 10
368.4396407223561
 20
353.0000000060918
 30
0.0
  9
$LIMMIN
 10
0.0
 20
0.0
  9
$LIMMAX
 10
297.0
 20
210.0
  9
$ORTHOMODE
 70
     1
  9
$REGENMODE
 70
     1
  9
$FILLMODE
 70
     1
  9
$QTEXTMODE
 70
     0
  9
$MIRRTEXT
 70
     0
  9
$DRAGMODE
 70
     2
  9
$LTSCALE
 40
5.0
  9
$OSMODE
 70
    55
  9
$ATTMODE
 70
     1
  9
$TEXTSIZE
 40
3.0
  9
$TRACEWID
 40
0.05
  9
$TEXTSTYLE
  7
STANDARD
  9
$CLAYER
  8
0
  9
$CELTYPE
  6
BYLAYER
  9
$CECOLOR
 62
   256
  9
$DIMSCALE
 40
1.0
  9
$DIMASZ
 40
3.0
  9
$DIMEXO
 40
2.0
  9
$DIMDLI
 40
10.0
  9
$DIMRND
 40
0.0
  9
$DIMDLE
 40
0.0
  9
$DIMEXE
 40
2.0
  9
$DIMTP
 40
0.0
  9
$DIMTM
 40
0.0
  9
$DIMTXT
 40
3.0
  9
$DIMCEN
 40
0.0
  9
$DIMTSZ
 40
0.0
  9
$DIMTOL
 70
     0
  9
$DIMLIM
 70
     0
  9
$DIMTIH
 70
     0
  9
$DIMTOH
 70
     0
  9
$DIMSE1
 70
     0
  9
$DIMSE2
 70
     0
  9
$DIMTAD
 70
     1
  9
$DIMZIN
 70
     0
  9
$DIMBLK
  1

  9
$DIMASO
 70
     1
  9
$DIMSHO
 70
     0
  9
$DIMPOST
  1

  9
$DIMAPOST
  1

  9
$DIMALT
 70
     0
  9
$DIMALTD
 70
     2
  9
$DIMALTF
 40
25.399999999999999
  9
$DIMLFAC
 40
1.0
  9
$DIMTOFL
 70
     1
  9
$DIMTVP
 40
1.6000000000000001
  9
$DIMTIX
 70
     1
  9
$DIMSOXD
 70
     0
  9
$DIMSAH
 70
     0
  9
$DIMBLK1
  1
ARROW1
  9
$DIMBLK2
  1
ARROW1
  9
$DIMSTYLE
  2
STANDARD
  9
$DIMCLRD
 70
     0
  9
$DIMCLRE
 70
     0
  9
$DIMCLRT
 70
     0
  9
$DIMTFAC
 40
1.0
  9
$DIMGAP
 40
0.09
  9
$LUNITS
 70
     2
  9
$LUPREC
 70
     2
  9
$SKETCHINC
 40
0.1
  9
$FILLETRAD
 40
0.0
  9
$AUNITS
 70
     0
  9
$AUPREC
 70
     2
  9
$MENU
  1
ME
  9
$ELEVATION
 40
0.0
  9
$PELEVATION
 40
0.0
  9
$THICKNESS
 40
0.0
  9
$LIMCHECK
 70
     0
  9
$BLIPMODE
 70
     0
  9
$CHAMFERA
 40
1.0
  9
$CHAMFERB
 40
1.0
  9
$SKPOLY
 70
     0
  9
$TDCREATE
 40
2452423.367022106
  9
$TDUPDATE
 40
2456598.5620835531
  9
$TDINDWG
 40
0.3766519097
  9
$TDUSRTIMER
 40
0.376648669
  9
$USRTIMER
 70
     1
  9
$ANGBASE
 50
0.0
  9
$ANGDIR
 70
     0
  9
$PDMODE
 70
     0
  9
$PDSIZE
 40
0.0
  9
$PLINEWID
 40
0.0
  9
$COORDS
 70
     1
  9
$SPLFRAME
 70
     0
  9
$SPLINETYPE
 70
     6
  9
$SPLINESEGS
 70
     8
  9
$ATTDIA
 70
     0
  9
$ATTREQ
 70
     1
  9
$HANDLING
 70
     1
  9
$HANDSEED
  5
110A
  9
$SURFTAB1
 70
     6
  9
$SURFTAB2
 70
     6
  9
$SURFTYPE
 70
     6
  9
$SURFU
 70
     6
  9
$SURFV
 70
     6
  9
$UCSNAME
  2

  9
$UCSORG
 10
0.0
 20
0.0
 30
0.0
  9
$UCSXDIR
 10
1.0
 20
0.0
 30
0.0
  9
$UCSYDIR
 10
0.0
 20
1.0
 30
0.0
  9
$PUCSNAME
  2

  9
$PUCSORG
 10
0.0
 20
0.0
 30
0.0
  9
$PUCSXDIR
 10
1.0
 20
0.0
 30
0.0
  9
$PUCSYDIR
 10
0.0
 20
1.0
 30
0.0
  9
$USERI1
 70
     4
  9
$USERI2
 70
     1
  9
$USERI3
 70
     1
  9
$USERI4
 70
     1
  9
$USERI5
 70
     0
  9
$USERR1
 40
1.0
  9
$USERR2
 40
3.0
  9
$USERR3
 40
3.0
  9
$USERR4
 40
3.0
  9
$USERR5
 40
10.0
  9
$WORLDVIEW
 70
     1
  9
$SHADEDGE
 70
     3
  9
$SHADEDIF
 70
    70
  9
$TILEMODE
 70
     1
  9
$MAXACTVP
 70
    16
  9
$PLIMCHECK
 70
     0
  9
$PEXTMIN
 10
1.0000000000000000E+020
 20
1.0000000000000000E+020
 30
1.0000000000000000E+020
  9
$PEXTMAX
 10
-1.0000000000000000E+020
 20
-1.0000000000000000E+020
 30
-1.0000000000000000E+020
  9
$PLIMMIN
 10
0.0
 20
0.0
  9
$PLIMMAX
 10
12.0
 20
9.0
  9
$UNITMODE
 70
     0
  9
$VISRETAIN
 70
     0
  9
$PLINEGEN
 70
     0
  9
$PSLTSCALE
 70
     0
  0
ENDSEC
  0
SECTION
  2
TABLES
  0
TABLE
  2
VPORT
 70
     1
  0
VPORT
  2
*ACTIVE
 70
     0
 10
0.0
 20
0.0
 11
1.0
 21
1.0
 12
184.2198212190184
 22
257.87841225117842
 13
0.0
 23
0.0
 14
5.0
 24
5.0
 15
10.0
 25
10.0
 16
0.0
 26
0.0
 36
1.0
 17
0.0
 27
0.0
 37
0.0
 40
526.296698511513
 41
1.7807262569832401
 42
50.0
 43
0.0
 44
0.0
 50
0.0
 51
0.0
 71
     0
 72
   500
 73
     1
 74
     0
 75
     0
 76
     0
 77
     0
 78
     1
  0
ENDTAB
  0
TABLE
  2
LTYPE
 70
     2
  0
LTYPE
  2
CONTINUOUS
 70
     0
  3
Solid Line
 72
    65
 73
     0
 40
0.0
  0
LTYPE
  2
CENTER
 70
     0
  3
____ _ ____ _ ____ _ ____ _ ____ _ ____ _ ____
 72
    65
 73
     4
 40
2.0
 49
1.25
 49
-0.25
 49
0.25
 49
-0.25
  0
ENDTAB
  0
TABLE
  2
LAYER
 70
     5
  0
LAYER
  2
0
 70
     0
 62
     7
  6
CONTINUOUS
  0
LAYER
  2
1
 70
     0
 62
     1
  6
CENTER
  0
LAYER
  2
3
 70
     0
 62
     3
  6
CONTINUOUS
  0
LAYER
  2
WAKU
 70
     0
 62
     5
  6
CONTINUOUS
  0
LAYER
  2
DEFPOINTS
 70
     0
 62
     7
  6
CONTINUOUS
  0
ENDTAB
  0
TABLE
  2
STYLE
 70
     2
  0
STYLE
  2
STANDARD
 70
     0
 40
0.0
 41
1.0
 50
0.0
 71
     0
 42
3.0
  3
simplex.shx
  4
EXTFONT.shx
  0
STYLE
  2
STANDARD1
 70
     0
 40
0.0
 41
1.0
 50
0.0
 71
     0
 42
3.0
  3
txt
  4

  0
ENDTAB
  0
TABLE
  2
VIEW
 70
     0
  0
ENDTAB
  0
TABLE
  2
UCS
 70
     0
  0
ENDTAB
  0
TABLE
  2
APPID
 70
     7
  0
APPID
  2
ACAD
 70
     0
  0
APPID
  2
ACAD_DSTYLE_DIMRADIAL_EXTENSION
 70
     0
  0
APPID
  2
ACAD_DSTYLE_DIMJAG
 70
     0
  0
APPID
  2
ACAD_DSTYLE_DIMTALN
 70
     0
  0
APPID
  2
ACAD_EXEMPT_FROM_CAD_STANDARDS
 70
     0
  0
APPID
  2
ACAD_MLEADERVER
 70
     0
  0
APPID
  2
ACAD_NAV_VCDISPLAY
 70
     0
  0
ENDTAB
  0
TABLE
  2
DIMSTYLE
 70
     1
  0
DIMSTYLE
  2
STANDARD
 70
     0
  3

  4

  5

  6

  7

 40
1.0
 41
0.18
 42
0.0625
 43
0.38
 44
0.18
 45
0.0
 46
0.0
 47
0.0
 48
0.0
140
0.18
141
0.09
142
0.0
143
25.399999999999999
144
1.0
145
0.0
146
1.0
147
0.09
 71
     0
 72
     0
 73
     1
 74
     1
 75
     0
 76
     0
 77
     0
 78
     0
170
     0
171
     2
172
     0
173
     0
174
     0
175
     0
176
     0
177
     0
178
     0
  0
ENDTAB
  0
ENDSEC
  0
SECTION
  2
BLOCKS
  0
BLOCK
  8
0
  2
$MODEL_SPACE
 70
     0
 10
0.0
 20
0.0
 30
0.0
  3
$MODEL_SPACE
  1

  0
ENDBLK
  5
33
  8
0
  0
BLOCK
 67
     1
  8
0
  2
$PAPER_SPACE
 70
     0
 10
0.0
 20
0.0
 30
0.0
  3
$PAPER_SPACE
  1

  0
ENDBLK
  5
31
 67
     1
  8
0
  0
BLOCK
  8
0
  2
ARROW1
 70
     0
 10
0.0
 20
0.0
 30
0.0
  3
ARROW1
  1

  0
SOLID
  5
D5
  8
WAKU
  6
CONTINUOUS
 62
     4
 10
-1.0
 20
0.1666666666666714
 30
0.0
 11
-1.0
 21
-0.1666666666666714
 31
0.0
 12
0.0
 22
0.0
 32
0.0
 13
0.0
 23
0.0
 33
0.0
  0
ENDBLK
  5
D7
  8
0
  0
ENDSEC
  0
SECTION
  2
ENTITIES
  0
LINE
  5
CE6
  8
0
 10
159.32988919254771
 20
230.15049999999979
 30
0.0
 11
156.47988919254769
 21
233.0004999999999
 31
0.0
  0
LINE
  5
CE7
  8
0
 10
134.17988919254771
 20
233.0004999999999
 30
0.0
 11
131.32988919254771
 21
230.15049999999979
 31
0.0
  0
LINE
  5
CE8
  8
0
 10
159.3298891925476
 20
227.9747928496723
 30
0.0
 11
159.32988919254771
 21
230.15049999999979
 31
0.0
  0
LINE
  5
CE9
  8
0
 10
159.32988919254771
 20
188.10049999999981
 30
0.0
 11
159.32988919254771
 21
215.97479252858261
 31
0.0
  0
LINE
  5
CEA
  8
0
 10
131.32988919254771
 20
230.15049999999979
 30
0.0
 11
131.32988919254771
 21
188.10049999999981
 31
0.0
  0
LINE
  5
CEB
  8
0
 10
158.22988919254769
 20
187.0004999999999
 30
0.0
 11
159.32988919254771
 21
188.10049999999981
 31
0.0
  0
LINE
  5
CEC
  8
0
 10
131.32988919254771
 20
188.10049999999981
 30
0.0
 11
132.42988919254771
 21
187.0004999999999
 31
0.0
  0
LINE
  5
CED
  8
0
 10
154.82988919254771
 20
176.00049999999979
 30
0.0
 11
154.82988919254771
 21
187.0004999999999
 31
0.0
  0
LINE
  5
CEE
  8
0
 10
135.82988919254771
 20
187.0004999999999
 30
0.0
 11
135.82988919254771
 21
176.00049999999979
 31
0.0
  0
LINE
  5
CEF
  8
0
 10
173.2719282044292
 20
227.97479252858261
 30
0.0
 11
159.32988919254771
 21
227.97479252858261
 31
0.0
  0
LINE
  5
CF0
  8
0
 10
159.32988919254771
 20
215.97479252858261
 30
0.0
 11
174.32988919254771
 21
215.97479252858261
 31
0.0
  0
ARC
  5
CF1
  8
0
 10
174.32988919254771
 20
221.97479252858261
 30
0.0
 40
6.0
 50
270.0
 51
295.05796299999651
  0
LINE
  5
CF2
  8
0
 10
237.24970260474601
 20
251.2607984417082
 30
0.0
 11
173.27192820442909
 21
227.97479252858261
 31
0.0
  0
LINE
  5
CF3
  8
0
 10
177.37412379304931
 20
216.697736810355
 30
0.0
 11
241.3539445182702
 21
239.9844864602683
 31
0.0
  0
LINE
  5
CF4
  8
1
 10
244.14746618549719
 20
269.73404502884227
 30
0.0
 11
258.51231220517531
 21
230.26695495583419
 31
0.0
  0
ARC
  5
CF5
  8
0
 10
175.32404819254771
 20
222.3366365285826
 30
0.0
 40
6.0
 50
284.94203700000088
 51
289.99999999999733
  0
LINE
  5
CF6
  8
0
 10
134.17988919254771
 20
233.0004999999999
 30
0.0
 11
156.47988919254769
 21
233.0004999999999
 31
0.0
  0
LINE
  5
CF7
  8
0
 10
131.32988919254771
 20
230.15049999999979
 30
0.0
 11
159.32988919254771
 21
230.15049999999979
 31
0.0
  0
LINE
  5
CF8
  8
0
 10
131.32988919254771
 20
188.10049999999981
 30
0.0
 11
159.32988919254771
 21
188.10049999999981
 31
0.0
  0
LINE
  5
CF9
  8
0
 10
132.42988919254771
 20
187.0004999999999
 30
0.0
 11
158.22988919254769
 21
187.0004999999999
 31
0.0
  0
LINE
  5
CFA
  8
0
 10
135.82988919254771
 20
176.00049999999979
 30
0.0
 11
154.82988919254771
 21
176.00049999999979
 31
0.0
  0
LINE
  5
CFB
  8
0
 10
159.32988919254771
 20
227.97479252858261
 30
0.0
 11
159.32963019254771
 21
227.9741885285826
 31
0.0
  0
ARC
  5
CFC
  8
0
 10
173.32728419254769
 20
221.97479252858261
 30
0.0
 40
15.229151999999999
 50
156.8000189999982
 51
203.20245099999971
  0
LINE
  5
CFD
  8
0
 10
159.32988919254771
 20
215.97479252858261
 30
0.0
 11
159.32669019254769
 21
215.9822605285826
 31
0.0
  0
LINE
  5
CFE
  8
1
 10
145.32988919254771
 20
238.0004999999999
 30
0.0
 11
145.32988919254771
 21
111.0004999999998
 31
0.0
  0
LINE
  5
CFF
  8
1
 10
145.32988919254771
 20
221.97479252858261
 30
0.0
 11
174.32988843143161
 21
221.97479252858261
 31
0.0
  0
LINE
  5
D00
  8
1
 10
174.32988919254771
 20
221.97479252858261
 30
0.0
 11
271.06343429249728
 21
257.1829228876
 31
0.0
  0
LINE
  5
D01
  8
0
 10
361.43964072235599
 20
230.15049999999979
 30
0.0
 11
358.58964072235602
 21
233.0004999999999
 31
0.0
  0
LINE
  5
D02
  8
0
 10
336.28964072235613
 20
233.0004999999999
 30
0.0
 11
333.4396407223561
 21
230.15049999999979
 31
0.0
  0
LINE
  5
D03
  8
0
 10
361.43964072235599
 20
188.10049999999981
 30
0.0
 11
361.43964072235599
 21
230.15049999999979
 31
0.0
  0
LINE
  5
D04
  8
0
 10
333.4396407223561
 20
230.15049999999979
 30
0.0
 11
333.4396407223561
 21
188.10049999999981
 31
0.0
  0
LINE
  5
D05
  8
0
 10
360.33964072235602
 20
187.0004999999999
 30
0.0
 11
361.43964072235599
 21
188.10049999999981
 31
0.0
  0
LINE
  5
D06
  8
0
 10
333.4396407223561
 20
188.10049999999981
 30
0.0
 11
334.53964072235613
 21
187.0004999999999
 31
0.0
  0
LINE
  5
D07
  8
0
 10
356.93964072235599
 20
176.00049999999979
 30
0.0
 11
356.93964072235599
 21
187.0004999999999
 31
0.0
  0
LINE
  5
D08
  8
0
 10
337.93964072235599
 20
187.0004999999999
 30
0.0
 11
337.93964072235599
 21
176.00049999999979
 31
0.0
  0
LINE
  5
D09
  8
1
 10
368.4396407223561
 20
250.0004999999999
 30
0.0
 11
326.4396407223561
 21
250.0004999999999
 31
0.0
  0
LINE
  5
D0A
  8
1
 10
347.43964072235622
 20
271.00049999999987
 30
0.0
 11
347.43964072235588
 21
111.0004999999998
 31
0.0
  0
LINE
  5
D0B
  8
0
 10
353.4396407223561
 20
233.00049999999979
 30
0.0
 11
358.58964072235602
 21
233.0004999999999
 31
0.0
  0
LINE
  5
D0C
  8
0
 10
336.28964072235613
 20
233.0004999999999
 30
0.0
 11
341.43964072235588
 21
233.00049999999979
 31
0.0
  0
LINE
  5
D0D
  8
0
 10
341.39979072235599
 20
230.15049999999979
 30
0.0
 11
341.4396407223561
 21
230.15049999999979
 31
0.0
  0
LINE
  5
D0E
  8
0
 10
353.47949072235599
 20
230.15049999999979
 30
0.0
 11
361.43964072235599
 21
230.15049999999979
 31
0.0
  0
LINE
  5
D0F
  8
0
 10
333.4396407223561
 20
230.15049999999979
 30
0.0
 11
341.39979072235599
 21
230.15049999999979
 31
0.0
  0
LINE
  5
D10
  8
0
 10
333.4396407223561
 20
188.10049999999981
 30
0.0
 11
361.43964072235599
 21
188.10049999999981
 31
0.0
  0
LINE
  5
D11
  8
0
 10
334.53964072235613
 20
187.0004999999999
 30
0.0
 11
360.33964072235602
 21
187.0004999999999
 31
0.0
  0
LINE
  5
D12
  8
0
 10
337.93964072235599
 20
176.00049999999979
 30
0.0
 11
356.93964072235599
 21
176.00049999999979
 31
0.0
  0
LINE
  5
D13
  8
1
 10
358.43356513517421
 20
221.97479252858261
 30
0.0
 11
336.44571630953789
 21
221.97479252858261
 31
0.0
  0
LINE
  5
D14
  8
0
 10
37.100000000000108
 20
187.0004999999999
 30
0.0
 11
62.900000000000063
 21
187.0004999999999
 31
0.0
  0
LINE
  5
D15
  8
0
 10
36.000000000000078
 20
188.10049999999981
 30
0.0
 11
64.000000000000085
 21
188.10049999999981
 31
0.0
  0
LINE
  5
D16
  8
0
 10
36.000000000000078
 20
230.15049999999979
 30
0.0
 11
43.960150000000077
 21
230.15049999999979
 31
0.0
  0
LINE
  5
D17
  8
0
 10
56.039850000000079
 20
230.15049999999979
 30
0.0
 11
64.000000000000085
 21
230.15049999999979
 31
0.0
  0
LINE
  5
D18
  8
0
 10
43.960150000000077
 20
230.15049999999979
 30
0.0
 11
56.039850000000079
 21
230.15049999999979
 31
0.0
  0
LINE
  5
D19
  8
0
 10
38.849999999999881
 20
233.0004999999999
 30
0.0
 11
61.150000000000063
 21
233.0004999999999
 31
0.0
  0
LINE
  5
D1A
  8
1
 10
50.000000000000078
 20
271.0004999918466
 30
0.0
 11
49.999999999999922
 21
111.0004999999998
 31
0.0
  0
LINE
  5
D1B
  8
1
 10
71.000000000000085
 20
250.0004999918466
 30
0.0
 11
29.000000000000089
 21
250.0004999918466
 31
0.0
  0
LINE
  5
D1C
  8
0
 10
40.500000000000078
 20
187.0004999999999
 30
0.0
 11
40.500000000000078
 21
176.00049999999979
 31
0.0
  0
LINE
  5
D1D
  8
0
 10
59.500000000000092
 20
176.00049999999979
 30
0.0
 11
59.500000000000092
 21
187.0004999999999
 31
0.0
  0
LINE
  5
D1E
  8
0
 10
36.000000000000078
 20
188.10049999999981
 30
0.0
 11
37.100000000000108
 21
187.0004999999999
 31
0.0
  0
LINE
  5
D1F
  8
0
 10
62.900000000000063
 20
187.0004999999999
 30
0.0
 11
64.000000000000085
 21
188.10049999999981
 31
0.0
  0
LINE
  5
D20
  8
0
 10
36.000000000000078
 20
230.15049999999979
 30
0.0
 11
36.000000000000078
 21
188.10049999999981
 31
0.0
  0
LINE
  5
D21
  8
0
 10
64.000000000000085
 20
188.10049999999981
 30
0.0
 11
64.000000000000085
 21
230.15049999999979
 31
0.0
  0
LINE
  5
D22
  8
0
 10
38.850000000000108
 20
233.0004999999999
 30
0.0
 11
36.000000000000078
 21
230.15049999999979
 31
0.0
  0
LINE
  5
D23
  8
0
 10
64.000000000000085
 20
230.15049999999979
 30
0.0
 11
61.150000000000063
 21
233.0004999999999
 31
0.0
  0
LINE
  5
D24
  8
0
 10
40.500000000000078
 20
176.00049999999979
 30
0.0
 11
59.500000000000092
 21
176.00049999999979
 31
0.0
  0
LINE
  5
D25
  8
0
 10
353.43964072235622
 20
230.15049999999979
 30
0.0
 11
353.47949072235599
 21
230.15049999999979
 31
0.0
  0
ARC
  5
D26
  8
0
 10
347.4396407223561
 20
221.97479252858261
 30
0.0
 40
6.0
 50
180.0
 51
0.0
  0
LINE
  5
D27
  8
0
 10
341.43964072235588
 20
221.97479252858261
 30
0.0
 11
341.4396407223561
 21
235.16810302580851
 31
0.0
  0
LINE
  5
D28
  8
0
 10
353.43964072235588
 20
221.97479252858261
 30
0.0
 11
353.4396407223561
 21
235.16810302580851
 31
0.0
  0
LINE
  5
D29
  8
0
 10
55.999999999999972
 20
233.00049999999979
 30
0.0
 11
55.999999999999972
 21
245.62264215727819
 31
0.0
  0
LINE
  5
D2A
  8
0
 10
44.000000000000313
 20
233.0004999999999
 30
0.0
 11
44.000000000000313
 21
245.62264215727819
 31
0.0
  0
LINE
  5
D2B
  8
0
 10
236.7385886070858
 20
338.0000000060918
 30
0.0
 11
157.9789998332212
 21
338.0000000060918
 31
0.0
  0
LINE
  5
D2C
  8
0
 10
157.9789998332212
 20
326.00000000609168
 30
0.0
 11
236.73886244235729
 21
326.0000000060918
 31
0.0
  0
CIRCLE
  5
D2D
  8
0
 10
145.32988919254771
 20
332.0000000060918
 30
0.0
 40
11.15
  0
CIRCLE
  5
D2E
  8
0
 10
145.32988919254771
 20
332.0000000060918
 30
0.0
 40
14.0
  0
LINE
  5
D2F
  8
3
 10
174.32988919254771
 20
338.0000000060918
 30
0.0
 11
174.3298891925476
 21
326.0000000060918
 31
0.0
  0
ARC
  5
D30
  8
0
 10
183.1874645364955
 20
332.14967900609167
 30
0.0
 40
9.9166660000000011
 50
180.86483709785031
 51
217.75261900000049
  0
LINE
  5
D31
  8
1
 10
251.32988919398539
 20
353.0000000060918
 30
0.0
 11
251.32988919398539
 21
311.0000000060918
 31
0.0
  0
LINE
  5
D32
  8
1
 10
145.32988919254771
 20
351.0000000060918
 30
0.0
 11
145.32988919254771
 21
313.0000000060918
 31
0.0
  0
LINE
  5
D33
  8
1
 10
272.32988919398542
 20
332.0000000060918
 30
0.0
 11
126.3298891925477
 21
332.0000000060918
 31
0.0
  0
LINE
  5
D34
  8
1
 10
272.32988919398542
 20
50.0
 30
0.0
 11
126.3298891925477
 21
50.0
 31
0.0
  0
LINE
  5
D35
  8
1
 10
145.32988919254771
 20
69.0
 30
0.0
 11
145.32988919254771
 21
31.0
 31
0.0
  0
LINE
  5
D36
  8
1
 10
251.32988919398539
 20
71.0
 30
0.0
 11
251.32988919398539
 21
29.0
 31
0.0
  0
ARC
  5
D37
  8
0
 10
175.30928419254761
 20
55.201257999999989
 30
0.0
 40
0.7988780000000001
 50
64.420114999997651
 51
88.941027999998312
  0
ARC
  5
D38
  8
0
 10
167.81348719254771
 20
49.850321000000008
 30
0.0
 40
9.9166660000000011
 50
329.33794199999909
 51
37.752619000000323
  0
ARC
  5
D39
  8
0
 10
175.3188331925476
 20
45.058727000000033
 30
0.0
 40
1.05874
 50
270.28222399999731
 51
345.4689690000007
  0
CIRCLE
  5
D3A
  8
0
 10
145.32988919254771
 20
50.0
 30
0.0
 40
9.5
  0
CIRCLE
  5
D3B
  8
0
 10
145.32988919254771
 20
50.0
 30
0.0
 40
12.9
  0
CIRCLE
  5
D3C
  8
0
 10
145.32988919254771
 20
50.0
 30
0.0
 40
14.0
  0
LINE
  5
D3D
  8
0
 10
157.9789998332212
 20
44.0
 30
0.0
 11
239.30182364792569
 21
44.0
 31
0.0
  0
LINE
  5
D3E
  8
0
 10
239.30182364792569
 20
56.0
 30
0.0
 11
157.9789998332212
 21
56.0
 31
0.0
  0
ARC
  5
D3F
  8
0
 10
183.1874645364955
 20
331.85032100609192
 30
0.0
 40
9.9166660000000011
 50
142.24738099999951
 51
179.1351629021496
  0
LINE
  5
D40
  8
0
 10
45.999999999999957
 20
116.0004999999998
 30
0.0
 11
53.999999999999972
 21
116.0004999999998
 31
0.0
  0
LINE
  5
D41
  8
0
 10
43.999999999999972
 20
118.0004999999998
 30
0.0
 11
55.999999999999972
 21
118.0004999999998
 31
0.0
  0
LINE
  5
D42
  8
0
 10
43.999999999999972
 20
173.76024788528389
 30
0.0
 11
55.999999999999972
 21
173.76024788528389
 31
0.0
  0
LINE
  5
D43
  8
0
 10
45.999999999999957
 20
116.0004999999998
 30
0.0
 11
43.999999999999972
 21
118.0004999999998
 31
0.0
  0
LINE
  5
D44
  8
0
 10
43.999999999999972
 20
118.0004999999998
 30
0.0
 11
43.999999999999972
 21
175.40049999999979
 31
0.0
  0
ARC
  5
D45
  8
0
 10
43.399999999999949
 20
175.40049999999979
 30
0.0
 40
0.6
 50
0.0
 51
90.0
  0
LINE
  5
D46
  8
3
 10
44.000000000000078
 20
175.40050000004601
 30
0.0
 11
44.946999999999967
 21
173.76024788527849
 31
0.0
  0
LINE
  5
D47
  8
3
 10
44.946999999999967
 20
173.76024788527849
 30
0.0
 11
44.946999999999967
 21
117.0534999999999
 31
0.0
  0
LINE
  5
D48
  8
3
 10
55.052999999999969
 20
173.76024788527849
 30
0.0
 11
55.052999999999969
 21
117.0534999999999
 31
0.0
  0
LINE
  5
D49
  8
3
 10
55.999999999999858
 20
175.40050000004601
 30
0.0
 11
55.052999999999969
 21
173.76024788527849
 31
0.0
  0
ARC
  5
D4A
  8
0
 10
56.600000000000001
 20
175.40049999999979
 30
0.0
 40
0.6
 50
90.0
 51
180.0
  0
LINE
  5
D4B
  8
0
 10
55.999999999999972
 20
118.0004999999998
 30
0.0
 11
55.999999999999972
 21
175.40049999999979
 31
0.0
  0
LINE
  5
D4C
  8
0
 10
53.999999999999972
 20
116.0004999999998
 30
0.0
 11
55.999999999999972
 21
118.0004999999998
 31
0.0
  0
CIRCLE
  5
D4D
  8
0
 10
145.32988919254771
 20
50.0
 30
0.0
 40
6.0
  0
CIRCLE
  5
D4E
  8
3
 10
145.32988919254771
 20
50.0
 30
0.0
 40
5.052999999999999
  0
LINE
  5
D4F
  8
0
 10
149.32988919254771
 20
116.0004999999998
 30
0.0
 11
151.32988919254771
 21
118.0004999999998
 31
0.0
  0
LINE
  5
D50
  8
0
 10
151.32988919254771
 20
118.0004999999998
 30
0.0
 11
151.32988919254771
 21
175.40049999999979
 31
0.0
  0
ARC
  5
D51
  8
0
 10
151.92988919254771
 20
175.40049999999979
 30
0.0
 40
0.6
 50
90.0
 51
180.0
  0
LINE
  5
D52
  8
3
 10
151.3298891925476
 20
175.40050000004601
 30
0.0
 11
150.38288919254771
 21
173.76024788527849
 31
0.0
  0
LINE
  5
D53
  8
3
 10
150.38288919254771
 20
173.76024788527849
 30
0.0
 11
150.38288919254771
 21
117.0534999999999
 31
0.0
  0
LINE
  5
D54
  8
3
 10
140.27688919254771
 20
173.76024788527849
 30
0.0
 11
140.27688919254771
 21
117.0534999999999
 31
0.0
  0
LINE
  5
D55
  8
3
 10
139.3298891925478
 20
175.40050000004601
 30
0.0
 11
140.27688919254771
 21
173.76024788527849
 31
0.0
  0
ARC
  5
D56
  8
0
 10
138.72988919254769
 20
175.40049999999979
 30
0.0
 40
0.6
 50
0.0
 51
90.0
  0
LINE
  5
D57
  8
0
 10
139.32988919254771
 20
118.0004999999998
 30
0.0
 11
139.32988919254771
 21
175.40049999999979
 31
0.0
  0
LINE
  5
D58
  8
0
 10
141.32988919254771
 20
116.0004999999998
 30
0.0
 11
139.32988919254771
 21
118.0004999999998
 31
0.0
  0
LINE
  5
D59
  8
0
 10
139.32988919254771
 20
173.76024788528389
 30
0.0
 11
151.32988919254771
 21
173.76024788528389
 31
0.0
  0
LINE
  5
D5A
  8
0
 10
139.32988919254771
 20
118.0004999999998
 30
0.0
 11
151.32988919254771
 21
118.0004999999998
 31
0.0
  0
LINE
  5
D5B
  8
0
 10
141.32988919254771
 20
116.0004999999998
 30
0.0
 11
149.32988919254771
 21
116.0004999999998
 31
0.0
  0
LINE
  5
D5C
  8
0
 10
343.43964072235588
 20
116.0004999999998
 30
0.0
 11
351.43964072235588
 21
116.0004999999998
 31
0.0
  0
LINE
  5
D5D
  8
0
 10
341.43964072235588
 20
118.0004999999998
 30
0.0
 11
353.43964072235588
 21
118.0004999999998
 31
0.0
  0
LINE
  5
D5E
  8
0
 10
341.43964072235588
 20
173.76024788528389
 30
0.0
 11
353.43964072235588
 21
173.76024788528389
 31
0.0
  0
LINE
  5
D5F
  8
0
 10
343.43964072235588
 20
116.0004999999998
 30
0.0
 11
341.43964072235588
 21
118.0004999999998
 31
0.0
  0
LINE
  5
D60
  8
0
 10
341.43964072235588
 20
118.0004999999998
 30
0.0
 11
341.43964072235588
 21
175.40049999999979
 31
0.0
  0
ARC
  5
D61
  8
0
 10
340.83964072235591
 20
175.40049999999979
 30
0.0
 40
0.6
 50
0.0
 51
90.0
  0
LINE
  5
D62
  8
3
 10
341.4396407223561
 20
175.40050000004601
 30
0.0
 11
342.38664072235599
 21
173.76024788527849
 31
0.0
  0
LINE
  5
D63
  8
3
 10
342.38664072235599
 20
173.76024788527849
 30
0.0
 11
342.38664072235599
 21
117.0534999999999
 31
0.0
  0
LINE
  5
D64
  8
3
 10
352.49264072235587
 20
173.76024788527849
 30
0.0
 11
352.49264072235587
 21
117.0534999999999
 31
0.0
  0
LINE
  5
D65
  8
3
 10
353.43964072235582
 20
175.40050000004601
 30
0.0
 11
352.49264072235587
 21
173.76024788527849
 31
0.0
  0
ARC
  5
D66
  8
0
 10
354.03964072235601
 20
175.40049999999979
 30
0.0
 40
0.6
 50
90.0
 51
180.0
  0
LINE
  5
D67
  8
0
 10
353.43964072235588
 20
118.0004999999998
 30
0.0
 11
353.43964072235588
 21
175.40049999999979
 31
0.0
  0
LINE
  5
D68
  8
0
 10
351.43964072235588
 20
116.0004999999998
 30
0.0
 11
353.43964072235588
 21
118.0004999999998
 31
0.0
  0
ARC
  5
D69
  8
0
 10
251.3298892092846
 20
250.0005000060917
 30
0.0
 40
16.0
 50
236.86989764584649
 51
163.1301023541549
  0
LINE
  5
D6A
  8
0
 10
242.585217039138
 20
236.60159301197339
 30
0.0
 11
236.01843028731221
 21
254.6436913310728
 31
0.0
  0
CIRCLE
  5
D6B
  8
0
 10
347.43964072235582
 20
250.0004999999999
 30
0.0
 40
16.0
  0
ARC
  5
D6C
  8
0
 10
49.999999999999972
 20
250.00049999184671
 30
0.0
 40
16.0
 50
292.0243128370422
 51
247.9756871629578
  0
POLYLINE
  5
D6D
  8
0
 10
55.999999999999922
 20
245.62264215727819
 30
0.0
 66
     1
 70
     8
  0
VERTEX
  8
0
  5
E80
 10
56.0000
 20
245.623
 30
0.000000
  70
    32
  0
VERTEX
  8
0
  5
E81
 10
55.9982
 20
245.761
 30
0.000000
  70
    32
  0
VERTEX
  8
0
  5
E82
 10
55.9928
 20
245.899
 30
0.000000
  70
    32
  0
VERTEX
  8
0
  5
E83
 10
55.9837
 20
246.037
 30
0.000000
  70
    32
  0
VERTEX
  8
0
  5
E84
 10
55.9711
 20
246.175
 30
0.000000
  70
    32
  0
VERTEX
  8
0
  5
E85
 10
55.9549
 20
246.313
 30
0.000000
  70
    32
  0
VERTEX
  8
0
  5
E86
 10
55.9351
 20
246.450
 30
0.000000
  70
    32
  0
VERTEX
  8
0
  5
E87
 10
55.9117
 20
246.587
 30
0.000000
  70
    32
  0
VERTEX
  8
0
  5
E88
 10
55.8847
 20
246.723
 30
0.000000
  70
    32
  0
VERTEX
  8
0
  5
E89
 10
55.8542
 20
246.858
 30
0.000000
  70
    32
  0
VERTEX
  8
0
  5
E8A
 10
55.8202
 20
246.993
 30
0.000000
  70
    32
  0
VERTEX
  8
0
  5
E8B
 10
55.7827
 20
247.126
 30
0.000000
  70
    32
  0
VERTEX
  8
0
  5
E8C
 10
55.7416
 20
247.259
 30
0.000000
  70
    32
  0
VERTEX
  8
0
  5
E8D
 10
55.6972
 20
247.391
 30
0.000000
  70
    32
  0
VERTEX
  8
0
  5
E8E
 10
55.6493
 20
247.522
 30
0.000000
  70
    32
  0
VERTEX
  8
0
  5
E8F
 10
55.5980
 20
247.652
 30
0.000000
  70
    32
  0
VERTEX
  8
0
  5
E90
 10
55.5433
 20
247.780
 30
0.000000
  70
    32
  0
VERTEX
  8
0
  5
E91
 10
55.4853
 20
247.907
 30
0.000000
  70
    32
  0
VERTEX
  8
0
  5
E92
 10
55.4239
 20
248.033
 30
0.000000
  70
    32
  0
VERTEX
  8
0
  5
E93
 10
55.3593
 20
248.158
 30
0.000000
  70
    32
  0
VERTEX
  8
0
  5
E94
 10
55.2915
 20
248.280
 30
0.000000
  70
    32
  0
VERTEX
  8
0
  5
E95
 10
55.2205
 20
248.402
 30
0.000000
  70
    32
  0
VERTEX
  8
0
  5
E96
 10
55.1464
 20
248.521
 30
0.000000
  70
    32
  0
VERTEX
  8
0
  5
E97
 10
55.0691
 20
248.639
 30
0.000000
  70
    32
  0
VERTEX
  8
0
  5
E98
 10
54.9888
 20
248.755
 30
0.000000
  70
    32
  0
VERTEX
  8
0
  5
E99
 10
54.9055
 20
248.869
 30
0.000000
  70
    32
  0
VERTEX
  8
0
  5
E9A
 10
54.8192
 20
248.981
 30
0.000000
  70
    32
  0
VERTEX
  8
0
  5
E9B
 10
54.7301
 20
249.091
 30
0.000000
  70
    32
  0
VERTEX
  8
0
  5
E9C
 10
54.6381
 20
249.199
 30
0.000000
  70
    32
  0
VERTEX
  8
0
  5
E9D
 10
54.5433
 20
249.305
 30
0.000000
  70
    32
  0
VERTEX
  8
0
  5
E9E
 10
54.4457
 20
249.409
 30
0.000000
  70
    32
  0
VERTEX
  8
0
  5
E9F
 10
54.3455
 20
249.510
 30
0.000000
  70
    32
  0
VERTEX
  8
0
  5
EA0
 10
54.2426
 20
249.609
 30
0.000000
  70
    32
  0
VERTEX
  8
0
  5
EA1
 10
54.1372
 20
249.706
 30
0.000000
  70
    32
  0
VERTEX
  8
0
  5
EA2
 10
54.0294
 20
249.800
 30
0.000000
  70
    32
  0
VERTEX
  8
0
  5
EA3
 10
53.9190
 20
249.892
 30
0.000000
  70
    32
  0
VERTEX
  8
0
  5
EA4
 10
53.8064
 20
249.981
 30
0.000000
  70
    32
  0
VERTEX
  8
0
  5
EA5
 10
53.6914
 20
250.067
 30
0.000000
  70
    32
  0
VERTEX
  8
0
  5
EA6
 10
53.5742
 20
250.151
 30
0.000000
  70
    32
  0
VERTEX
  8
0
  5
EA7
 10
53.4548
 20
250.232
 30
0.000000
  70
    32
  0
VERTEX
  8
0
  5
EA8
 10
53.3334
 20
250.311
 30
0.000000
  70
    32
  0
VERTEX
  8
0
  5
EA9
 10
53.2100
 20
250.386
 30
0.000000
  70
    32
  0
VERTEX
  8
0
  5
EAA
 10
53.0846
 20
250.459
 30
0.000000
  70
    32
  0
VERTEX
  8
0
  5
EAB
 10
52.9574
 20
250.528
 30
0.000000
  70
    32
  0
VERTEX
  8
0
  5
EAC
 10
52.8284
 20
250.595
 30
0.000000
  70
    32
  0
VERTEX
  8
0
  5
EAD
 10
52.6977
 20
250.659
 30
0.000000
  70
    32
  0
VERTEX
  8
0
  5
EAE
 10
52.5653
 20
250.719
 30
0.000000
  70
    32
  0
VERTEX
  8
0
  5
EAF
 10
52.4314
 20
250.777
 30
0.000000
  70
    32
  0
VERTEX
  8
0
  5
EB0
 10
52.2961
 20
250.832
 30
0.000000
  70
    32
  0
VERTEX
  8
0
  5
EB1
 10
52.1594
 20
250.883
 30
0.000000
  70
    32
  0
VERTEX
  8
0
  5
EB2
 10
52.0213
 20
250.931
 30
0.000000
  70
    32
  0
VERTEX
  8
0
  5
EB3
 10
51.8821
 20
250.976
 30
0.000000
  70
    32
  0
VERTEX
  8
0
  5
EB4
 10
51.7417
 20
251.018
 30
0.000000
  70
    32
  0
VERTEX
  8
0
  5
EB5
 10
51.6003
 20
251.057
 30
0.000000
  70
    32
  0
VERTEX
  8
0
  5
EB6
 10
51.4579
 20
251.092
 30
0.000000
  70
    32
  0
VERTEX
  8
0
  5
EB7
 10
51.3146
 20
251.124
 30
0.000000
  70
    32
  0
VERTEX
  8
0
  5
EB8
 10
51.1705
 20
251.152
 30
0.000000
  70
    32
  0
VERTEX
  8
0
  5
EB9
 10
51.0258
 20
251.178
 30
0.000000
  70
    32
  0
VERTEX
  8
0
  5
EBA
 10
50.8804
 20
251.200
 30
0.000000
  70
    32
  0
VERTEX
  8
0
  5
EBB
 10
50.7345
 20
251.218
 30
0.000000
  70
    32
  0
VERTEX
  8
0
  5
EBC
 10
50.5881
 20
251.234
 30
0.000000
  70
    32
  0
VERTEX
  8
0
  5
EBD
 10
50.4414
 20
251.246
 30
0.000000
  70
    32
  0
VERTEX
  8
0
  5
EBE
 10
50.2944
 20
251.254
 30
0.000000
  70
    32
  0
VERTEX
  8
0
  5
EBF
 10
50.1472
 20
251.259
 30
0.000000
  70
    32
  0
VERTEX
  8
0
  5
EC0
 10
50.0000
 20
251.261
 30
0.000000
  70
    32
  0
VERTEX
  8
0
  5
EC1
 10
49.8528
 20
251.259
 30
0.000000
  70
    32
  0
VERTEX
  8
0
  5
EC2
 10
49.7056
 20
251.254
 30
0.000000
  70
    32
  0
VERTEX
  8
0
  5
EC3
 10
49.5586
 20
251.246
 30
0.000000
  70
    32
  0
VERTEX
  8
0
  5
EC4
 10
49.4119
 20
251.234
 30
0.000000
  70
    32
  0
VERTEX
  8
0
  5
EC5
 10
49.2655
 20
251.218
 30
0.000000
  70
    32
  0
VERTEX
  8
0
  5
EC6
 10
49.1196
 20
251.200
 30
0.000000
  70
    32
  0
VERTEX
  8
0
  5
EC7
 10
48.9742
 20
251.178
 30
0.000000
  70
    32
  0
VERTEX
  8
0
  5
EC8
 10
48.8295
 20
251.152
 30
0.000000
  70
    32
  0
VERTEX
  8
0
  5
EC9
 10
48.6854
 20
251.124
 30
0.000000
  70
    32
  0
VERTEX
  8
0
  5
ECA
 10
48.5421
 20
251.092
 30
0.000000
  70
    32
  0
VERTEX
  8
0
  5
ECB
 10
48.3997
 20
251.057
 30
0.000000
  70
    32
  0
VERTEX
  8
0
  5
ECC
 10
48.2583
 20
251.018
 30
0.000000
  70
    32
  0
VERTEX
  8
0
  5
ECD
 10
48.1179
 20
250.976
 30
0.000000
  70
    32
  0
VERTEX
  8
0
  5
ECE
 10
47.9787
 20
250.931
 30
0.000000
  70
    32
  0
VERTEX
  8
0
  5
ECF
 10
47.8406
 20
250.883
 30
0.000000
  70
    32
  0
VERTEX
  8
0
  5
ED0
 10
47.7039
 20
250.832
 30
0.000000
  70
    32
  0
VERTEX
  8
0
  5
ED1
 10
47.5686
 20
250.777
 30
0.000000
  70
    32
  0
VERTEX
  8
0
  5
ED2
 10
47.4347
 20
250.719
 30
0.000000
  70
    32
  0
VERTEX
  8
0
  5
ED3
 10
47.3023
 20
250.659
 30
0.000000
  70
    32
  0
VERTEX
  8
0
  5
ED4
 10
47.1716
 20
250.595
 30
0.000000
  70
    32
  0
VERTEX
  8
0
  5
ED5
 10
47.0426
 20
250.528
 30
0.000000
  70
    32
  0
VERTEX
  8
0
  5
ED6
 10
46.9154
 20
250.459
 30
0.000000
  70
    32
  0
VERTEX
  8
0
  5
ED7
 10
46.7900
 20
250.386
 30
0.000000
  70
    32
  0
VERTEX
  8
0
  5
ED8
 10
46.6666
 20
250.311
 30
0.000000
  70
    32
  0
VERTEX
  8
0
  5
ED9
 10
46.5452
 20
250.232
 30
0.000000
  70
    32
  0
VERTEX
  8
0
  5
EDA
 10
46.4258
 20
250.151
 30
0.000000
  70
    32
  0
VERTEX
  8
0
  5
EDB
 10
46.3086
 20
250.067
 30
0.000000
  70
    32
  0
VERTEX
  8
0
  5
EDC
 10
46.1936
 20
249.981
 30
0.000000
  70
    32
  0
VERTEX
  8
0
  5
EDD
 10
46.0810
 20
249.892
 30
0.000000
  70
    32
  0
VERTEX
  8
0
  5
EDE
 10
45.9706
 20
249.800
 30
0.000000
  70
    32
  0
VERTEX
  8
0
  5
EDF
 10
45.8628
 20
249.706
 30
0.000000
  70
    32
  0
VERTEX
  8
0
  5
EE0
 10
45.7574
 20
249.609
 30
0.000000
  70
    32
  0
VERTEX
  8
0
  5
EE1
 10
45.6545
 20
249.510
 30
0.000000
  70
    32
  0
VERTEX
  8
0
  5
EE2
 10
45.5543
 20
249.409
 30
0.000000
  70
    32
  0
VERTEX
  8
0
  5
EE3
 10
45.4567
 20
249.305
 30
0.000000
  70
    32
  0
VERTEX
  8
0
  5
EE4
 10
45.3619
 20
249.199
 30
0.000000
  70
    32
  0
VERTEX
  8
0
  5
EE5
 10
45.2699
 20
249.091
 30
0.000000
  70
    32
  0
VERTEX
  8
0
  5
EE6
 10
45.1808
 20
248.981
 30
0.000000
  70
    32
  0
VERTEX
  8
0
  5
EE7
 10
45.0945
 20
248.869
 30
0.000000
  70
    32
  0
VERTEX
  8
0
  5
EE8
 10
45.0112
 20
248.755
 30
0.000000
  70
    32
  0
VERTEX
  8
0
  5
EE9
 10
44.9309
 20
248.639
 30
0.000000
  70
    32
  0
VERTEX
  8
0
  5
EEA
 10
44.8536
 20
248.521
 30
0.000000
  70
    32
  0
VERTEX
  8
0
  5
EEB
 10
44.7795
 20
248.402
 30
0.000000
  70
    32
  0
VERTEX
  8
0
  5
EEC
 10
44.7085
 20
248.280
 30
0.000000
  70
    32
  0
VERTEX
  8
0
  5
EED
 10
44.6407
 20
248.158
 30
0.000000
  70
    32
  0
VERTEX
  8
0
  5
EEE
 10
44.5761
 20
248.033
 30
0.000000
  70
    32
  0
VERTEX
  8
0
  5
EEF
 10
44.5147
 20
247.907
 30
0.000000
  70
    32
  0
VERTEX
  8
0
  5
EF0
 10
44.4567
 20
247.780
 30
0.000000
  70
    32
  0
VERTEX
  8
0
  5
EF1
 10
44.4020
 20
247.652
 30
0.000000
  70
    32
  0
VERTEX
  8
0
  5
EF2
 10
44.3507
 20
247.522
 30
0.000000
  70
    32
  0
VERTEX
  8
0
  5
EF3
 10
44.3028
 20
247.391
 30
0.000000
  70
    32
  0
VERTEX
  8
0
  5
EF4
 10
44.2584
 20
247.259
 30
0.000000
  70
    32
  0
VERTEX
  8
0
  5
EF5
 10
44.2173
 20
247.126
 30
0.000000
  70
    32
  0
VERTEX
  8
0
  5
EF6
 10
44.1798
 20
246.993
 30
0.000000
  70
    32
  0
VERTEX
  8
0
  5
EF7
 10
44.1458
 20
246.858
 30
0.000000
  70
    32
  0
VERTEX
  8
0
  5
EF8
 10
44.1153
 20
246.723
 30
0.000000
  70
    32
  0
VERTEX
  8
0
  5
EF9
 10
44.0883
 20
246.587
 30
0.000000
  70
    32
  0
VERTEX
  8
0
  5
EFA
 10
44.0649
 20
246.450
 30
0.000000
  70
    32
  0
VERTEX
  8
0
  5
EFB
 10
44.0451
 20
246.313
 30
0.000000
  70
    32
  0
VERTEX
  8
0
  5
EFC
 10
44.0289
 20
246.175
 30
0.000000
  70
    32
  0
VERTEX
  8
0
  5
EFD
 10
44.0163
 20
246.037
 30
0.000000
  70
    32
  0
VERTEX
  8
0
  5
EFE
 10
44.0072
 20
245.899
 30
0.000000
  70
    32
  0
VERTEX
  8
0
  5
EFF
 10
44.0018
 20
245.761
 30
0.000000
  70
    32
  0
VERTEX
  8
0
  5
F00
 10
44.0000
 20
245.623
 30
0.000000
  70
    32
  0
SEQEND
  8
0
  5
F01
  0
POLYLINE
  5
D6E
  8
0
 10
56.000235644892982
 20
238.58076520878774
 30
0.0
 66
     1
 70
     8
  0
VERTEX
  8
0
  5
F02
 10
56.0002
 20
238.581
 30
0.000000
  70
    32
  0
VERTEX
  8
0
  5
F03
 10
56.2845
 20
238.803
 30
0.000000
  70
    32
  0
VERTEX
  8
0
  5
F04
 10
56.5594
 20
239.036
 30
0.000000
  70
    32
  0
VERTEX
  8
0
  5
F05
 10
56.8246
 20
239.278
 30
0.000000
  70
    32
  0
VERTEX
  8
0
  5
F06
 10
57.0797
 20
239.530
 30
0.000000
  70
    32
  0
VERTEX
  8
0
  5
F07
 10
57.3242
 20
239.791
 30
0.000000
  70
    32
  0
VERTEX
  8
0
  5
F08
 10
57.5579
 20
240.060
 30
0.000000
  70
    32
  0
VERTEX
  8
0
  5
F09
 10
57.7804
 20
240.338
 30
0.000000
  70
    32
  0
VERTEX
  8
0
  5
F0A
 10
57.9913
 20
240.624
 30
0.000000
  70
    32
  0
VERTEX
  8
0
  5
F0B
 10
58.1903
 20
240.917
 30
0.000000
  70
    32
  0
VERTEX
  8
0
  5
F0C
 10
58.3772
 20
241.217
 30
0.000000
  70
    32
  0
VERTEX
  8
0
  5
F0D
 10
58.5516
 20
241.523
 30
0.000000
  70
    32
  0
VERTEX
  8
0
  5
F0E
 10
58.7133
 20
241.836
 30
0.000000
  70
    32
  0
VERTEX
  8
0
  5
F0F
 10
58.8621
 20
242.154
 30
0.000000
  70
    32
  0
VERTEX
  8
0
  5
F10
 10
58.9977
 20
242.478
 30
0.000000
  70
    32
  0
VERTEX
  8
0
  5
F11
 10
59.1200
 20
242.806
 30
0.000000
  70
    32
  0
VERTEX
  8
0
  5
F12
 10
59.2287
 20
243.138
 30
0.000000
  70
    32
  0
VERTEX
  8
0
  5
F13
 10
59.3237
 20
243.474
 30
0.000000
  70
    32
  0
VERTEX
  8
0
  5
F14
 10
59.4049
 20
243.813
 30
0.000000
  70
    32
  0
VERTEX
  8
0
  5
F15
 10
59.4721
 20
244.155
 30
0.000000
  70
    32
  0
VERTEX
  8
0
  5
F16
 10
59.5252
 20
244.499
 30
0.000000
  70
    32
  0
VERTEX
  8
0
  5
F17
 10
59.5642
 20
244.845
 30
0.000000
  70
    32
  0
VERTEX
  8
0
  5
F18
 10
59.5890
 20
245.192
 30
0.000000
  70
    32
  0
VERTEX
  8
0
  5
F19
 10
59.5996
 20
245.539
 30
0.000000
  70
    32
  0
VERTEX
  8
0
  5
F1A
 10
59.5959
 20
245.887
 30
0.000000
  70
    32
  0
VERTEX
  8
0
  5
F1B
 10
59.5779
 20
246.234
 30
0.000000
  70
    32
  0
VERTEX
  8
0
  5
F1C
 10
59.5458
 20
246.580
 30
0.000000
  70
    32
  0
VERTEX
  8
0
  5
F1D
 10
59.4994
 20
246.925
 30
0.000000
  70
    32
  0
VERTEX
  8
0
  5
F1E
 10
59.4389
 20
247.268
 30
0.000000
  70
    32
  0
VERTEX
  8
0
  5
F1F
 10
59.3645
 20
247.609
 30
0.000000
  70
    32
  0
VERTEX
  8
0
  5
F20
 10
59.2761
 20
247.946
 30
0.000000
  70
    32
  0
VERTEX
  8
0
  5
F21
 10
59.1739
 20
248.280
 30
0.000000
  70
    32
  0
VERTEX
  8
0
  5
F22
 10
59.0582
 20
248.610
 30
0.000000
  70
    32
  0
VERTEX
  8
0
  5
F23
 10
58.9289
 20
248.936
 30
0.000000
  70
    32
  0
VERTEX
  8
0
  5
F24
 10
58.7864
 20
249.257
 30
0.000000
  70
    32
  0
VERTEX
  8
0
  5
F25
 10
58.6309
 20
249.572
 30
0.000000
  70
    32
  0
VERTEX
  8
0
  5
F26
 10
58.4626
 20
249.882
 30
0.000000
  70
    32
  0
VERTEX
  8
0
  5
F27
 10
58.2816
 20
250.185
 30
0.000000
  70
    32
  0
VERTEX
  8
0
  5
F28
 10
58.0884
 20
250.482
 30
0.000000
  70
    32
  0
VERTEX
  8
0
  5
F29
 10
57.8832
 20
250.771
 30
0.000000
  70
    32
  0
VERTEX
  8
0
  5
F2A
 10
57.6662
 20
251.052
 30
0.000000
  70
    32
  0
VERTEX
  8
0
  5
F2B
 10
57.4379
 20
251.326
 30
0.000000
  70
    32
  0
VERTEX
  8
0
  5
F2C
 10
57.1986
 20
251.591
 30
0.000000
  70
    32
  0
VERTEX
  8
0
  5
F2D
 10
56.9485
 20
251.847
 30
0.000000
  70
    32
  0
VERTEX
  8
0
  5
F2E
 10
56.6881
 20
252.094
 30
0.000000
  70
    32
  0
VERTEX
  8
0
  5
F2F
 10
56.4178
 20
252.332
 30
0.000000
  70
    32
  0
VERTEX
  8
0
  5
F30
 10
56.1380
 20
252.559
 30
0.000000
  70
    32
  0
VERTEX
  8
0
  5
F31
 10
55.8490
 20
252.776
 30
0.000000
  70
    32
  0
VERTEX
  8
0
  5
F32
 10
55.5514
 20
252.982
 30
0.000000
  70
    32
  0
VERTEX
  8
0
  5
F33
 10
55.2455
 20
253.178
 30
0.000000
  70
    32
  0
VERTEX
  8
0
  5
F34
 10
54.9318
 20
253.362
 30
0.000000
  70
    32
  0
VERTEX
  8
0
  5
F35
 10
54.6109
 20
253.535
 30
0.000000
  70
    32
  0
VERTEX
  8
0
  5
F36
 10
54.2830
 20
253.696
 30
0.000000
  70
    32
  0
VERTEX
  8
0
  5
F37
 10
53.9488
 20
253.845
 30
0.000000
  70
    32
  0
VERTEX
  8
0
  5
F38
 10
53.6087
 20
253.982
 30
0.000000
  70
    32
  0
VERTEX
  8
0
  5
F39
 10
53.2633
 20
254.106
 30
0.000000
  70
    32
  0
VERTEX
  8
0
  5
F3A
 10
52.9131
 20
254.218
 30
0.000000
  70
    32
  0
VERTEX
  8
0
  5
F3B
 10
52.5585
 20
254.317
 30
0.000000
  70
    32
  0
VERTEX
  8
0
  5
F3C
 10
52.2001
 20
254.404
 30
0.000000
  70
    32
  0
VERTEX
  8
0
  5
F3D
 10
51.8384
 20
254.477
 30
0.000000
  70
    32
  0
VERTEX
  8
0
  5
F3E
 10
51.4740
 20
254.537
 30
0.000000
  70
    32
  0
VERTEX
  8
0
  5
F3F
 10
51.1074
 20
254.583
 30
0.000000
  70
    32
  0
VERTEX
  8
0
  5
F40
 10
50.7392
 20
254.617
 30
0.000000
  70
    32
  0
VERTEX
  8
0
  5
F41
 10
50.3699
 20
254.637
 30
0.000000
  70
    32
  0
VERTEX
  8
0
  5
F42
 10
50.0000
 20
254.644
 30
0.000000
  70
    32
  0
VERTEX
  8
0
  5
F43
 10
49.6301
 20
254.637
 30
0.000000
  70
    32
  0
VERTEX
  8
0
  5
F44
 10
49.2608
 20
254.617
 30
0.000000
  70
    32
  0
VERTEX
  8
0
  5
F45
 10
48.8926
 20
254.583
 30
0.000000
  70
    32
  0
VERTEX
  8
0
  5
F46
 10
48.5260
 20
254.537
 30
0.000000
  70
    32
  0
VERTEX
  8
0
  5
F47
 10
48.1616
 20
254.477
 30
0.000000
  70
    32
  0
VERTEX
  8
0
  5
F48
 10
47.7999
 20
254.404
 30
0.000000
  70
    32
  0
VERTEX
  8
0
  5
F49
 10
47.4415
 20
254.317
 30
0.000000
  70
    32
  0
VERTEX
  8
0
  5
F4A
 10
47.0869
 20
254.218
 30
0.000000
  70
    32
  0
VERTEX
  8
0
  5
F4B
 10
46.7367
 20
254.106
 30
0.000000
  70
    32
  0
VERTEX
  8
0
  5
F4C
 10
46.3913
 20
253.982
 30
0.000000
  70
    32
  0
VERTEX
  8
0
  5
F4D
 10
46.0512
 20
253.845
 30
0.000000
  70
    32
  0
VERTEX
  8
0
  5
F4E
 10
45.7170
 20
253.696
 30
0.000000
  70
    32
  0
VERTEX
  8
0
  5
F4F
 10
45.3891
 20
253.535
 30
0.000000
  70
    32
  0
VERTEX
  8
0
  5
F50
 10
45.0682
 20
253.362
 30
0.000000
  70
    32
  0
VERTEX
  8
0
  5
F51
 10
44.7545
 20
253.178
 30
0.000000
  70
    32
  0
VERTEX
  8
0
  5
F52
 10
44.4486
 20
252.982
 30
0.000000
  70
    32
  0
VERTEX
  8
0
  5
F53
 10
44.1510
 20
252.776
 30
0.000000
  70
    32
  0
VERTEX
  8
0
  5
F54
 10
43.8620
 20
252.559
 30
0.000000
  70
    32
  0
VERTEX
  8
0
  5
F55
 10
43.5822
 20
252.332
 30
0.000000
  70
    32
  0
VERTEX
  8
0
  5
F56
 10
43.3119
 20
252.094
 30
0.000000
  70
    32
  0
VERTEX
  8
0
  5
F57
 10
43.0515
 20
251.847
 30
0.000000
  70
    32
  0
VERTEX
  8
0
  5
F58
 10
42.8014
 20
251.591
 30
0.000000
  70
    32
  0
VERTEX
  8
0
  5
F59
 10
42.5621
 20
251.326
 30
0.000000
  70
    32
  0
VERTEX
  8
0
  5
F5A
 10
42.3338
 20
251.052
 30
0.000000
  70
    32
  0
VERTEX
  8
0
  5
F5B
 10
42.1168
 20
250.771
 30
0.000000
  70
    32
  0
VERTEX
  8
0
  5
F5C
 10
41.9116
 20
250.482
 30
0.000000
  70
    32
  0
VERTEX
  8
0
  5
F5D
 10
41.7184
 20
250.185
 30
0.000000
  70
    32
  0
VERTEX
  8
0
  5
F5E
 10
41.5374
 20
249.882
 30
0.000000
  70
    32
  0
VERTEX
  8
0
  5
F5F
 10
41.3691
 20
249.572
 30
0.000000
  70
    32
  0
VERTEX
  8
0
  5
F60
 10
41.2136
 20
249.257
 30
0.000000
  70
    32
  0
VERTEX
  8
0
  5
F61
 10
41.0711
 20
248.936
 30
0.000000
  70
    32
  0
VERTEX
  8
0
  5
F62
 10
40.9418
 20
248.610
 30
0.000000
  70
    32
  0
VERTEX
  8
0
  5
F63
 10
40.8261
 20
248.280
 30
0.000000
  70
    32
  0
VERTEX
  8
0
  5
F64
 10
40.7239
 20
247.946
 30
0.000000
  70
    32
  0
VERTEX
  8
0
  5
F65
 10
40.6355
 20
247.609
 30
0.000000
  70
    32
  0
VERTEX
  8
0
  5
F66
 10
40.5611
 20
247.268
 30
0.000000
  70
    32
  0
VERTEX
  8
0
  5
F67
 10
40.5006
 20
246.925
 30
0.000000
  70
    32
  0
VERTEX
  8
0
  5
F68
 10
40.4542
 20
246.580
 30
0.000000
  70
    32
  0
VERTEX
  8
0
  5
F69
 10
40.4221
 20
246.234
 30
0.000000
  70
    32
  0
VERTEX
  8
0
  5
F6A
 10
40.4041
 20
245.887
 30
0.000000
  70
    32
  0
VERTEX
  8
0
  5
F6B
 10
40.4004
 20
245.539
 30
0.000000
  70
    32
  0
VERTEX
  8
0
  5
F6C
 10
40.4110
 20
245.192
 30
0.000000
  70
    32
  0
VERTEX
  8
0
  5
F6D
 10
40.4358
 20
244.845
 30
0.000000
  70
    32
  0
VERTEX
  8
0
  5
F6E
 10
40.4748
 20
244.499
 30
0.000000
  70
    32
  0
VERTEX
  8
0
  5
F6F
 10
40.5279
 20
244.155
 30
0.000000
  70
    32
  0
VERTEX
  8
0
  5
F70
 10
40.5951
 20
243.813
 30
0.000000
  70
    32
  0
VERTEX
  8
0
  5
F71
 10
40.6763
 20
243.474
 30
0.000000
  70
    32
  0
VERTEX
  8
0
  5
F72
 10
40.7713
 20
243.138
 30
0.000000
  70
    32
  0
VERTEX
  8
0
  5
F73
 10
40.8800
 20
242.806
 30
0.000000
  70
    32
  0
VERTEX
  8
0
  5
F74
 10
41.0023
 20
242.478
 30
0.000000
  70
    32
  0
VERTEX
  8
0
  5
F75
 10
41.1379
 20
242.154
 30
0.000000
  70
    32
  0
VERTEX
  8
0
  5
F76
 10
41.2867
 20
241.836
 30
0.000000
  70
    32
  0
VERTEX
  8
0
  5
F77
 10
41.4484
 20
241.523
 30
0.000000
  70
    32
  0
VERTEX
  8
0
  5
F78
 10
41.6228
 20
241.217
 30
0.000000
  70
    32
  0
VERTEX
  8
0
  5
F79
 10
41.8097
 20
240.917
 30
0.000000
  70
    32
  0
VERTEX
  8
0
  5
F7A
 10
42.0087
 20
240.624
 30
0.000000
  70
    32
  0
VERTEX
  8
0
  5
F7B
 10
42.2196
 20
240.338
 30
0.000000
  70
    32
  0
VERTEX
  8
0
  5
F7C
 10
42.4421
 20
240.060
 30
0.000000
  70
    32
  0
VERTEX
  8
0
  5
F7D
 10
42.6758
 20
239.791
 30
0.000000
  70
    32
  0
VERTEX
  8
0
  5
F7E
 10
42.9203
 20
239.530
 30
0.000000
  70
    32
  0
VERTEX
  8
0
  5
F7F
 10
43.1754
 20
239.278
 30
0.000000
  70
    32
  0
VERTEX
  8
0
  5
F80
 10
43.4406
 20
239.036
 30
0.000000
  70
    32
  0
VERTEX
  8
0
  5
F81
 10
43.7155
 20
238.803
 30
0.000000
  70
    32
  0
VERTEX
  8
0
  5
F82
 10
43.9998
 20
238.581
 30
0.000000
  70
    32
  0
SEQEND
  8
0
  5
F83
  0
ARC
  5
D6F
  8
0
 10
251.32988919398539
 20
332.00050000609173
 30
0.0
 40
15.999999999999989
 50
211.64204211699891
 51
148.35795788300101
  0
POLYLINE
  5
D70
  8
0
 10
237.70841370630035
 20
340.3942718363366
 30
0.0
 66
     1
 70
     8
  0
VERTEX
  8
0
  5
F84
 10
237.708
 20
340.394
 30
0.000000
  70
    32
  0
VERTEX
  8
0
  5
F85
 10
237.661
 20
340.316
 30
0.000000
  70
    32
  0
VERTEX
  8
0
  5
F86
 10
237.614
 20
340.235
 30
0.000000
  70
    32
  0
VERTEX
  8
0
  5
F87
 10
237.567
 20
340.152
 30
0.000000
  70
    32
  0
VERTEX
  8
0
  5
F88
 10
237.521
 20
340.066
 30
0.000000
  70
    32
  0
VERTEX
  8
0
  5
F89
 10
237.476
 20
339.978
 30
0.000000
  70
    32
  0
VERTEX
  8
0
  5
F8A
 10
237.430
 20
339.889
 30
0.000000
  70
    32
  0
VERTEX
  8
0
  5
F8B
 10
237.386
 20
339.796
 30
0.000000
  70
    32
  0
VERTEX
  8
0
  5
F8C
 10
237.342
 20
339.702
 30
0.000000
  70
    32
  0
VERTEX
  8
0
  5
F8D
 10
237.298
 20
339.606
 30
0.000000
  70
    32
  0
VERTEX
  8
0
  5
F8E
 10
237.255
 20
339.507
 30
0.000000
  70
    32
  0
VERTEX
  8
0
  5
F8F
 10
237.213
 20
339.407
 30
0.000000
  70
    32
  0
VERTEX
  8
0
  5
F90
 10
237.171
 20
339.304
 30
0.000000
  70
    32
  0
VERTEX
  8
0
  5
F91
 10
237.130
 20
339.200
 30
0.000000
  70
    32
  0
VERTEX
  8
0
  5
F92
 10
237.089
 20
339.093
 30
0.000000
  70
    32
  0
VERTEX
  8
0
  5
F93
 10
237.049
 20
338.985
 30
0.000000
  70
    32
  0
VERTEX
  8
0
  5
F94
 10
237.010
 20
338.874
 30
0.000000
  70
    32
  0
VERTEX
  8
0
  5
F95
 10
236.971
 20
338.762
 30
0.000000
  70
    32
  0
VERTEX
  8
0
  5
F96
 10
236.933
 20
338.648
 30
0.000000
  70
    32
  0
VERTEX
  8
0
  5
F97
 10
236.895
 20
338.532
 30
0.000000
  70
    32
  0
VERTEX
  8
0
  5
F98
 10
236.859
 20
338.414
 30
0.000000
  70
    32
  0
VERTEX
  8
0
  5
F99
 10
236.822
 20
338.294
 30
0.000000
  70
    32
  0
VERTEX
  8
0
  5
F9A
 10
236.787
 20
338.173
 30
0.000000
  70
    32
  0
VERTEX
  8
0
  5
F9B
 10
236.752
 20
338.050
 30
0.000000
  70
    32
  0
VERTEX
  8
0
  5
F9C
 10
236.718
 20
337.925
 30
0.000000
  70
    32
  0
VERTEX
  8
0
  5
F9D
 10
236.685
 20
337.798
 30
0.000000
  70
    32
  0
VERTEX
  8
0
  5
F9E
 10
236.652
 20
337.670
 30
0.000000
  70
    32
  0
VERTEX
  8
0
  5
F9F
 10
236.620
 20
337.541
 30
0.000000
  70
    32
  0
VERTEX
  8
0
  5
FA0
 10
236.589
 20
337.410
 30
0.000000
  70
    32
  0
VERTEX
  8
0
  5
FA1
 10
236.559
 20
337.277
 30
0.000000
  70
    32
  0
VERTEX
  8
0
  5
FA2
 10
236.529
 20
337.143
 30
0.000000
  70
    32
  0
VERTEX
  8
0
  5
FA3
 10
236.500
 20
337.007
 30
0.000000
  70
    32
  0
VERTEX
  8
0
  5
FA4
 10
236.472
 20
336.871
 30
0.000000
  70
    32
  0
VERTEX
  8
0
  5
FA5
 10
236.445
 20
336.732
 30
0.000000
  70
    32
  0
VERTEX
  8
0
  5
FA6
 10
236.418
 20
336.593
 30
0.000000
  70
    32
  0
VERTEX
  8
0
  5
FA7
 10
236.393
 20
336.452
 30
0.000000
  70
    32
  0
VERTEX
  8
0
  5
FA8
 10
236.368
 20
336.310
 30
0.000000
  70
    32
  0
VERTEX
  8
0
  5
FA9
 10
236.344
 20
336.167
 30
0.000000
  70
    32
  0
VERTEX
  8
0
  5
FAA
 10
236.320
 20
336.022
 30
0.000000
  70
    32
  0
VERTEX
  8
0
  5
FAB
 10
236.298
 20
335.877
 30
0.000000
  70
    32
  0
VERTEX
  8
0
  5
FAC
 10
236.276
 20
335.730
 30
0.000000
  70
    32
  0
VERTEX
  8
0
  5
FAD
 10
236.256
 20
335.583
 30
0.000000
  70
    32
  0
VERTEX
  8
0
  5
FAE
 10
236.236
 20
335.434
 30
0.000000
  70
    32
  0
VERTEX
  8
0
  5
FAF
 10
236.217
 20
335.285
 30
0.000000
  70
    32
  0
VERTEX
  8
0
  5
FB0
 10
236.198
 20
335.134
 30
0.000000
  70
    32
  0
VERTEX
  8
0
  5
FB1
 10
236.181
 20
334.983
 30
0.000000
  70
    32
  0
VERTEX
  8
0
  5
FB2
 10
236.164
 20
334.831
 30
0.000000
  70
    32
  0
VERTEX
  8
0
  5
FB3
 10
236.149
 20
334.678
 30
0.000000
  70
    32
  0
VERTEX
  8
0
  5
FB4
 10
236.134
 20
334.524
 30
0.000000
  70
    32
  0
VERTEX
  8
0
  5
FB5
 10
236.120
 20
334.370
 30
0.000000
  70
    32
  0
VERTEX
  8
0
  5
FB6
 10
236.107
 20
334.215
 30
0.000000
  70
    32
  0
VERTEX
  8
0
  5
FB7
 10
236.095
 20
334.059
 30
0.000000
  70
    32
  0
VERTEX
  8
0
  5
FB8
 10
236.084
 20
333.903
 30
0.000000
  70
    32
  0
VERTEX
  8
0
  5
FB9
 10
236.073
 20
333.746
 30
0.000000
  70
    32
  0
VERTEX
  8
0
  5
FBA
 10
236.064
 20
333.589
 30
0.000000
  70
    32
  0
VERTEX
  8
0
  5
FBB
 10
236.055
 20
333.432
 30
0.000000
  70
    32
  0
VERTEX
  8
0
  5
FBC
 10
236.047
 20
333.274
 30
0.000000
  70
    32
  0
VERTEX
  8
0
  5
FBD
 10
236.041
 20
333.115
 30
0.000000
  70
    32
  0
VERTEX
  8
0
  5
FBE
 10
236.035
 20
332.957
 30
0.000000
  70
    32
  0
VERTEX
  8
0
  5
FBF
 10
236.030
 20
332.798
 30
0.000000
  70
    32
  0
VERTEX
  8
0
  5
FC0
 10
236.026
 20
332.638
 30
0.000000
  70
    32
  0
VERTEX
  8
0
  5
FC1
 10
236.023
 20
332.479
 30
0.000000
  70
    32
  0
VERTEX
  8
0
  5
FC2
 10
236.020
 20
332.320
 30
0.000000
  70
    32
  0
VERTEX
  8
0
  5
FC3
 10
236.019
 20
332.160
 30
0.000000
  70
    32
  0
VERTEX
  8
0
  5
FC4
 10
236.018
 20
332.001
 30
0.000000
  70
    32
  0
VERTEX
  8
0
  5
FC5
 10
236.019
 20
331.841
 30
0.000000
  70
    32
  0
VERTEX
  8
0
  5
FC6
 10
236.020
 20
331.681
 30
0.000000
  70
    32
  0
VERTEX
  8
0
  5
FC7
 10
236.023
 20
331.522
 30
0.000000
  70
    32
  0
VERTEX
  8
0
  5
FC8
 10
236.026
 20
331.363
 30
0.000000
  70
    32
  0
VERTEX
  8
0
  5
FC9
 10
236.030
 20
331.203
 30
0.000000
  70
    32
  0
VERTEX
  8
0
  5
FCA
 10
236.035
 20
331.044
 30
0.000000
  70
    32
  0
VERTEX
  8
0
  5
FCB
 10
236.041
 20
330.886
 30
0.000000
  70
    32
  0
VERTEX
  8
0
  5
FCC
 10
236.047
 20
330.727
 30
0.000000
  70
    32
  0
VERTEX
  8
0
  5
FCD
 10
236.055
 20
330.569
 30
0.000000
  70
    32
  0
VERTEX
  8
0
  5
FCE
 10
236.064
 20
330.412
 30
0.000000
  70
    32
  0
VERTEX
  8
0
  5
FCF
 10
236.073
 20
330.255
 30
0.000000
  70
    32
  0
VERTEX
  8
0
  5
FD0
 10
236.084
 20
330.098
 30
0.000000
  70
    32
  0
VERTEX
  8
0
  5
FD1
 10
236.095
 20
329.942
 30
0.000000
  70
    32
  0
VERTEX
  8
0
  5
FD2
 10
236.107
 20
329.786
 30
0.000000
  70
    32
  0
VERTEX
  8
0
  5
FD3
 10
236.120
 20
329.631
 30
0.000000
  70
    32
  0
VERTEX
  8
0
  5
FD4
 10
236.134
 20
329.477
 30
0.000000
  70
    32
  0
VERTEX
  8
0
  5
FD5
 10
236.149
 20
329.323
 30
0.000000
  70
    32
  0
VERTEX
  8
0
  5
FD6
 10
236.164
 20
329.170
 30
0.000000
  70
    32
  0
VERTEX
  8
0
  5
FD7
 10
236.181
 20
329.018
 30
0.000000
  70
    32
  0
VERTEX
  8
0
  5
FD8
 10
236.198
 20
328.867
 30
0.000000
  70
    32
  0
VERTEX
  8
0
  5
FD9
 10
236.217
 20
328.716
 30
0.000000
  70
    32
  0
VERTEX
  8
0
  5
FDA
 10
236.236
 20
328.567
 30
0.000000
  70
    32
  0
VERTEX
  8
0
  5
FDB
 10
236.256
 20
328.418
 30
0.000000
  70
    32
  0
VERTEX
  8
0
  5
FDC
 10
236.276
 20
328.271
 30
0.000000
  70
    32
  0
VERTEX
  8
0
  5
FDD
 10
236.298
 20
328.124
 30
0.000000
  70
    32
  0
VERTEX
  8
0
  5
FDE
 10
236.320
 20
327.979
 30
0.000000
  70
    32
  0
VERTEX
  8
0
  5
FDF
 10
236.344
 20
327.834
 30
0.000000
  70
    32
  0
VERTEX
  8
0
  5
FE0
 10
236.368
 20
327.691
 30
0.000000
  70
    32
  0
VERTEX
  8
0
  5
FE1
 10
236.393
 20
327.549
 30
0.000000
  70
    32
  0
VERTEX
  8
0
  5
FE2
 10
236.418
 20
327.408
 30
0.000000
  70
    32
  0
VERTEX
  8
0
  5
FE3
 10
236.445
 20
327.269
 30
0.000000
  70
    32
  0
VERTEX
  8
0
  5
FE4
 10
236.472
 20
327.130
 30
0.000000
  70
    32
  0
VERTEX
  8
0
  5
FE5
 10
236.500
 20
326.994
 30
0.000000
  70
    32
  0
VERTEX
  8
0
  5
FE6
 10
236.529
 20
326.858
 30
0.000000
  70
    32
  0
VERTEX
  8
0
  5
FE7
 10
236.559
 20
326.724
 30
0.000000
  70
    32
  0
VERTEX
  8
0
  5
FE8
 10
236.589
 20
326.591
 30
0.000000
  70
    32
  0
VERTEX
  8
0
  5
FE9
 10
236.620
 20
326.460
 30
0.000000
  70
    32
  0
VERTEX
  8
0
  5
FEA
 10
236.652
 20
326.331
 30
0.000000
  70
    32
  0
VERTEX
  8
0
  5
FEB
 10
236.685
 20
326.203
 30
0.000000
  70
    32
  0
VERTEX
  8
0
  5
FEC
 10
236.718
 20
326.076
 30
0.000000
  70
    32
  0
VERTEX
  8
0
  5
FED
 10
236.752
 20
325.951
 30
0.000000
  70
    32
  0
VERTEX
  8
0
  5
FEE
 10
236.787
 20
325.828
 30
0.000000
  70
    32
  0
VERTEX
  8
0
  5
FEF
 10
236.822
 20
325.707
 30
0.000000
  70
    32
  0
VERTEX
  8
0
  5
FF0
 10
236.859
 20
325.587
 30
0.000000
  70
    32
  0
VERTEX
  8
0
  5
FF1
 10
236.895
 20
325.469
 30
0.000000
  70
    32
  0
VERTEX
  8
0
  5
FF2
 10
236.933
 20
325.353
 30
0.000000
  70
    32
  0
VERTEX
  8
0
  5
FF3
 10
236.971
 20
325.239
 30
0.000000
  70
    32
  0
VERTEX
  8
0
  5
FF4
 10
237.010
 20
325.127
 30
0.000000
  70
    32
  0
VERTEX
  8
0
  5
FF5
 10
237.049
 20
325.016
 30
0.000000
  70
    32
  0
VERTEX
  8
0
  5
FF6
 10
237.089
 20
324.908
 30
0.000000
  70
    32
  0
VERTEX
  8
0
  5
FF7
 10
237.130
 20
324.801
 30
0.000000
  70
    32
  0
VERTEX
  8
0
  5
FF8
 10
237.171
 20
324.697
 30
0.000000
  70
    32
  0
VERTEX
  8
0
  5
FF9
 10
237.213
 20
324.594
 30
0.000000
  70
    32
  0
VERTEX
  8
0
  5
FFA
 10
237.255
 20
324.494
 30
0.000000
  70
    32
  0
VERTEX
  8
0
  5
FFB
 10
237.298
 20
324.395
 30
0.000000
  70
    32
  0
VERTEX
  8
0
  5
FFC
 10
237.342
 20
324.299
 30
0.000000
  70
    32
  0
VERTEX
  8
0
  5
FFD
 10
237.386
 20
324.205
 30
0.000000
  70
    32
  0
VERTEX
  8
0
  5
FFE
 10
237.430
 20
324.112
 30
0.000000
  70
    32
  0
VERTEX
  8
0
  5
FFF
 10
237.476
 20
324.023
 30
0.000000
  70
    32
  0
VERTEX
  8
0
  5
1000
 10
237.521
 20
323.935
 30
0.000000
  70
    32
  0
VERTEX
  8
0
  5
1001
 10
237.567
 20
323.849
 30
0.000000
  70
    32
  0
VERTEX
  8
0
  5
1002
 10
237.614
 20
323.766
 30
0.000000
  70
    32
  0
VERTEX
  8
0
  5
1003
 10
237.661
 20
323.685
 30
0.000000
  70
    32
  0
VERTEX
  8
0
  5
1004
 10
237.708
 20
323.607
 30
0.000000
  70
    32
  0
SEQEND
  8
0
  5
1005
  0
ARC
  5
D71
  8
0
 10
251.32988919398539
 20
50.000499999999867
 30
0.0
 40
15.999999999999989
 50
211.64204211699791
 51
148.357957883002
  0
POLYLINE
  5
D72
  8
0
 10
239.30182364792569
 20
43.999999999999957
 30
0.0
 66
     1
 70
     8
  0
VERTEX
  8
0
  5
1006
 10
239.302
 20
44.0000
 30
0.000000
  70
    32
  0
VERTEX
  8
0
  5
1007
 10
239.352
 20
44.0018
 30
0.000000
  70
    32
  0
VERTEX
  8
0
  5
1008
 10
239.403
 20
44.0072
 30
0.000000
  70
    32
  0
VERTEX
  8
0
  5
1009
 10
239.453
 20
44.0163
 30
0.000000
  70
    32
  0
VERTEX
  8
0
  5
100A
 10
239.503
 20
44.0289
 30
0.000000
  70
    32
  0
VERTEX
  8
0
  5
100B
 10
239.553
 20
44.0451
 30
0.000000
  70
    32
  0
VERTEX
  8
0
  5
100C
 10
239.603
 20
44.0649
 30
0.000000
  70
    32
  0
VERTEX
  8
0
  5
100D
 10
239.653
 20
44.0883
 30
0.000000
  70
    32
  0
VERTEX
  8
0
  5
100E
 10
239.702
 20
44.1153
 30
0.000000
  70
    32
  0
VERTEX
  8
0
  5
100F
 10
239.751
 20
44.1458
 30
0.000000
  70
    32
  0
VERTEX
  8
0
  5
1010
 10
239.800
 20
44.1798
 30
0.000000
  70
    32
  0
VERTEX
  8
0
  5
1011
 10
239.849
 20
44.2173
 30
0.000000
  70
    32
  0
VERTEX
  8
0
  5
1012
 10
239.898
 20
44.2584
 30
0.000000
  70
    32
  0
VERTEX
  8
0
  5
1013
 10
239.946
 20
44.3028
 30
0.000000
  70
    32
  0
VERTEX
  8
0
  5
1014
 10
239.993
 20
44.3507
 30
0.000000
  70
    32
  0
VERTEX
  8
0
  5
1015
 10
240.040
 20
44.4020
 30
0.000000
  70
    32
  0
VERTEX
  8
0
  5
1016
 10
240.087
 20
44.4567
 30
0.000000
  70
    32
  0
VERTEX
  8
0
  5
1017
 10
240.133
 20
44.5147
 30
0.000000
  70
    32
  0
VERTEX
  8
0
  5
1018
 10
240.179
 20
44.5761
 30
0.000000
  70
    32
  0
VERTEX
  8
0
  5
1019
 10
240.224
 20
44.6407
 30
0.000000
  70
    32
  0
VERTEX
  8
0
  5
101A
 10
240.269
 20
44.7085
 30
0.000000
  70
    32
  0
VERTEX
  8
0
  5
101B
 10
240.313
 20
44.7795
 30
0.000000
  70
    32
  0
VERTEX
  8
0
  5
101C
 10
240.357
 20
44.8536
 30
0.000000
  70
    32
  0
VERTEX
  8
0
  5
101D
 10
240.400
 20
44.9309
 30
0.000000
  70
    32
  0
VERTEX
  8
0
  5
101E
 10
240.442
 20
45.0112
 30
0.000000
  70
    32
  0
VERTEX
  8
0
  5
101F
 10
240.483
 20
45.0945
 30
0.000000
  70
    32
  0
VERTEX
  8
0
  5
1020
 10
240.524
 20
45.1808
 30
0.000000
  70
    32
  0
VERTEX
  8
0
  5
1021
 10
240.564
 20
45.2699
 30
0.000000
  70
    32
  0
VERTEX
  8
0
  5
1022
 10
240.604
 20
45.3619
 30
0.000000
  70
    32
  0
VERTEX
  8
0
  5
1023
 10
240.642
 20
45.4567
 30
0.000000
  70
    32
  0
VERTEX
  8
0
  5
1024
 10
240.680
 20
45.5543
 30
0.000000
  70
    32
  0
VERTEX
  8
0
  5
1025
 10
240.717
 20
45.6545
 30
0.000000
  70
    32
  0
VERTEX
  8
0
  5
1026
 10
240.753
 20
45.7574
 30
0.000000
  70
    32
  0
VERTEX
  8
0
  5
1027
 10
240.788
 20
45.8628
 30
0.000000
  70
    32
  0
VERTEX
  8
0
  5
1028
 10
240.822
 20
45.9706
 30
0.000000
  70
    32
  0
VERTEX
  8
0
  5
1029
 10
240.856
 20
46.0810
 30
0.000000
  70
    32
  0
VERTEX
  8
0
  5
102A
 10
240.888
 20
46.1936
 30
0.000000
  70
    32
  0
VERTEX
  8
0
  5
102B
 10
240.920
 20
46.3086
 30
0.000000
  70
    32
  0
VERTEX
  8
0
  5
102C
 10
240.950
 20
46.4258
 30
0.000000
  70
    32
  0
VERTEX
  8
0
  5
102D
 10
240.980
 20
46.5452
 30
0.000000
  70
    32
  0
VERTEX
  8
0
  5
102E
 10
241.008
 20
46.6666
 30
0.000000
  70
    32
  0
VERTEX
  8
0
  5
102F
 10
241.036
 20
46.7900
 30
0.000000
  70
    32
  0
VERTEX
  8
0
  5
1030
 10
241.062
 20
46.9154
 30
0.000000
  70
    32
  0
VERTEX
  8
0
  5
1031
 10
241.087
 20
47.0426
 30
0.000000
  70
    32
  0
VERTEX
  8
0
  5
1032
 10
241.112
 20
47.1716
 30
0.000000
  70
    32
  0
VERTEX
  8
0
  5
1033
 10
241.135
 20
47.3023
 30
0.000000
  70
    32
  0
VERTEX
  8
0
  5
1034
 10
241.157
 20
47.4347
 30
0.000000
  70
    32
  0
VERTEX
  8
0
  5
1035
 10
241.178
 20
47.5686
 30
0.000000
  70
    32
  0
VERTEX
  8
0
  5
1036
 10
241.198
 20
47.7039
 30
0.000000
  70
    32
  0
VERTEX
  8
0
  5
1037
 10
241.216
 20
47.8406
 30
0.000000
  70
    32
  0
VERTEX
  8
0
  5
1038
 10
241.234
 20
47.9787
 30
0.000000
  70
    32
  0
VERTEX
  8
0
  5
1039
 10
241.250
 20
48.1179
 30
0.000000
  70
    32
  0
VERTEX
  8
0
  5
103A
 10
241.266
 20
48.2583
 30
0.000000
  70
    32
  0
VERTEX
  8
0
  5
103B
 10
241.280
 20
48.3997
 30
0.000000
  70
    32
  0
VERTEX
  8
0
  5
103C
 10
241.292
 20
48.5421
 30
0.000000
  70
    32
  0
VERTEX
  8
0
  5
103D
 10
241.304
 20
48.6854
 30
0.000000
  70
    32
  0
VERTEX
  8
0
  5
103E
 10
241.315
 20
48.8295
 30
0.000000
  70
    32
  0
VERTEX
  8
0
  5
103F
 10
241.324
 20
48.9742
 30
0.000000
  70
    32
  0
VERTEX
  8
0
  5
1040
 10
241.332
 20
49.1196
 30
0.000000
  70
    32
  0
VERTEX
  8
0
  5
1041
 10
241.339
 20
49.2655
 30
0.000000
  70
    32
  0
VERTEX
  8
0
  5
1042
 10
241.344
 20
49.4119
 30
0.000000
  70
    32
  0
VERTEX
  8
0
  5
1043
 10
241.348
 20
49.5586
 30
0.000000
  70
    32
  0
VERTEX
  8
0
  5
1044
 10
241.351
 20
49.7056
 30
0.000000
  70
    32
  0
VERTEX
  8
0
  5
1045
 10
241.353
 20
49.8528
 30
0.000000
  70
    32
  0
VERTEX
  8
0
  5
1046
 10
241.354
 20
50.0000
 30
0.000000
  70
    32
  0
VERTEX
  8
0
  5
1047
 10
241.353
 20
50.1472
 30
0.000000
  70
    32
  0
VERTEX
  8
0
  5
1048
 10
241.351
 20
50.2944
 30
0.000000
  70
    32
  0
VERTEX
  8
0
  5
1049
 10
241.348
 20
50.4414
 30
0.000000
  70
    32
  0
VERTEX
  8
0
  5
104A
 10
241.344
 20
50.5881
 30
0.000000
  70
    32
  0
VERTEX
  8
0
  5
104B
 10
241.339
 20
50.7345
 30
0.000000
  70
    32
  0
VERTEX
  8
0
  5
104C
 10
241.332
 20
50.8804
 30
0.000000
  70
    32
  0
VERTEX
  8
0
  5
104D
 10
241.324
 20
51.0258
 30
0.000000
  70
    32
  0
VERTEX
  8
0
  5
104E
 10
241.315
 20
51.1705
 30
0.000000
  70
    32
  0
VERTEX
  8
0
  5
104F
 10
241.304
 20
51.3146
 30
0.000000
  70
    32
  0
VERTEX
  8
0
  5
1050
 10
241.292
 20
51.4579
 30
0.000000
  70
    32
  0
VERTEX
  8
0
  5
1051
 10
241.280
 20
51.6003
 30
0.000000
  70
    32
  0
VERTEX
  8
0
  5
1052
 10
241.266
 20
51.7417
 30
0.000000
  70
    32
  0
VERTEX
  8
0
  5
1053
 10
241.250
 20
51.8821
 30
0.000000
  70
    32
  0
VERTEX
  8
0
  5
1054
 10
241.234
 20
52.0213
 30
0.000000
  70
    32
  0
VERTEX
  8
0
  5
1055
 10
241.216
 20
52.1594
 30
0.000000
  70
    32
  0
VERTEX
  8
0
  5
1056
 10
241.198
 20
52.2961
 30
0.000000
  70
    32
  0
VERTEX
  8
0
  5
1057
 10
241.178
 20
52.4314
 30
0.000000
  70
    32
  0
VERTEX
  8
0
  5
1058
 10
241.157
 20
52.5653
 30
0.000000
  70
    32
  0
VERTEX
  8
0
  5
1059
 10
241.135
 20
52.6977
 30
0.000000
  70
    32
  0
VERTEX
  8
0
  5
105A
 10
241.112
 20
52.8284
 30
0.000000
  70
    32
  0
VERTEX
  8
0
  5
105B
 10
241.087
 20
52.9574
 30
0.000000
  70
    32
  0
VERTEX
  8
0
  5
105C
 10
241.062
 20
53.0846
 30
0.000000
  70
    32
  0
VERTEX
  8
0
  5
105D
 10
241.036
 20
53.2100
 30
0.000000
  70
    32
  0
VERTEX
  8
0
  5
105E
 10
241.008
 20
53.3334
 30
0.000000
  70
    32
  0
VERTEX
  8
0
  5
105F
 10
240.980
 20
53.4548
 30
0.000000
  70
    32
  0
VERTEX
  8
0
  5
1060
 10
240.950
 20
53.5742
 30
0.000000
  70
    32
  0
VERTEX
  8
0
  5
1061
 10
240.920
 20
53.6914
 30
0.000000
  70
    32
  0
VERTEX
  8
0
  5
1062
 10
240.888
 20
53.8064
 30
0.000000
  70
    32
  0
VERTEX
  8
0
  5
1063
 10
240.856
 20
53.9190
 30
0.000000
  70
    32
  0
VERTEX
  8
0
  5
1064
 10
240.822
 20
54.0294
 30
0.000000
  70
    32
  0
VERTEX
  8
0
  5
1065
 10
240.788
 20
54.1372
 30
0.000000
  70
    32
  0
VERTEX
  8
0
  5
1066
 10
240.753
 20
54.2426
 30
0.000000
  70
    32
  0
VERTEX
  8
0
  5
1067
 10
240.717
 20
54.3455
 30
0.000000
  70
    32
  0
VERTEX
  8
0
  5
1068
 10
240.680
 20
54.4457
 30
0.000000
  70
    32
  0
VERTEX
  8
0
  5
1069
 10
240.642
 20
54.5433
 30
0.000000
  70
    32
  0
VERTEX
  8
0
  5
106A
 10
240.604
 20
54.6381
 30
0.000000
  70
    32
  0
VERTEX
  8
0
  5
106B
 10
240.564
 20
54.7301
 30
0.000000
  70
    32
  0
VERTEX
  8
0
  5
106C
 10
240.524
 20
54.8192
 30
0.000000
  70
    32
  0
VERTEX
  8
0
  5
106D
 10
240.483
 20
54.9055
 30
0.000000
  70
    32
  0
VERTEX
  8
0
  5
106E
 10
240.442
 20
54.9888
 30
0.000000
  70
    32
  0
VERTEX
  8
0
  5
106F
 10
240.400
 20
55.0691
 30
0.000000
  70
    32
  0
VERTEX
  8
0
  5
1070
 10
240.357
 20
55.1464
 30
0.000000
  70
    32
  0
VERTEX
  8
0
  5
1071
 10
240.313
 20
55.2205
 30
0.000000
  70
    32
  0
VERTEX
  8
0
  5
1072
 10
240.269
 20
55.2915
 30
0.000000
  70
    32
  0
VERTEX
  8
0
  5
1073
 10
240.224
 20
55.3593
 30
0.000000
  70
    32
  0
VERTEX
  8
0
  5
1074
 10
240.179
 20
55.4239
 30
0.000000
  70
    32
  0
VERTEX
  8
0
  5
1075
 10
240.133
 20
55.4853
 30
0.000000
  70
    32
  0
VERTEX
  8
0
  5
1076
 10
240.087
 20
55.5433
 30
0.000000
  70
    32
  0
VERTEX
  8
0
  5
1077
 10
240.040
 20
55.5980
 30
0.000000
  70
    32
  0
VERTEX
  8
0
  5
1078
 10
239.993
 20
55.6493
 30
0.000000
  70
    32
  0
VERTEX
  8
0
  5
1079
 10
239.946
 20
55.6972
 30
0.000000
  70
    32
  0
VERTEX
  8
0
  5
107A
 10
239.898
 20
55.7416
 30
0.000000
  70
    32
  0
VERTEX
  8
0
  5
107B
 10
239.849
 20
55.7827
 30
0.000000
  70
    32
  0
VERTEX
  8
0
  5
107C
 10
239.800
 20
55.8202
 30
0.000000
  70
    32
  0
VERTEX
  8
0
  5
107D
 10
239.751
 20
55.8542
 30
0.000000
  70
    32
  0
VERTEX
  8
0
  5
107E
 10
239.702
 20
55.8847
 30
0.000000
  70
    32
  0
VERTEX
  8
0
  5
107F
 10
239.653
 20
55.9117
 30
0.000000
  70
    32
  0
VERTEX
  8
0
  5
1080
 10
239.603
 20
55.9351
 30
0.000000
  70
    32
  0
VERTEX
  8
0
  5
1081
 10
239.553
 20
55.9549
 30
0.000000
  70
    32
  0
VERTEX
  8
0
  5
1082
 10
239.503
 20
55.9711
 30
0.000000
  70
    32
  0
VERTEX
  8
0
  5
1083
 10
239.453
 20
55.9837
 30
0.000000
  70
    32
  0
VERTEX
  8
0
  5
1084
 10
239.403
 20
55.9928
 30
0.000000
  70
    32
  0
VERTEX
  8
0
  5
1085
 10
239.352
 20
55.9982
 30
0.000000
  70
    32
  0
VERTEX
  8
0
  5
1086
 10
239.302
 20
56.0000
 30
0.000000
  70
    32
  0
SEQEND
  8
0
  5
1087
  0
POLYLINE
  5
D73
  8
0
 10
236.73884732387467
 20
44.000055203003797
 30
0.0
 66
     1
 70
     8
  0
VERTEX
  8
0
  5
1088
 10
236.739
 20
44.0001
 30
0.000000
  70
    32
  0
VERTEX
  8
0
  5
1089
 10
236.820
 20
43.7158
 30
0.000000
  70
    32
  0
VERTEX
  8
0
  5
108A
 10
236.904
 20
43.4409
 30
0.000000
  70
    32
  0
VERTEX
  8
0
  5
108B
 10
236.993
 20
43.1757
 30
0.000000
  70
    32
  0
VERTEX
  8
0
  5
108C
 10
237.084
 20
42.9206
 30
0.000000
  70
    32
  0
VERTEX
  8
0
  5
108D
 10
237.179
 20
42.6761
 30
0.000000
  70
    32
  0
VERTEX
  8
0
  5
108E
 10
237.277
 20
42.4424
 30
0.000000
  70
    32
  0
VERTEX
  8
0
  5
108F
 10
237.378
 20
42.2200
 30
0.000000
  70
    32
  0
VERTEX
  8
0
  5
1090
 10
237.482
 20
42.0091
 30
0.000000
  70
    32
  0
VERTEX
  8
0
  5
1091
 10
237.589
 20
41.8101
 30
0.000000
  70
    32
  0
VERTEX
  8
0
  5
1092
 10
237.698
 20
41.6232
 30
0.000000
  70
    32
  0
VERTEX
  8
0
  5
1093
 10
237.810
 20
41.4488
 30
0.000000
  70
    32
  0
VERTEX
  8
0
  5
1094
 10
237.924
 20
41.2871
 30
0.000000
  70
    32
  0
VERTEX
  8
0
  5
1095
 10
238.040
 20
41.1383
 30
0.000000
  70
    32
  0
VERTEX
  8
0
  5
1096
 10
238.157
 20
41.0027
 30
0.000000
  70
    32
  0
VERTEX
  8
0
  5
1097
 10
238.277
 20
40.8804
 30
0.000000
  70
    32
  0
VERTEX
  8
0
  5
1098
 10
238.398
 20
40.7717
 30
0.000000
  70
    32
  0
VERTEX
  8
0
  5
1099
 10
238.520
 20
40.6767
 30
0.000000
  70
    32
  0
VERTEX
  8
0
  5
109A
 10
238.643
 20
40.5956
 30
0.000000
  70
    32
  0
VERTEX
  8
0
  5
109B
 10
238.768
 20
40.5284
 30
0.000000
  70
    32
  0
VERTEX
  8
0
  5
109C
 10
238.893
 20
40.4752
 30
0.000000
  70
    32
  0
VERTEX
  8
0
  5
109D
 10
239.019
 20
40.4362
 30
0.000000
  70
    32
  0
VERTEX
  8
0
  5
109E
 10
239.145
 20
40.4115
 30
0.000000
  70
    32
  0
VERTEX
  8
0
  5
109F
 10
239.271
 20
40.4009
 30
0.000000
  70
    32
  0
VERTEX
  8
0
  5
10A0
 10
239.398
 20
40.4046
 30
0.000000
  70
    32
  0
VERTEX
  8
0
  5
10A1
 10
239.524
 20
40.4226
 30
0.000000
  70
    32
  0
VERTEX
  8
0
  5
10A2
 10
239.650
 20
40.4548
 30
0.000000
  70
    32
  0
VERTEX
  8
0
  5
10A3
 10
239.776
 20
40.5011
 30
0.000000
  70
    32
  0
VERTEX
  8
0
  5
10A4
 10
239.901
 20
40.5616
 30
0.000000
  70
    32
  0
VERTEX
  8
0
  5
10A5
 10
240.025
 20
40.6361
 30
0.000000
  70
    32
  0
VERTEX
  8
0
  5
10A6
 10
240.148
 20
40.7244
 30
0.000000
  70
    32
  0
VERTEX
  8
0
  5
10A7
 10
240.269
 20
40.8266
 30
0.000000
  70
    32
  0
VERTEX
  8
0
  5
10A8
 10
240.389
 20
40.9424
 30
0.000000
  70
    32
  0
VERTEX
  8
0
  5
10A9
 10
240.508
 20
41.0716
 30
0.000000
  70
    32
  0
VERTEX
  8
0
  5
10AA
 10
240.625
 20
41.2141
 30
0.000000
  70
    32
  0
VERTEX
  8
0
  5
10AB
 10
240.739
 20
41.3696
 30
0.000000
  70
    32
  0
VERTEX
  8
0
  5
10AC
 10
240.852
 20
41.5380
 30
0.000000
  70
    32
  0
VERTEX
  8
0
  5
10AD
 10
240.962
 20
41.7189
 30
0.000000
  70
    32
  0
VERTEX
  8
0
  5
10AE
 10
241.070
 20
41.9121
 30
0.000000
  70
    32
  0
VERTEX
  8
0
  5
10AF
 10
241.176
 20
42.1174
 30
0.000000
  70
    32
  0
VERTEX
  8
0
  5
10B0
 10
241.278
 20
42.3343
 30
0.000000
  70
    32
  0
VERTEX
  8
0
  5
10B1
 10
241.378
 20
42.5626
 30
0.000000
  70
    32
  0
VERTEX
  8
0
  5
10B2
 10
241.474
 20
42.8020
 30
0.000000
  70
    32
  0
VERTEX
  8
0
  5
10B3
 10
241.567
 20
43.0521
 30
0.000000
  70
    32
  0
VERTEX
  8
0
  5
10B4
 10
241.657
 20
43.3124
 30
0.000000
  70
    32
  0
VERTEX
  8
0
  5
10B5
 10
241.744
 20
43.5827
 30
0.000000
  70
    32
  0
VERTEX
  8
0
  5
10B6
 10
241.826
 20
43.8626
 30
0.000000
  70
    32
  0
VERTEX
  8
0
  5
10B7
 10
241.905
 20
44.1515
 30
0.000000
  70
    32
  0
VERTEX
  8
0
  5
10B8
 10
241.981
 20
44.4492
 30
0.000000
  70
    32
  0
VERTEX
  8
0
  5
10B9
 10
242.052
 20
44.7550
 30
0.000000
  70
    32
  0
VERTEX
  8
0
  5
10BA
 10
242.119
 20
45.0687
 30
0.000000
  70
    32
  0
VERTEX
  8
0
  5
10BB
 10
242.182
 20
45.3897
 30
0.000000
  70
    32
  0
VERTEX
  8
0
  5
10BC
 10
242.240
 20
45.7175
 30
0.000000
  70
    32
  0
VERTEX
  8
0
  5
10BD
 10
242.295
 20
46.0517
 30
0.000000
  70
    32
  0
VERTEX
  8
0
  5
10BE
 10
242.344
 20
46.3918
 30
0.000000
  70
    32
  0
VERTEX
  8
0
  5
10BF
 10
242.390
 20
46.7372
 30
0.000000
  70
    32
  0
VERTEX
  8
0
  5
10C0
 10
242.430
 20
47.0875
 30
0.000000
  70
    32
  0
VERTEX
  8
0
  5
10C1
 10
242.466
 20
47.4421
 30
0.000000
  70
    32
  0
VERTEX
  8
0
  5
10C2
 10
242.498
 20
47.8005
 30
0.000000
  70
    32
  0
VERTEX
  8
0
  5
10C3
 10
242.524
 20
48.1621
 30
0.000000
  70
    32
  0
VERTEX
  8
0
  5
10C4
 10
242.546
 20
48.5265
 30
0.000000
  70
    32
  0
VERTEX
  8
0
  5
10C5
 10
242.563
 20
48.8931
 30
0.000000
  70
    32
  0
VERTEX
  8
0
  5
10C6
 10
242.575
 20
49.2613
 30
0.000000
  70
    32
  0
VERTEX
  8
0
  5
10C7
 10
242.583
 20
49.6306
 30
0.000000
  70
    32
  0
VERTEX
  8
0
  5
10C8
 10
242.585
 20
50.0005
 30
0.000000
  70
    32
  0
VERTEX
  8
0
  5
10C9
 10
242.583
 20
50.3704
 30
0.000000
  70
    32
  0
VERTEX
  8
0
  5
10CA
 10
242.575
 20
50.7397
 30
0.000000
  70
    32
  0
VERTEX
  8
0
  5
10CB
 10
242.563
 20
51.1079
 30
0.000000
  70
    32
  0
VERTEX
  8
0
  5
10CC
 10
242.546
 20
51.4745
 30
0.000000
  70
    32
  0
VERTEX
  8
0
  5
10CD
 10
242.524
 20
51.8389
 30
0.000000
  70
    32
  0
VERTEX
  8
0
  5
10CE
 10
242.498
 20
52.2005
 30
0.000000
  70
    32
  0
VERTEX
  8
0
  5
10CF
 10
242.466
 20
52.5589
 30
0.000000
  70
    32
  0
VERTEX
  8
0
  5
10D0
 10
242.430
 20
52.9135
 30
0.000000
  70
    32
  0
VERTEX
  8
0
  5
10D1
 10
242.390
 20
53.2638
 30
0.000000
  70
    32
  0
VERTEX
  8
0
  5
10D2
 10
242.344
 20
53.6092
 30
0.000000
  70
    32
  0
VERTEX
  8
0
  5
10D3
 10
242.295
 20
53.9493
 30
0.000000
  70
    32
  0
VERTEX
  8
0
  5
10D4
 10
242.240
 20
54.2835
 30
0.000000
  70
    32
  0
VERTEX
  8
0
  5
10D5
 10
242.182
 20
54.6113
 30
0.000000
  70
    32
  0
VERTEX
  8
0
  5
10D6
 10
242.119
 20
54.9323
 30
0.000000
  70
    32
  0
VERTEX
  8
0
  5
10D7
 10
242.052
 20
55.2460
 30
0.000000
  70
    32
  0
VERTEX
  8
0
  5
10D8
 10
241.981
 20
55.5518
 30
0.000000
  70
    32
  0
VERTEX
  8
0
  5
10D9
 10
241.905
 20
55.8495
 30
0.000000
  70
    32
  0
VERTEX
  8
0
  5
10DA
 10
241.826
 20
56.1384
 30
0.000000
  70
    32
  0
VERTEX
  8
0
  5
10DB
 10
241.744
 20
56.4183
 30
0.000000
  70
    32
  0
VERTEX
  8
0
  5
10DC
 10
241.657
 20
56.6886
 30
0.000000
  70
    32
  0
VERTEX
  8
0
  5
10DD
 10
241.567
 20
56.9489
 30
0.000000
  70
    32
  0
VERTEX
  8
0
  5
10DE
 10
241.474
 20
57.1990
 30
0.000000
  70
    32
  0
VERTEX
  8
0
  5
10DF
 10
241.378
 20
57.4384
 30
0.000000
  70
    32
  0
VERTEX
  8
0
  5
10E0
 10
241.278
 20
57.6667
 30
0.000000
  70
    32
  0
VERTEX
  8
0
  5
10E1
 10
241.176
 20
57.8836
 30
0.000000
  70
    32
  0
VERTEX
  8
0
  5
10E2
 10
241.070
 20
58.0889
 30
0.000000
  70
    32
  0
VERTEX
  8
0
  5
10E3
 10
240.962
 20
58.2821
 30
0.000000
  70
    32
  0
VERTEX
  8
0
  5
10E4
 10
240.852
 20
58.4630
 30
0.000000
  70
    32
  0
VERTEX
  8
0
  5
10E5
 10
240.739
 20
58.6314
 30
0.000000
  70
    32
  0
VERTEX
  8
0
  5
10E6
 10
240.625
 20
58.7869
 30
0.000000
  70
    32
  0
VERTEX
  8
0
  5
10E7
 10
240.508
 20
58.9294
 30
0.000000
  70
    32
  0
VERTEX
  8
0
  5
10E8
 10
240.389
 20
59.0586
 30
0.000000
  70
    32
  0
VERTEX
  8
0
  5
10E9
 10
240.269
 20
59.1744
 30
0.000000
  70
    32
  0
VERTEX
  8
0
  5
10EA
 10
240.148
 20
59.2766
 30
0.000000
  70
    32
  0
VERTEX
  8
0
  5
10EB
 10
240.025
 20
59.3649
 30
0.000000
  70
    32
  0
VERTEX
  8
0
  5
10EC
 10
239.901
 20
59.4394
 30
0.000000
  70
    32
  0
VERTEX
  8
0
  5
10ED
 10
239.776
 20
59.4999
 30
0.000000
  70
    32
  0
VERTEX
  8
0
  5
10EE
 10
239.650
 20
59.5462
 30
0.000000
  70
    32
  0
VERTEX
  8
0
  5
10EF
 10
239.524
 20
59.5784
 30
0.000000
  70
    32
  0
VERTEX
  8
0
  5
10F0
 10
239.398
 20
59.5964
 30
0.000000
  70
    32
  0
VERTEX
  8
0
  5
10F1
 10
239.271
 20
59.6001
 30
0.000000
  70
    32
  0
VERTEX
  8
0
  5
10F2
 10
239.145
 20
59.5895
 30
0.000000
  70
    32
  0
VERTEX
  8
0
  5
10F3
 10
239.019
 20
59.5648
 30
0.000000
  70
    32
  0
VERTEX
  8
0
  5
10F4
 10
238.893
 20
59.5258
 30
0.000000
  70
    32
  0
VERTEX
  8
0
  5
10F5
 10
238.768
 20
59.4726
 30
0.000000
  70
    32
  0
VERTEX
  8
0
  5
10F6
 10
238.643
 20
59.4054
 30
0.000000
  70
    32
  0
VERTEX
  8
0
  5
10F7
 10
238.520
 20
59.3243
 30
0.000000
  70
    32
  0
VERTEX
  8
0
  5
10F8
 10
238.398
 20
59.2293
 30
0.000000
  70
    32
  0
VERTEX
  8
0
  5
10F9
 10
238.277
 20
59.1206
 30
0.000000
  70
    32
  0
VERTEX
  8
0
  5
10FA
 10
238.157
 20
58.9983
 30
0.000000
  70
    32
  0
VERTEX
  8
0
  5
10FB
 10
238.040
 20
58.8627
 30
0.000000
  70
    32
  0
VERTEX
  8
0
  5
10FC
 10
237.924
 20
58.7139
 30
0.000000
  70
    32
  0
VERTEX
  8
0
  5
10FD
 10
237.810
 20
58.5522
 30
0.000000
  70
    32
  0
VERTEX
  8
0
  5
10FE
 10
237.698
 20
58.3778
 30
0.000000
  70
    32
  0
VERTEX
  8
0
  5
10FF
 10
237.589
 20
58.1909
 30
0.000000
  70
    32
  0
VERTEX
  8
0
  5
1100
 10
237.482
 20
57.9919
 30
0.000000
  70
    32
  0
VERTEX
  8
0
  5
1101
 10
237.378
 20
57.7810
 30
0.000000
  70
    32
  0
VERTEX
  8
0
  5
1102
 10
237.277
 20
57.5586
 30
0.000000
  70
    32
  0
VERTEX
  8
0
  5
1103
 10
237.179
 20
57.3249
 30
0.000000
  70
    32
  0
VERTEX
  8
0
  5
1104
 10
237.084
 20
57.0804
 30
0.000000
  70
    32
  0
VERTEX
  8
0
  5
1105
 10
236.993
 20
56.8253
 30
0.000000
  70
    32
  0
VERTEX
  8
0
  5
1106
 10
236.904
 20
56.5601
 30
0.000000
  70
    32
  0
VERTEX
  8
0
  5
1107
 10
236.820
 20
56.2852
 30
0.000000
  70
    32
  0
VERTEX
  8
0
  5
1108
 10
236.739
 20
56.0009
 30
0.000000
  70
    32
  0
SEQEND
  8
0
  5
1109
  0
TEXT
  5
E20
  8
0
 62
     3
 10
0.0
 20
0.0
 30
0.0
 40
10.0
  1
ST12X60N
  7
STANDARD1
  0
ENDSEC
  0
EOF
