  0
SECTION
  2
HEADER
  9
$ACADVER
  1
AC1009
  9
$INSBASE
 10
0.0
 20
0.0
 30
0.0
  9
$EXTMIN
 10
0.0
 20
-2.960436562073669
 30
0.0
  9
$EXTMAX
 10
422.64672331506853
 20
473.20760478934881
 30
0.0
  9
$LIMMIN
 10
0.0
 20
0.0
  9
$LIMMAX
 10
420.0
 20
297.0
  9
$ORTHOMODE
 70
     1
  9
$REGENMODE
 70
     1
  9
$FILLMODE
 70
     1
  9
$QTEXTMODE
 70
     0
  9
$MIRRTEXT
 70
     0
  9
$DRAGMODE
 70
     2
  9
$LTSCALE
 40
10.0
  9
$OSMODE
 70
    37
  9
$ATTMODE
 70
     1
  9
$TEXTSIZE
 40
2.5
  9
$TRACEWID
 40
1.0
  9
$TEXTSTYLE
  7
STANDARD
  9
$CLAYER
  8
0
  9
$CELTYPE
  6
BYLAYER
  9
$CECOLOR
 62
   256
  9
$DIMSCALE
 40
1.0
  9
$DIMASZ
 40
2.5
  9
$DIMEXO
 40
0.625
  9
$DIMDLI
 40
3.75
  9
$DIMRND
 40
0.0
  9
$DIMDLE
 40
0.0
  9
$DIMEXE
 40
1.25
  9
$DIMTP
 40
0.0
  9
$DIMTM
 40
0.0
  9
$DIMTXT
 40
2.5
  9
$DIMCEN
 40
2.5
  9
$DIMTSZ
 40
0.0
  9
$DIMTOL
 70
     0
  9
$DIMLIM
 70
     0
  9
$DIMTIH
 70
     0
  9
$DIMTOH
 70
     0
  9
$DIMSE1
 70
     0
  9
$DIMSE2
 70
     0
  9
$DIMTAD
 70
     1
  9
$DIMZIN
 70
     8
  9
$DIMBLK
  1

  9
$DIMASO
 70
     1
  9
$DIMSHO
 70
     1
  9
$DIMPOST
  1

  9
$DIMAPOST
  1

  9
$DIMALT
 70
     0
  9
$DIMALTD
 70
     3
  9
$DIMALTF
 40
0.03937007874016
  9
$DIMLFAC
 40
1.0
  9
$DIMTOFL
 70
     1
  9
$DIMTVP
 40
0.0
  9
$DIMTIX
 70
     0
  9
$DIMSOXD
 70
     0
  9
$DIMSAH
 70
     0
  9
$DIMBLK1
  1

  9
$DIMBLK2
  1

  9
$DIMSTYLE
  2
ISO-25
  9
$DIMCLRD
 70
     0
  9
$DIMCLRE
 70
     0
  9
$DIMCLRT
 70
     0
  9
$DIMTFAC
 40
1.0
  9
$DIMGAP
 40
0.625
  9
$LUNITS
 70
     2
  9
$LUPREC
 70
     2
  9
$SKETCHINC
 40
1.0
  9
$FILLETRAD
 40
0.0
  9
$AUNITS
 70
     0
  9
$AUPREC
 70
     2
  9
$MENU
  1
.
  9
$ELEVATION
 40
0.0
  9
$PELEVATION
 40
0.0
  9
$THICKNESS
 40
0.0
  9
$LIMCHECK
 70
     0
  9
$BLIPMODE
 70
     0
  9
$CHAMFERA
 40
0.0
  9
$CHAMFERB
 40
0.0
  9
$SKPOLY
 70
     0
  9
$TDCREATE
 40
2454083.4444627082
  9
$TDUPDATE
 40
2459411.727455602
  9
$TDINDWG
 40
2.0677906829000001
  9
$TDUSRTIMER
 40
2.0677906829000001
  9
$USRTIMER
 70
     1
  9
$ANGBASE
 50
0.0
  9
$ANGDIR
 70
     0
  9
$PDMODE
 70
     0
  9
$PDSIZE
 40
0.0
  9
$PLINEWID
 40
0.0
  9
$COORDS
 70
     1
  9
$SPLFRAME
 70
     0
  9
$SPLINETYPE
 70
     6
  9
$SPLINESEGS
 70
     8
  9
$ATTDIA
 70
     0
  9
$ATTREQ
 70
     1
  9
$HANDLING
 70
     1
  9
$HANDSEED
  5
10C7D
  9
$SURFTAB1
 70
     6
  9
$SURFTAB2
 70
     6
  9
$SURFTYPE
 70
     6
  9
$SURFU
 70
     6
  9
$SURFV
 70
     6
  9
$UCSNAME
  2

  9
$UCSORG
 10
0.0
 20
0.0
 30
0.0
  9
$UCSXDIR
 10
1.0
 20
0.0
 30
0.0
  9
$UCSYDIR
 10
0.0
 20
1.0
 30
0.0
  9
$PUCSNAME
  2

  9
$PUCSORG
 10
0.0
 20
0.0
 30
0.0
  9
$PUCSXDIR
 10
1.0
 20
0.0
 30
0.0
  9
$PUCSYDIR
 10
0.0
 20
1.0
 30
0.0
  9
$USERI1
 70
     0
  9
$USERI2
 70
     0
  9
$USERI3
 70
     0
  9
$USERI4
 70
     0
  9
$USERI5
 70
     0
  9
$USERR1
 40
0.0
  9
$USERR2
 40
0.0
  9
$USERR3
 40
0.0
  9
$USERR4
 40
0.0
  9
$USERR5
 40
0.0
  9
$WORLDVIEW
 70
     1
  9
$SHADEDGE
 70
     3
  9
$SHADEDIF
 70
    70
  9
$TILEMODE
 70
     1
  9
$MAXACTVP
 70
    64
  9
$PLIMCHECK
 70
     0
  9
$PEXTMIN
 10
0.0
 20
0.0
 30
0.0
  9
$PEXTMAX
 10
0.0
 20
0.0
 30
0.0
  9
$PLIMMIN
 10
0.0
 20
0.0
  9
$PLIMMAX
 10
12.0
 20
9.0
  9
$UNITMODE
 70
     0
  9
$VISRETAIN
 70
     1
  9
$PLINEGEN
 70
     0
  9
$PSLTSCALE
 70
     1
  0
ENDSEC
  0
SECTION
  2
TABLES
  0
TABLE
  2
VPORT
 70
     1
  0
VPORT
  2
*ACTIVE
 70
     0
 10
0.0
 20
0.0
 11
1.0
 21
1.0
 12
445.7891754410507
 22
235.11511825517931
 13
0.0
 23
0.0
 14
10.0
 24
10.0
 15
10.0
 25
10.0
 16
0.0
 26
0.0
 36
1.0
 17
0.0
 27
0.0
 37
0.0
 40
480.34565053685259
 41
2.3805970149253728
 42
50.0
 43
0.0
 44
0.0
 50
0.0
 51
0.0
 71
     0
 72
  1000
 73
     1
 74
     3
 75
     0
 76
     0
 77
     0
 78
     0
  0
ENDTAB
  0
TABLE
  2
LTYPE
 70
     2
  0
LTYPE
  2
CONTINUOUS
 70
     0
  3
Solid line
 72
    65
 73
     0
 40
0.0
  0
LTYPE
  2
CENTER
 70
     0
  3
____ _ ____ _ ____ _ ____ _ ____ _ ____ _ ____
 72
    65
 73
     4
 40
2.0
 49
1.25
 49
-0.25
 49
0.25
 49
-0.25
  0
ENDTAB
  0
TABLE
  2
LAYER
 70
     4
  0
LAYER
  2
0
 70
     0
 62
     7
  6
CONTINUOUS
  0
LAYER
  2
DEFPOINTS
 70
     0
 62
     7
  6
CONTINUOUS
  0
LAYER
  2
1
 70
     0
 62
     1
  6
CENTER
  0
LAYER
  2
3
 70
     0
 62
     3
  6
CONTINUOUS
  0
ENDTAB
  0
TABLE
  2
STYLE
 70
     2
  0
STYLE
  2
STANDARD
 70
     0
 40
0.0
 41
1.0
 50
0.0
 71
     0
 42
2.5
  3
txt
  4

  0
STYLE
  2
STANDARD1
 70
     0
 40
0.0
 41
1.0
 50
0.0
 71
     0
 42
3.0
  3
txt
  4

  0
ENDTAB
  0
TABLE
  2
VIEW
 70
     2
  0
VIEW
  2
OLE1
 70
     0
 40
17.336203194614189
 10
1078.262703908531
 20
377.67444865954309
 41
31.074911629702001
 11
0.0
 21
0.0
 31
1.0
 12
0.0
 22
0.0
 32
0.0
 42
50.0
 43
0.0
 44
0.0
 50
0.0
 71
     0
  0
VIEW
  2
OLE2
 70
     0
 40
50.523198253338478
 10
1031.767738941523
 20
579.92835671582054
 41
90.562155008667546
 11
0.0
 21
0.0
 31
1.0
 12
0.0
 22
0.0
 32
0.0
 42
50.0
 43
0.0
 44
0.0
 50
0.0
 71
     0
  0
ENDTAB
  0
TABLE
  2
UCS
 70
     0
  0
ENDTAB
  0
TABLE
  2
APPID
 70
    42
  0
APPID
  2
ACAD
 70
     0
  0
APPID
  2
_FTCNV
 70
     0
  0
APPID
  2
DCO15
 70
     0
  0
APPID
  2
GENIUS_GENOREF_13
 70
     0
  0
APPID
  2
GENIUS_GENOENT_13
 70
     0
  0
APPID
  2
GENIUS_GENBH_13
 70
     0
  0
APPID
  2
GENIUS_GENOBJ_13
 70
     0
  0
APPID
  2
GENIUS_GENODEF_13
 70
     0
  0
APPID
  2
GENIUS_GENOLIS_13
 70
     0
  0
APPID
  2
GENIUS_GENOBJ-NBEHI-BHF_13
 70
     0
  0
APPID
  2
GENIUS_GENOBJ-NBEHI-BHB_13
 70
     0
  0
APPID
  2
GENIUS_GENOBJ-F-PART_13
 70
     0
  0
APPID
  2
GENIUS_GEFSTDP_13
 70
     0
  0
APPID
  2
GENIUS_GENOBJ-N-RSSYM_13
 70
     0
  0
APPID
  2
GENIUS_GENSYMENT_13
 70
     0
  0
APPID
  2
GENIUS_GENOBJ-N-TIT_13
 70
     0
  0
APPID
  2
GENIUS_GENTITLE_13
 70
     0
  0
APPID
  2
GENIUS_GENZVEED_13
 70
     0
  0
APPID
  2
GENIUS_GENOBJ-N-LEADER_13
 70
     0
  0
APPID
  2
GENIUS_GENOBJ-N-FIL_13
 70
     0
  0
APPID
  2
GENIUS_GENOBJ-N-SEC_13
 70
     0
  0
APPID
  2
GENIUS_GENOBJ-N-CRS_13
 70
     0
  0
APPID
  2
GENIUS_GENOBJ-N-ZOO_13
 70
     0
  0
APPID
  2
GENIUS_GENZOO_13
 70
     0
  0
APPID
  2
GENIUS_GENOBJ-F-TOL_13
 70
     0
  0
APPID
  2
GENIUS_GENFIL_13
 70
     0
  0
APPID
  2
GENIUS_GENOBJ-N-CHA_13
 70
     0
  0
APPID
  2
_CALL_MAC$
 70
     0
  0
APPID
  2
ASM_BASE
 70
     0
  0
APPID
  2
ASM_EXPLO_VER_2_00
 70
     0
  0
APPID
  2
ASM_CADM_VER_12_00
 70
     0
  0
APPID
  2
ASM_BASEFORO
 70
     0
  0
APPID
  2
ASM_BASETRAVI
 70
     0
  0
APPID
  2
ASM_BASETRAVI1
 70
     0
  0
APPID
  2
ASM_GRUPPI
 70
     0
  0
APPID
  2
ASM_CADM_ALBERO
 70
     0
  0
APPID
  2
ASM_GOLE
 70
     0
  0
APPID
  2
ACAD_MLEADERVER
 70
     0
  0
APPID
  2
ACAD_EXEMPT_FROM_CAD_STANDARDS
 70
     0
  0
APPID
  2
ACAD_DSTYLE_DIMJAG
 70
     0
  0
APPID
  2
ACAD_DSTYLE_DIMTALN
 70
     0
  0
APPID
  2
ACAD_NAV_VCDISPLAY
 70
     0
  0
ENDTAB
  0
TABLE
  2
DIMSTYLE
 70
     2
  0
DIMSTYLE
  2
ISO-25
 70
     0
  3

  4

  5

  6

  7

 40
1.0
 41
2.5
 42
0.625
 43
3.75
 44
1.25
 45
0.0
 46
0.0
 47
0.0
 48
0.0
140
2.5
141
2.5
142
0.0
143
0.03937007874016
144
1.0
145
0.0
146
1.0
147
0.625
 71
     0
 72
     0
 73
     0
 74
     0
 75
     0
 76
     0
 77
     1
 78
     8
170
     0
171
     3
172
     1
173
     0
174
     0
175
     0
176
     0
177
     0
178
     0
  0
DIMSTYLE
  2
STANDARD
 70
     0
  3

  4

  5

  6

  7

 40
1.0
 41
0.18
 42
0.0625
 43
0.38
 44
0.18
 45
0.0
 46
0.0
 47
0.0
 48
0.0
140
0.18
141
0.09
142
0.0
143
25.399999999999999
144
1.0
145
0.0
146
1.0
147
0.09
 71
     0
 72
     0
 73
     1
 74
     1
 75
     0
 76
     0
 77
     0
 78
     0
170
     0
171
     2
172
     0
173
     0
174
     0
175
     0
176
     0
177
     0
178
     0
  0
ENDTAB
  0
ENDSEC
  0
SECTION
  2
BLOCKS
  0
BLOCK
  8
0
  2
$MODEL_SPACE
 70
     0
 10
0.0
 20
0.0
 30
0.0
  3
$MODEL_SPACE
  1

  0
ENDBLK
  5
21
  8
0
  0
BLOCK
 67
     1
  8
0
  2
$PAPER_SPACE
 70
     0
 10
0.0
 20
0.0
 30
0.0
  3
$PAPER_SPACE
  1

  0
ENDBLK
  5
53
 67
     1
  8
0
  0
ENDSEC
  0
SECTION
  2
ENTITIES
  0
TEXT
  5
C317
  8
0
 62
     3
 10
0.0
 20
0.0
 30
0.0
 40
10.0
  1
ST-VTC210U
  7
STANDARD1
  0
ARC
  5
F328
  8
0
 10
276.69885563612451
 20
280.89863555018752
 30
0.0
 40
0.4255211179361663
 50
10.29189460947112
 51
84.771989740621507
  0
LINE
  5
F334
  8
0
 10
190.8130034803942
 20
206.31272941829431
 30
0.0
 11
190.8130034803942
 21
203.8127299398943
 31
0.0
  0
LINE
  5
F335
  8
0
 10
216.8130040167942
 20
203.8127299398943
 30
0.0
 11
216.8130040167942
 21
206.31272941829431
 31
0.0
  0
LINE
  5
F336
  8
0
 10
190.8130034803942
 20
228.8127284496943
 30
0.0
 11
190.8130034803942
 21
226.31273083389431
 31
0.0
  0
LINE
  5
F337
  8
0
 10
216.8130040167942
 20
226.31273083389431
 30
0.0
 11
216.8130040167942
 21
228.8127284496943
 31
0.0
  0
LINE
  5
F338
  8
0
 10
198.81300469814639
 20
249.31272777329431
 30
0.0
 11
198.81300479169431
 21
236.4127304404943
 31
0.0
  0
LINE
  5
F339
  8
0
 10
198.81300479169431
 20
196.21272981169429
 30
0.0
 11
198.81300479169431
 21
182.81272975729419
 31
0.0
  0
LINE
  5
F33A
  8
0
 10
208.81300270549411
 20
182.81272979611751
 30
0.0
 11
208.8130027054942
 21
196.21272981169849
 31
0.0
  0
LINE
  5
F33B
  8
0
 10
208.8130026119463
 20
249.31272777329431
 30
0.0
 11
207.81300058544639
 21
250.3127297998943
 31
0.0
  0
LINE
  5
F33C
  8
0
 10
199.8130067247464
 20
250.3127297998943
 30
0.0
 11
198.81300469814639
 21
249.31272777329431
 31
0.0
  0
ARC
  5
F33D
  8
0
 10
214.51382439999429
 20
177.68679922459421
 30
0.0
 40
0.5000000000000071
 50
345.46554491950133
 51
40.364536573097674
  0
ARC
  5
F33E
  8
0
 10
193.1121828967942
 20
177.68679922459421
 30
0.0
 40
0.5000000000000476
 50
139.63546342690231
 51
194.53445508049859
  0
LINE
  5
F33F
  8
0
 10
192.62818098069411
 20
177.56131794309431
 30
0.0
 11
195.96590697759419
 21
164.6872483193942
 31
0.0
  0
LINE
  5
F340
  8
0
 10
211.66010051959421
 20
164.6872483193942
 30
0.0
 11
214.99782651659419
 21
177.56131794309431
 31
0.0
  0
LINE
  5
F341
  8
0
 10
214.8947924374942
 20
178.01062334329421
 30
0.0
 11
211.4120036362942
 21
182.10802666149419
 31
0.0
  0
LINE
  5
F342
  8
0
 10
196.21400386089431
 20
182.10802666149419
 30
0.0
 11
192.73121505969419
 21
178.01062334329421
 31
0.0
  0
ARC
  5
F343
  8
0
 10
211.17610269719421
 20
164.81272979989421
 30
0.0
 40
0.5000000000000201
 50
270.0
 51
345.46554491950133
  0
ARC
  5
F344
  8
0
 10
196.4499045994942
 20
164.81272979989421
 30
0.0
 40
0.5
 50
194.53445508049859
 51
270.0
  0
ARC
  5
F345
  8
0
 10
209.88812269869419
 20
180.81272979989421
 30
0.0
 40
2.0000000000008109
 50
40.364536574000951
 51
90.0
  0
ARC
  5
F346
  8
0
 10
197.73788459809421
 20
180.81272979989421
 30
0.0
 40
2.0000000000008331
 50
90.0
 51
139.63546342599901
  0
LINE
  5
F347
  8
0
 10
164.31300938129419
 20
226.31273083389431
 30
0.0
 11
164.31300938129419
 21
206.31272941829431
 31
0.0
  0
POLYLINE
  5
F348
  8
0
 66
     1
 10
0.0
 20
0.0
 30
0.0
 70
   128
  0
VERTEX
  5
10543
  8
0
 10
273.96359145639428
 20
354.12317179149431
 30
0.0
  0
VERTEX
  5
10544
  8
0
 10
274.00965467089429
 20
353.67083214229427
 30
0.0
  0
VERTEX
  5
10545
  8
0
 10
273.90587925909432
 20
353.2647904008943
 30
0.0
  0
VERTEX
  5
10546
  8
0
 10
273.65085706109431
 20
352.94347666209433
 30
0.0
  0
VERTEX
  5
10547
  8
0
 10
273.30180481069419
 20
352.76628695429429
 30
0.0
  0
VERTEX
  5
10548
  8
0
 10
272.85899072879431
 20
352.72599421449428
 30
0.0
  0
VERTEX
  5
10549
  8
0
 10
272.39980027079417
 20
352.84982286399429
 30
0.0
  0
VERTEX
  5
1054A
  8
0
 10
271.99003323909432
 20
353.10454331339429
 30
0.0
  0
VERTEX
  5
1054B
  8
0
 10
271.63162678479421
 20
353.4908559173943
 30
0.0
  0
VERTEX
  5
1054C
  8
0
 10
271.4076213537943
 20
353.93343530599429
 30
0.0
  0
VERTEX
  5
1054D
  8
0
 10
271.36400565499417
 20
354.08156774939431
 30
0.0
  0
VERTEX
  5
1054E
  8
0
 10
271.32022604339431
 20
354.54603694379432
 30
0.0
  0
VERTEX
  5
1054F
  8
0
 10
271.43116891379429
 20
354.9593504518943
 30
0.0
  0
VERTEX
  5
10550
  8
0
 10
271.66824638839421
 20
355.26287220419431
 30
0.0
  0
VERTEX
  5
10551
  8
0
 10
272.03573882579428
 20
355.45074604459433
 30
0.0
  0
VERTEX
  5
10552
  8
0
 10
272.44781553739432
 20
355.47166727489429
 30
0.0
  0
VERTEX
  5
10553
  8
0
 10
272.88213595749431
 20
355.35166822379432
 30
0.0
  0
VERTEX
  5
10554
  8
0
 10
273.32343757149431
 20
355.08103333419427
 30
0.0
  0
VERTEX
  5
10555
  8
0
 10
273.67252707479429
 20
354.71176765859428
 30
0.0
  0
VERTEX
  5
10556
  8
0
 10
273.92065376039432
 20
354.25740145149427
 30
0.0
  0
VERTEX
  5
10557
  8
0
 10
273.96359145639428
 20
354.12317179149431
 30
0.0
  0
SEQEND
  5
10558
  8
0
  0
POLYLINE
  5
F349
  8
0
 66
     1
 10
0.0
 20
0.0
 30
0.0
 70
   128
  0
VERTEX
  5
10559
  8
0
 10
278.3145647495943
 20
340.61103723949429
 30
0.0
  0
VERTEX
  5
1055A
  8
0
 10
278.22061479089427
 20
340.02597294749432
 30
0.0
  0
VERTEX
  5
1055B
  8
0
 10
278.03002707659419
 20
339.59617875519427
 30
0.0
  0
VERTEX
  5
1055C
  8
0
 10
277.74716205889422
 20
339.28328417249418
 30
0.0
  0
VERTEX
  5
1055D
  8
0
 10
277.42636427279422
 20
339.12996612489428
 30
0.0
  0
VERTEX
  5
1055E
  8
0
 10
277.04798653719422
 20
339.12671767179421
 30
0.0
  0
VERTEX
  5
1055F
  8
0
 10
276.69451981779417
 20
339.29496668279432
 30
0.0
  0
VERTEX
  5
10560
  8
0
 10
276.40123888849428
 20
339.60154317319427
 30
0.0
  0
VERTEX
  5
10561
  8
0
 10
276.18802562349418
 20
340.04477821299417
 30
0.0
  0
VERTEX
  5
10562
  8
0
 10
276.11219733949429
 20
340.53176306189431
 30
0.0
  0
VERTEX
  5
10563
  8
0
 10
276.11237987869418
 20
340.62486551709429
 30
0.0
  0
VERTEX
  5
10564
  8
0
 10
276.21916905039433
 20
341.20851419869427
 30
0.0
  0
VERTEX
  5
10565
  8
0
 10
276.44995078439422
 20
341.64069257679432
 30
0.0
  0
VERTEX
  5
10566
  8
0
 10
276.76365375519418
 20
341.95308052009432
 30
0.0
  0
VERTEX
  5
10567
  8
0
 10
277.1422661840943
 20
342.11891554299427
 30
0.0
  0
VERTEX
  5
10568
  8
0
 10
277.4820853023943
 20
342.10665188729428
 30
0.0
  0
VERTEX
  5
10569
  8
0
 10
277.80411057169431
 20
341.94692634049431
 30
0.0
  0
VERTEX
  5
1056A
  8
0
 10
278.08040790259429
 20
341.62319861359418
 30
0.0
  0
VERTEX
  5
1056B
  8
0
 10
278.2508958130943
 20
341.19407497349431
 30
0.0
  0
VERTEX
  5
1056C
  8
0
 10
278.31535264849441
 20
340.68077467389418
 30
0.0
  0
VERTEX
  5
1056D
  8
0
 10
278.3145647495943
 20
340.61103723949429
 30
0.0
  0
SEQEND
  5
1056E
  8
0
  0
CIRCLE
  5
F34A
  8
0
 10
269.12194127739428
 20
349.54269584999429
 30
0.0
 40
1.4970091310918181
  0
POLYLINE
  5
F34B
  8
0
 66
     1
 10
0.0
 20
0.0
 30
0.0
 70
   128
  0
VERTEX
  5
1056F
  8
0
 10
278.2142110168943
 20
349.67194162309431
 30
0.0
  0
VERTEX
  5
10570
  8
0
 10
278.22249419979431
 20
349.18149970479431
 30
0.0
  0
VERTEX
  5
10571
  8
0
 10
278.11015620819421
 20
348.75167571009428
 30
0.0
  0
VERTEX
  5
10572
  8
0
 10
277.87797190249421
 20
348.42483364049423
 30
0.0
  0
VERTEX
  5
10573
  8
0
 10
277.57419496769421
 20
348.2569273561943
 30
0.0
  0
VERTEX
  5
10574
  8
0
 10
277.19592340289432
 20
348.24132584039432
 30
0.0
  0
VERTEX
  5
10575
  8
0
 10
276.81515961879433
 20
348.40204976499427
 30
0.0
  0
VERTEX
  5
10576
  8
0
 10
276.48397758599441
 20
348.70054982609429
 30
0.0
  0
VERTEX
  5
10577
  8
0
 10
276.21048912399431
 20
349.13500808179418
 30
0.0
  0
VERTEX
  5
10578
  8
0
 10
276.05929449199431
 20
349.61470626299428
 30
0.0
  0
VERTEX
  5
10579
  8
0
 10
276.03584378959431
 20
349.76613186299431
 30
0.0
  0
VERTEX
  5
1057A
  8
0
 10
276.03559046979422
 20
350.25861524049418
 30
0.0
  0
VERTEX
  5
1057B
  8
0
 10
276.16098374129427
 20
350.6905850022942
 30
0.0
  0
VERTEX
  5
1057C
  8
0
 10
276.38165131209428
 20
351.00224278869428
 30
0.0
  0
VERTEX
  5
1057D
  8
0
 10
276.70184373849429
 20
351.1922027915943
 30
0.0
  0
VERTEX
  5
1057E
  8
0
 10
277.05812305209429
 20
351.20379589499419
 30
0.0
  0
VERTEX
  5
1057F
  8
0
 10
277.42253094909432
 20
351.05102919049432
 30
0.0
  0
VERTEX
  5
10580
  8
0
 10
277.76327952739427
 20
350.73619745679429
 30
0.0
  0
VERTEX
  5
10581
  8
0
 10
278.0130378901942
 20
350.33246539539431
 30
0.0
  0
VERTEX
  5
10582
  8
0
 10
278.18328551949418
 20
349.84124861659433
 30
0.0
  0
VERTEX
  5
10583
  8
0
 10
278.2142110168943
 20
349.67194162309431
 30
0.0
  0
SEQEND
  5
10584
  8
0
  0
POLYLINE
  5
F34C
  8
0
 66
     1
 10
0.0
 20
0.0
 30
0.0
 70
   128
  0
VERTEX
  5
10585
  8
0
 10
274.55503344529433
 20
327.0393278449942
 30
0.0
  0
VERTEX
  5
10586
  8
0
 10
274.46896061299418
 20
326.5427615493943
 30
0.0
  0
VERTEX
  5
10587
  8
0
 10
274.25025999539429
 20
326.10082291069432
 30
0.0
  0
VERTEX
  5
10588
  8
0
 10
273.90637099739428
 20
325.75702331959428
 30
0.0
  0
VERTEX
  5
10589
  8
0
 10
273.50869253279433
 20
325.57451389729431
 30
0.0
  0
VERTEX
  5
1058A
  8
0
 10
273.04785922169441
 20
325.54433904589428
 30
0.0
  0
VERTEX
  5
1058B
  8
0
 10
272.61691763989433
 20
325.6906237453943
 30
0.0
  0
VERTEX
  5
1058C
  8
0
 10
272.26467654109427
 20
325.97517631949432
 30
0.0
  0
VERTEX
  5
1058D
  8
0
 10
271.99952155349428
 20
326.39719210569427
 30
0.0
  0
VERTEX
  5
1058E
  8
0
 10
271.88931256529429
 20
326.87349282209431
 30
0.0
  0
VERTEX
  5
1058F
  8
0
 10
271.88528925179418
 20
327.03217528769432
 30
0.0
  0
VERTEX
  5
10590
  8
0
 10
271.97278887029432
 20
327.53185592599431
 30
0.0
  0
VERTEX
  5
10591
  8
0
 10
272.21154645079417
 20
327.97455452389431
 30
0.0
  0
VERTEX
  5
10592
  8
0
 10
272.5551299750943
 20
328.30182872719428
 30
0.0
  0
VERTEX
  5
10593
  8
0
 10
272.9999221860943
 20
328.50214503709429
 30
0.0
  0
VERTEX
  5
10594
  8
0
 10
273.43806475399418
 20
328.52200828499429
 30
0.0
  0
VERTEX
  5
10595
  8
0
 10
273.85304346679419
 20
328.38558815419429
 30
0.0
  0
VERTEX
  5
10596
  8
0
 10
274.2126345633942
 20
328.08652184909431
 30
0.0
  0
VERTEX
  5
10597
  8
0
 10
274.44086074829431
 20
327.69116424029431
 30
0.0
  0
VERTEX
  5
10598
  8
0
 10
274.55118149519421
 20
327.20304690309428
 30
0.0
  0
VERTEX
  5
10599
  8
0
 10
274.55503344529433
 20
327.0393278449942
 30
0.0
  0
SEQEND
  5
1059A
  8
0
  0
POLYLINE
  5
F34D
  8
0
 66
     1
 10
0.0
 20
0.0
 30
0.0
 70
   128
  0
VERTEX
  5
1059B
  8
0
 10
274.9220304190942
 20
345.1796438544942
 30
0.0
  0
VERTEX
  5
1059C
  8
0
 10
274.83713850379422
 20
344.67337690299428
 30
0.0
  0
VERTEX
  5
1059D
  8
0
 10
274.61337894199431
 20
344.22339163729418
 30
0.0
  0
VERTEX
  5
1059E
  8
0
 10
274.25904050469421
 20
343.8731994479943
 30
0.0
  0
VERTEX
  5
1059F
  8
0
 10
273.8417595624943
 20
343.68370138109429
 30
0.0
  0
VERTEX
  5
105A0
  8
0
 10
273.36146906019428
 20
343.6544802039943
 30
0.0
  0
VERTEX
  5
105A1
  8
0
 10
272.92133346199421
 20
343.80466900769432
 30
0.0
  0
VERTEX
  5
105A2
  8
0
 10
272.5603975354943
 20
344.09388564529428
 30
0.0
  0
VERTEX
  5
105A3
  8
0
 10
272.28930443519431
 20
344.52238343659428
 30
0.0
  0
VERTEX
  5
105A4
  8
0
 10
272.17789962889418
 20
345.00124715269419
 30
0.0
  0
VERTEX
  5
105A5
  8
0
 10
272.17360064379432
 20
345.15718780459429
 30
0.0
  0
VERTEX
  5
105A6
  8
0
 10
272.26182296869422
 20
345.66554091879431
 30
0.0
  0
VERTEX
  5
105A7
  8
0
 10
272.5052222608943
 20
346.11588381239432
 30
0.0
  0
VERTEX
  5
105A8
  8
0
 10
272.85657301539419
 20
346.44949100919428
 30
0.0
  0
VERTEX
  5
105A9
  8
0
 10
273.31164330239432
 20
346.65456078949433
 30
0.0
  0
VERTEX
  5
105AA
  8
0
 10
273.76716062419428
 20
346.67832814159419
 30
0.0
  0
VERTEX
  5
105AB
  8
0
 10
274.20540004969428
 20
346.5373929589943
 30
0.0
  0
VERTEX
  5
105AC
  8
0
 10
274.5726391672942
 20
346.23171053829429
 30
0.0
  0
VERTEX
  5
105AD
  8
0
 10
274.80076849459419
 20
345.83913944669428
 30
0.0
  0
VERTEX
  5
105AE
  8
0
 10
274.9162264167943
 20
345.3507538884943
 30
0.0
  0
VERTEX
  5
105AF
  8
0
 10
274.9220304190942
 20
345.1796438544942
 30
0.0
  0
SEQEND
  5
105B0
  8
0
  0
POLYLINE
  5
F34E
  8
0
 66
     1
 10
0.0
 20
0.0
 30
0.0
 70
   128
  0
VERTEX
  5
105B1
  8
0
 10
270.69763690229422
 20
340.57774804539429
 30
0.0
  0
VERTEX
  5
105B2
  8
0
 10
270.61083018779431
 20
340.07849954069428
 30
0.0
  0
VERTEX
  5
105B3
  8
0
 10
270.37321627139431
 20
339.63441513479432
 30
0.0
  0
VERTEX
  5
105B4
  8
0
 10
269.99224573369429
 20
339.28280733529431
 30
0.0
  0
VERTEX
  5
105B5
  8
0
 10
269.5387437938943
 20
339.08874951309429
 30
0.0
  0
VERTEX
  5
105B6
  8
0
 10
269.0235212444943
 20
339.05742727219427
 30
0.0
  0
VERTEX
  5
105B7
  8
0
 10
268.55677217239429
 20
339.20573852959433
 30
0.0
  0
VERTEX
  5
105B8
  8
0
 10
268.17831248039431
 20
339.48987387129432
 30
0.0
  0
VERTEX
  5
105B9
  8
0
 10
267.89193078869431
 20
339.9122025817943
 30
0.0
  0
VERTEX
  5
105BA
  8
0
 10
267.77195781469419
 20
340.38413725799433
 30
0.0
  0
VERTEX
  5
105BB
  8
0
 10
267.7660383283943
 20
340.52963219589418
 30
0.0
  0
VERTEX
  5
105BC
  8
0
 10
267.85071790219422
 20
341.03241227569418
 30
0.0
  0
VERTEX
  5
105BD
  8
0
 10
268.09846460819432
 20
341.47867225119433
 30
0.0
  0
VERTEX
  5
105BE
  8
0
 10
268.46103593699422
 20
341.80865846579428
 30
0.0
  0
VERTEX
  5
105BF
  8
0
 10
268.9406447111943
 20
342.01611243189433
 30
0.0
  0
VERTEX
  5
105C0
  8
0
 10
269.43414136759429
 20
342.04408191149429
 30
0.0
  0
VERTEX
  5
105C1
  8
0
 10
269.9103415011943
 20
341.9058885425942
 30
0.0
  0
VERTEX
  5
105C2
  8
0
 10
270.3105866908943
 20
341.60400591799419
 30
0.0
  0
VERTEX
  5
105C3
  8
0
 10
270.56020721789417
 20
341.21891520919428
 30
0.0
  0
VERTEX
  5
105C4
  8
0
 10
270.68982124329432
 20
340.73930643499432
 30
0.0
  0
VERTEX
  5
105C5
  8
0
 10
270.69763690229422
 20
340.57774804539429
 30
0.0
  0
SEQEND
  5
105C6
  8
0
  0
POLYLINE
  5
F34F
  8
0
 66
     1
 10
0.0
 20
0.0
 30
0.0
 70
   128
  0
VERTEX
  5
105C7
  8
0
 10
270.21554708479431
 20
313.5325726121942
 30
0.0
  0
VERTEX
  5
105C8
  8
0
 10
270.1250076293943
 20
313.03764544429418
 30
0.0
  0
VERTEX
  5
105C9
  8
0
 10
269.88774761549428
 20
312.59902976459432
 30
0.0
  0
VERTEX
  5
105CA
  8
0
 10
269.51259225599432
 20
312.25821040579427
 30
0.0
  0
VERTEX
  5
105CB
  8
0
 10
269.07694563269428
 20
312.07802556459433
 30
0.0
  0
VERTEX
  5
105CC
  8
0
 10
268.57624053949428
 20
312.05238066619432
 30
0.0
  0
VERTEX
  5
105CD
  8
0
 10
268.1114062666943
 20
312.20319531859428
 30
0.0
  0
VERTEX
  5
105CE
  8
0
 10
267.7323877810943
 20
312.49229274689429
 30
0.0
  0
VERTEX
  5
105CF
  8
0
 10
267.44909808039421
 20
312.91742287579427
 30
0.0
  0
VERTEX
  5
105D0
  8
0
 10
267.3317849635942
 20
313.39278481909429
 30
0.0
  0
VERTEX
  5
105D1
  8
0
 10
267.32702776789421
 20
313.54722045369431
 30
0.0
  0
VERTEX
  5
105D2
  8
0
 10
267.41660982369422
 20
314.04454670849429
 30
0.0
  0
VERTEX
  5
105D3
  8
0
 10
267.66639053819432
 20
314.48393724859432
 30
0.0
  0
VERTEX
  5
105D4
  8
0
 10
268.02662983529422
 20
314.80598114439431
 30
0.0
  0
VERTEX
  5
105D5
  8
0
 10
268.50068047639422
 20
315.0048222392943
 30
0.0
  0
VERTEX
  5
105D6
  8
0
 10
268.9778417348943
 20
315.02376161519419
 30
0.0
  0
VERTEX
  5
105D7
  8
0
 10
269.43390667439428
 20
314.88355658949428
 30
0.0
  0
VERTEX
  5
105D8
  8
0
 10
269.82999071479418
 20
314.58036266269431
 30
0.0
  0
VERTEX
  5
105D9
  8
0
 10
270.08330672979417
 20
314.18408118189433
 30
0.0
  0
VERTEX
  5
105DA
  8
0
 10
270.20955681799433
 20
313.69717083879419
 30
0.0
  0
VERTEX
  5
105DB
  8
0
 10
270.21554708479431
 20
313.5325726121942
 30
0.0
  0
SEQEND
  5
105DC
  8
0
  0
POLYLINE
  5
F350
  8
0
 66
     1
 10
0.0
 20
0.0
 30
0.0
 70
   128
  0
VERTEX
  5
105DD
  8
0
 10
274.32741448279421
 20
318.04446540779429
 30
0.0
  0
VERTEX
  5
105DE
  8
0
 10
274.24363642929433
 20
317.54964254799432
 30
0.0
  0
VERTEX
  5
105DF
  8
0
 10
274.0309372543943
 20
317.10879169409418
 30
0.0
  0
VERTEX
  5
105E0
  8
0
 10
273.69495332239433
 20
316.76341257989429
 30
0.0
  0
VERTEX
  5
105E1
  8
0
 10
273.30448329449428
 20
316.57841466369428
 30
0.0
  0
VERTEX
  5
105E2
  8
0
 10
272.85088449709428
 20
316.54566191139429
 30
0.0
  0
VERTEX
  5
105E3
  8
0
 10
272.42489382619419
 20
316.69009886689429
 30
0.0
  0
VERTEX
  5
105E4
  8
0
 10
272.07650467749431
 20
316.97357855739421
 30
0.0
  0
VERTEX
  5
105E5
  8
0
 10
271.8141399323942
 20
317.39459596579428
 30
0.0
  0
VERTEX
  5
105E6
  8
0
 10
271.70467972749429
 20
317.87044964739431
 30
0.0
  0
VERTEX
  5
105E7
  8
0
 10
271.70053347939432
 20
318.02968345589431
 30
0.0
  0
VERTEX
  5
105E8
  8
0
 10
271.78601771589427
 20
318.52741204209428
 30
0.0
  0
VERTEX
  5
105E9
  8
0
 10
272.02028259629418
 20
318.9689632505943
 30
0.0
  0
VERTEX
  5
105EA
  8
0
 10
272.35638573759428
 20
319.29523907609428
 30
0.0
  0
VERTEX
  5
105EB
  8
0
 10
272.79271408909432
 20
319.49811838569428
 30
0.0
  0
VERTEX
  5
105EC
  8
0
 10
273.22624847289421
 20
319.52209435409418
 30
0.0
  0
VERTEX
  5
105ED
  8
0
 10
273.6365184187942
 20
319.38843093819418
 30
0.0
  0
VERTEX
  5
105EE
  8
0
 10
273.99057745929429
 20
319.09125708049419
 30
0.0
  0
VERTEX
  5
105EF
  8
0
 10
274.21467229719428
 20
318.69759820409428
 30
0.0
  0
VERTEX
  5
105F0
  8
0
 10
274.32342097159432
 20
318.21089647709431
 30
0.0
  0
VERTEX
  5
105F1
  8
0
 10
274.32741448279421
 20
318.04446540779429
 30
0.0
  0
SEQEND
  5
105F2
  8
0
  0
CIRCLE
  5
F351
  8
0
 10
264.58585170409418
 20
327.06826198619427
 30
0.0
 40
1.495331856903781
  0
POLYLINE
  5
F352
  8
0
 66
     1
 10
0.0
 20
0.0
 30
0.0
 70
   128
  0
VERTEX
  5
105F3
  8
0
 10
270.38500308989433
 20
322.52980433409419
 30
0.0
  0
VERTEX
  5
105F4
  8
0
 10
270.29340565199419
 20
322.0330145209943
 30
0.0
  0
VERTEX
  5
105F5
  8
0
 10
270.05325108759428
 20
321.59307263799423
 30
0.0
  0
VERTEX
  5
105F6
  8
0
 10
269.67518627639419
 20
321.25319205229431
 30
0.0
  0
VERTEX
  5
105F7
  8
0
 10
269.23704743379432
 20
321.0740800946943
 30
0.0
  0
VERTEX
  5
105F8
  8
0
 10
268.7335930763943
 20
321.04973159739433
 30
0.0
  0
VERTEX
  5
105F9
  8
0
 10
268.26734691859428
 20
321.20191715659428
 30
0.0
  0
VERTEX
  5
105FA
  8
0
 10
267.8876504301943
 20
321.4923258870943
 30
0.0
  0
VERTEX
  5
105FB
  8
0
 10
267.60540008539431
 20
321.91820107409433
 30
0.0
  0
VERTEX
  5
105FC
  8
0
 10
267.4901545046942
 20
322.39153645939427
 30
0.0
  0
VERTEX
  5
105FD
  8
0
 10
267.48574003569428
 20
322.54215739669428
 30
0.0
  0
VERTEX
  5
105FE
  8
0
 10
267.57584735749418
 20
323.04006479689428
 30
0.0
  0
VERTEX
  5
105FF
  8
0
 10
267.82655194399422
 20
323.47973845899429
 30
0.0
  0
VERTEX
  5
10600
  8
0
 10
268.18850487469422
 20
323.80199097099432
 30
0.0
  0
VERTEX
  5
10601
  8
0
 10
268.66475343699432
 20
324.00063835089418
 30
0.0
  0
VERTEX
  5
10602
  8
0
 10
269.14637014269431
 20
324.01948831979428
 30
0.0
  0
VERTEX
  5
10603
  8
0
 10
269.60733383889419
 20
323.87752495709429
 30
0.0
  0
VERTEX
  5
10604
  8
0
 10
270.00336572529432
 20
323.57288561769428
 30
0.0
  0
VERTEX
  5
10605
  8
0
 10
270.25379836559432
 20
323.1791373342943
 30
0.0
  0
VERTEX
  5
10606
  8
0
 10
270.37905007599431
 20
322.69456647339427
 30
0.0
  0
VERTEX
  5
10607
  8
0
 10
270.38500308989433
 20
322.52980433409419
 30
0.0
  0
SEQEND
  5
10608
  8
0
  0
POLYLINE
  5
F353
  8
0
 66
     1
 10
0.0
 20
0.0
 30
0.0
 70
   128
  0
VERTEX
  5
10609
  8
0
 10
277.10828408599423
 20
304.67535220089428
 30
0.0
  0
VERTEX
  5
1060A
  8
0
 10
277.04581096769431
 20
304.18463461109428
 30
0.0
  0
VERTEX
  5
1060B
  8
0
 10
276.89999192949432
 20
303.7428896874942
 30
0.0
  0
VERTEX
  5
1060C
  8
0
 10
276.66763439769431
 20
303.38633470239432
 30
0.0
  0
VERTEX
  5
1060D
  8
0
 10
276.3888075946943
 20
303.18624190989431
 30
0.0
  0
VERTEX
  5
1060E
  8
0
 10
276.05798691509432
 20
303.13796959819427
 30
0.0
  0
VERTEX
  5
1060F
  8
0
 10
275.73728039859429
 20
303.2672520726943
 30
0.0
  0
VERTEX
  5
10610
  8
0
 10
275.46831071369422
 20
303.53774540129427
 30
0.0
  0
VERTEX
  5
10611
  8
0
 10
275.2614341675943
 20
303.94955389209429
 30
0.0
  0
VERTEX
  5
10612
  8
0
 10
275.17485469579429
 20
304.42133955659432
 30
0.0
  0
VERTEX
  5
10613
  8
0
 10
275.1721538602942
 20
304.5896928757943
 30
0.0
  0
VERTEX
  5
10614
  8
0
 10
275.24385079739432
 20
305.08561097089432
 30
0.0
  0
VERTEX
  5
10615
  8
0
 10
275.4329614340943
 20
305.52916638559429
 30
0.0
  0
VERTEX
  5
10616
  8
0
 10
275.69657042619428
 20
305.85958473389428
 30
0.0
  0
VERTEX
  5
10617
  8
0
 10
276.03274807329421
 20
306.0756366699942
 30
0.0
  0
VERTEX
  5
10618
  8
0
 10
276.35976523159422
 20
306.11484907569428
 30
0.0
  0
VERTEX
  5
10619
  8
0
 10
276.6542494296944
 20
305.9954162687942
 30
0.0
  0
VERTEX
  5
1061A
  8
0
 10
276.89633741969431
 20
305.71303926409428
 30
0.0
  0
VERTEX
  5
1061B
  8
0
 10
277.04277858139432
 20
305.32926730819418
 30
0.0
  0
VERTEX
  5
1061C
  8
0
 10
277.10826918479432
 20
304.84739355749429
 30
0.0
  0
VERTEX
  5
1061D
  8
0
 10
277.10828408599423
 20
304.67535220089428
 30
0.0
  0
SEQEND
  5
1061E
  8
0
  0
POLYLINE
  5
F354
  8
0
 66
     1
 10
0.0
 20
0.0
 30
0.0
 70
   128
  0
VERTEX
  5
1061F
  8
0
 10
278.06390486649428
 20
331.59583471719429
 30
0.0
  0
VERTEX
  5
10620
  8
0
 10
277.99316346639421
 20
331.09981976449433
 30
0.0
  0
VERTEX
  5
10621
  8
0
 10
277.8242420404942
 20
330.65499030059419
 30
0.0
  0
VERTEX
  5
10622
  8
0
 10
277.5582469999942
 20
330.30590079729433
 30
0.0
  0
VERTEX
  5
10623
  8
0
 10
277.24958434699431
 20
330.11886142199432
 30
0.0
  0
VERTEX
  5
10624
  8
0
 10
276.88239365809432
 20
330.07868789139428
 30
0.0
  0
VERTEX
  5
10625
  8
0
 10
276.52776092289417
 20
330.21495901049423
 30
0.0
  0
VERTEX
  5
10626
  8
0
 10
276.2343980371943
 20
330.49103282399432
 30
0.0
  0
VERTEX
  5
10627
  8
0
 10
276.0096549987943
 20
330.9064324945943
 30
0.0
  0
VERTEX
  5
10628
  8
0
 10
275.91356113549432
 20
331.3885297626943
 30
0.0
  0
VERTEX
  5
10629
  8
0
 10
275.91075226659427
 20
331.56123422089428
 30
0.0
  0
VERTEX
  5
1062A
  8
0
 10
275.98986625669431
 20
332.05982707449419
 30
0.0
  0
VERTEX
  5
1062B
  8
0
 10
276.19735002519428
 20
332.5040157884942
 30
0.0
  0
VERTEX
  5
1062C
  8
0
 10
276.4881312846943
 20
332.83345066019427
 30
0.0
  0
VERTEX
  5
1062D
  8
0
 10
276.85776203869432
 20
333.0406066030942
 30
0.0
  0
VERTEX
  5
1062E
  8
0
 10
277.2099211811942
 20
333.06799493729432
 30
0.0
  0
VERTEX
  5
1062F
  8
0
 10
277.53379605709432
 20
332.94279538099431
 30
0.0
  0
VERTEX
  5
10630
  8
0
 10
277.81079187989428
 20
332.6552625745943
 30
0.0
  0
VERTEX
  5
10631
  8
0
 10
277.98460461199431
 20
332.26017318669432
 30
0.0
  0
VERTEX
  5
10632
  8
0
 10
278.0631411819943
 20
331.77025280899431
 30
0.0
  0
VERTEX
  5
10633
  8
0
 10
278.06390486649428
 20
331.59583471719429
 30
0.0
  0
SEQEND
  5
10634
  8
0
  0
POLYLINE
  5
F355
  8
0
 66
     1
 10
0.0
 20
0.0
 30
0.0
 70
   128
  0
VERTEX
  5
10635
  8
0
 10
277.73942649359418
 20
322.61728905149431
 30
0.0
  0
VERTEX
  5
10636
  8
0
 10
277.66903899609429
 20
322.11918793619429
 30
0.0
  0
VERTEX
  5
10637
  8
0
 10
277.50426568089432
 20
321.67167626329427
 30
0.0
  0
VERTEX
  5
10638
  8
0
 10
277.24776826799427
 20
321.32231853909428
 30
0.0
  0
VERTEX
  5
10639
  8
0
 10
276.94898322219427
 20
321.1332824081943
 30
0.0
  0
VERTEX
  5
1063A
  8
0
 10
276.5945926307943
 20
321.09065018599421
 30
0.0
  0
VERTEX
  5
1063B
  8
0
 10
276.24860629439422
 20
321.22434340419431
 30
0.0
  0
VERTEX
  5
1063C
  8
0
 10
275.96083134409417
 20
321.5006109327943
 30
0.0
  0
VERTEX
  5
1063D
  8
0
 10
275.74318498369428
 20
321.91720269629428
 30
0.0
  0
VERTEX
  5
1063E
  8
0
 10
275.65428838129418
 20
322.39217720929429
 30
0.0
  0
VERTEX
  5
1063F
  8
0
 10
275.65236613149432
 20
322.55608998239433
 30
0.0
  0
VERTEX
  5
10640
  8
0
 10
275.72988942259428
 20
323.05100224919431
 30
0.0
  0
VERTEX
  5
10641
  8
0
 10
275.93172565099428
 20
323.49289618439428
 30
0.0
  0
VERTEX
  5
10642
  8
0
 10
276.2127131222943
 20
323.8207217305943
 30
0.0
  0
VERTEX
  5
10643
  8
0
 10
276.57183110709423
 20
324.0337040275943
 30
0.0
  0
VERTEX
  5
10644
  8
0
 10
276.92223563789429
 20
324.07067380849429
 30
0.0
  0
VERTEX
  5
10645
  8
0
 10
277.2414911537943
 20
323.94988499589419
 30
0.0
  0
VERTEX
  5
10646
  8
0
 10
277.5065399705943
 20
323.6656304448943
 30
0.0
  0
VERTEX
  5
10647
  8
0
 10
277.66704037779419
 20
323.28073345129428
 30
0.0
  0
VERTEX
  5
10648
  8
0
 10
277.73926630609418
 20
322.80006669469429
 30
0.0
  0
VERTEX
  5
10649
  8
0
 10
277.73942649359418
 20
322.61728905149431
 30
0.0
  0
SEQEND
  5
1064A
  8
0
  0
POLYLINE
  5
F356
  8
0
 66
     1
 10
0.0
 20
0.0
 30
0.0
 70
   128
  0
VERTEX
  5
1064B
  8
0
 10
277.41224355989419
 20
313.64513598389431
 30
0.0
  0
VERTEX
  5
1064C
  8
0
 10
277.3451957850944
 20
313.1463792175943
 30
0.0
  0
VERTEX
  5
1064D
  8
0
 10
277.18773707739427
 20
312.69824169579431
 30
0.0
  0
VERTEX
  5
1064E
  8
0
 10
276.94178596139432
 20
312.34763227409428
 30
0.0
  0
VERTEX
  5
1064F
  8
0
 10
276.6536794602942
 20
312.15683780619429
 30
0.0
  0
VERTEX
  5
10650
  8
0
 10
276.31033807989439
 20
312.11380325259432
 30
0.0
  0
VERTEX
  5
10651
  8
0
 10
275.97738280889428
 20
312.24731765689432
 30
0.0
  0
VERTEX
  5
10652
  8
0
 10
275.69895833729419
 20
312.52292953439428
 30
0.0
  0
VERTEX
  5
10653
  8
0
 10
275.4879169165942
 20
312.9391785711943
 30
0.0
  0
VERTEX
  5
10654
  8
0
 10
275.40233954779421
 20
313.41129206129432
 30
0.0
  0
VERTEX
  5
10655
  8
0
 10
275.40040612219423
 20
313.57186697429432
 30
0.0
  0
VERTEX
  5
10656
  8
0
 10
275.47531425949433
 20
314.06752429909432
 30
0.0
  0
VERTEX
  5
10657
  8
0
 10
275.6711229681942
 20
314.5102079957943
 30
0.0
  0
VERTEX
  5
10658
  8
0
 10
275.94275996089431
 20
314.83789943159428
 30
0.0
  0
VERTEX
  5
10659
  8
0
 10
276.2912869452943
 20
315.05287848419431
 30
0.0
  0
VERTEX
  5
1065A
  8
0
 10
276.63216590879421
 20
315.09150229399432
 30
0.0
  0
VERTEX
  5
1065B
  8
0
 10
276.94124579429422
 20
314.97019194069418
 30
0.0
  0
VERTEX
  5
1065C
  8
0
 10
277.19353549179431
 20
314.68560956419429
 30
0.0
  0
VERTEX
  5
1065D
  8
0
 10
277.34399810429431
 20
314.30466137829433
 30
0.0
  0
VERTEX
  5
1065E
  8
0
 10
277.41205729539428
 20
313.8271685689943
 30
0.0
  0
VERTEX
  5
1065F
  8
0
 10
277.41224355989419
 20
313.64513598389431
 30
0.0
  0
SEQEND
  5
10660
  8
0
  0
CIRCLE
  5
F357
  8
0
 10
264.42406034059422
 20
318.07927297739428
 30
0.0
 40
1.49561837244702
  0
POLYLINE
  5
F358
  8
0
 66
     1
 10
0.0
 20
0.0
 30
0.0
 70
   128
  0
VERTEX
  5
10661
  8
0
 10
274.1101406513942
 20
309.05727706849427
 30
0.0
  0
VERTEX
  5
10662
  8
0
 10
274.02872815729432
 20
308.56108330189431
 30
0.0
  0
VERTEX
  5
10663
  8
0
 10
273.82028326389423
 20
308.11866782609428
 30
0.0
  0
VERTEX
  5
10664
  8
0
 10
273.49062487479432
 20
307.77276717129428
 30
0.0
  0
VERTEX
  5
10665
  8
0
 10
273.1074415146943
 20
307.58748613299417
 30
0.0
  0
VERTEX
  5
10666
  8
0
 10
272.66056314109431
 20
307.55352638669427
 30
0.0
  0
VERTEX
  5
10667
  8
0
 10
272.23863303659419
 20
307.6968606561943
 30
0.0
  0
VERTEX
  5
10668
  8
0
 10
271.89222946759418
 20
307.98048935839432
 30
0.0
  0
VERTEX
  5
10669
  8
0
 10
271.63213342429418
 20
308.40153656899429
 30
0.0
  0
VERTEX
  5
1066A
  8
0
 10
271.52404785149429
 20
308.87585543099431
 30
0.0
  0
VERTEX
  5
1066B
  8
0
 10
271.5198345481943
 20
309.03328619899429
 30
0.0
  0
VERTEX
  5
1066C
  8
0
 10
271.60361632699431
 20
309.53080616899427
 30
0.0
  0
VERTEX
  5
1066D
  8
0
 10
271.83461412779423
 20
309.9725510925943
 30
0.0
  0
VERTEX
  5
1066E
  8
0
 10
272.16447740789431
 20
310.29797755189429
 30
0.0
  0
VERTEX
  5
1066F
  8
0
 10
272.59538546199428
 20
310.50358377399431
 30
0.0
  0
VERTEX
  5
10670
  8
0
 10
273.0258241295943
 20
310.53051017229433
 30
0.0
  0
VERTEX
  5
10671
  8
0
 10
273.43208938829429
 20
310.39809845389431
 30
0.0
  0
VERTEX
  5
10672
  8
0
 10
273.77999052399417
 20
310.10184846819419
 30
0.0
  0
VERTEX
  5
10673
  8
0
 10
273.99884015319418
 20
309.71048437059432
 30
0.0
  0
VERTEX
  5
10674
  8
0
 10
274.10577461119419
 20
309.22652445739431
 30
0.0
  0
VERTEX
  5
10675
  8
0
 10
274.1101406513942
 20
309.05727706849427
 30
0.0
  0
SEQEND
  5
10676
  8
0
  0
POLYLINE
  5
F359
  8
0
 66
     1
 10
0.0
 20
0.0
 30
0.0
 70
   128
  0
VERTEX
  5
10677
  8
0
 10
270.04738748069428
 20
304.53773997729428
 30
0.0
  0
VERTEX
  5
10678
  8
0
 10
269.9572950600944
 20
304.04221676289433
 30
0.0
  0
VERTEX
  5
10679
  8
0
 10
269.72090303899421
 20
303.60301248729428
 30
0.0
  0
VERTEX
  5
1067A
  8
0
 10
269.34750601649432
 20
303.26299779119421
 30
0.0
  0
VERTEX
  5
1067B
  8
0
 10
268.91557723279419
 20
303.08422110979433
 30
0.0
  0
VERTEX
  5
1067C
  8
0
 10
268.41684654349427
 20
303.0579429119943
 30
0.0
  0
VERTEX
  5
1067D
  8
0
 10
267.94917359949432
 20
303.20839993659428
 30
0.0
  0
VERTEX
  5
1067E
  8
0
 10
267.56770759819432
 20
303.4983094781943
 30
0.0
  0
VERTEX
  5
1067F
  8
0
 10
267.28338599199429
 20
303.92523519699432
 30
0.0
  0
VERTEX
  5
10680
  8
0
 10
267.16682910919428
 20
304.39965091649429
 30
0.0
  0
VERTEX
  5
10681
  8
0
 10
267.1621575950943
 20
304.55321483319432
 30
0.0
  0
VERTEX
  5
10682
  8
0
 10
267.25116968149428
 20
305.04870079459431
 30
0.0
  0
VERTEX
  5
10683
  8
0
 10
267.49968752259429
 20
305.48659376799418
 30
0.0
  0
VERTEX
  5
10684
  8
0
 10
267.85698756569423
 20
305.80698363489432
 30
0.0
  0
VERTEX
  5
10685
  8
0
 10
268.32936555139429
 20
306.0076128691943
 30
0.0
  0
VERTEX
  5
10686
  8
0
 10
268.8091009854943
 20
306.02927915759432
 30
0.0
  0
VERTEX
  5
10687
  8
0
 10
269.26646605129429
 20
305.89033327999431
 30
0.0
  0
VERTEX
  5
10688
  8
0
 10
269.66215148569432
 20
305.58795891709428
 30
0.0
  0
VERTEX
  5
10689
  8
0
 10
269.91453245279422
 20
305.19287697979428
 30
0.0
  0
VERTEX
  5
1068A
  8
0
 10
270.04105448719429
 20
304.70676384869432
 30
0.0
  0
VERTEX
  5
1068B
  8
0
 10
270.04738748069428
 20
304.53773997729428
 30
0.0
  0
SEQEND
  5
1068C
  8
0
  0
POLYLINE
  5
F35A
  8
0
 66
     1
 10
0.0
 20
0.0
 30
0.0
 70
   128
  0
VERTEX
  5
1068D
  8
0
 10
273.91230911009421
 20
300.07819496099432
 30
0.0
  0
VERTEX
  5
1068E
  8
0
 10
273.83389919989429
 20
299.58799891179427
 30
0.0
  0
VERTEX
  5
1068F
  8
0
 10
273.63296076649431
 20
299.15052317089419
 30
0.0
  0
VERTEX
  5
10690
  8
0
 10
273.31146821379429
 20
298.80212657159427
 30
0.0
  0
VERTEX
  5
10691
  8
0
 10
272.9314550756942
 20
298.6114513128943
 30
0.0
  0
VERTEX
  5
10692
  8
0
 10
272.49054089189428
 20
298.57392273849428
 30
0.0
  0
VERTEX
  5
10693
  8
0
 10
272.07099869839431
 20
298.71388934559428
 30
0.0
  0
VERTEX
  5
10694
  8
0
 10
271.72451689839431
 20
298.99557344619433
 30
0.0
  0
VERTEX
  5
10695
  8
0
 10
271.46362736819418
 20
299.41635988659419
 30
0.0
  0
VERTEX
  5
10696
  8
0
 10
271.35531827799417
 20
299.88800399009432
 30
0.0
  0
VERTEX
  5
10697
  8
0
 10
271.35066911579429
 20
300.04726015039432
 30
0.0
  0
VERTEX
  5
10698
  8
0
 10
271.43210396169428
 20
300.54192654789432
 30
0.0
  0
VERTEX
  5
10699
  8
0
 10
271.65862768889428
 20
300.9816523641943
 30
0.0
  0
VERTEX
  5
1069A
  8
0
 10
271.98170348999429
 20
301.30574516959427
 30
0.0
  0
VERTEX
  5
1069B
  8
0
 10
272.40647599099429
 20
301.51426456869427
 30
0.0
  0
VERTEX
  5
1069C
  8
0
 10
272.83422499889417
 20
301.54482685029438
 30
0.0
  0
VERTEX
  5
1069D
  8
0
 10
273.23579639189433
 20
301.4151643961942
 30
0.0
  0
VERTEX
  5
1069E
  8
0
 10
273.58076572419429
 20
301.12132094809419
 30
0.0
  0
VERTEX
  5
1069F
  8
0
 10
273.80030080669428
 20
300.72906278079432
 30
0.0
  0
VERTEX
  5
106A0
  8
0
 10
273.90792444349432
 20
300.2424802631943
 30
0.0
  0
VERTEX
  5
106A1
  8
0
 10
273.91230911009421
 20
300.07819496099432
 30
0.0
  0
SEQEND
  5
106A2
  8
0
  0
CIRCLE
  5
F35B
  8
0
 10
264.73744186089431
 20
336.03567161879431
 30
0.0
 40
1.4906983519775581
  0
POLYLINE
  5
F35C
  8
0
 66
     1
 10
0.0
 20
0.0
 30
0.0
 70
   128
  0
VERTEX
  5
106A3
  8
0
 10
270.55380344389431
 20
331.53916560119433
 30
0.0
  0
VERTEX
  5
106A4
  8
0
 10
270.46203464269428
 20
331.03829286999428
 30
0.0
  0
VERTEX
  5
106A5
  8
0
 10
270.21886631839419
 20
330.59474490589429
 30
0.0
  0
VERTEX
  5
106A6
  8
0
 10
269.83729973429422
 20
330.25423847139427
 30
0.0
  0
VERTEX
  5
106A7
  8
0
 10
269.3941615521943
 20
330.0742622464943
 30
0.0
  0
VERTEX
  5
106A8
  8
0
 10
268.88773068779432
 20
330.0507482141943
 30
0.0
  0
VERTEX
  5
106A9
  8
0
 10
268.42060536139422
 20
330.20385764539429
 30
0.0
  0
VERTEX
  5
106AA
  8
0
 10
268.0405214428942
 20
330.49492202699429
 30
0.0
  0
VERTEX
  5
106AB
  8
0
 10
267.7593961357943
 20
330.92105053369431
 30
0.0
  0
VERTEX
  5
106AC
  8
0
 10
267.6467061042942
 20
331.39079473919429
 30
0.0
  0
VERTEX
  5
106AD
  8
0
 10
267.64261201019428
 20
331.53688572349432
 30
0.0
  0
VERTEX
  5
106AE
  8
0
 10
267.73376986379418
 20
332.03869722789432
 30
0.0
  0
VERTEX
  5
106AF
  8
0
 10
267.98657923929431
 20
332.48184286059433
 30
0.0
  0
VERTEX
  5
106B0
  8
0
 10
268.35480183359431
 20
332.80880413949433
 30
0.0
  0
VERTEX
  5
106B1
  8
0
 10
268.83389279239429
 20
333.00637863579431
 30
0.0
  0
VERTEX
  5
106B2
  8
0
 10
269.31786015629427
 20
333.02397690719431
 30
0.0
  0
VERTEX
  5
106B3
  8
0
 10
269.7835773228943
 20
332.87951014939421
 30
0.0
  0
VERTEX
  5
106B4
  8
0
 10
270.17833515999428
 20
332.57285915319432
 30
0.0
  0
VERTEX
  5
106B5
  8
0
 10
270.42430862779429
 20
332.18219541019431
 30
0.0
  0
VERTEX
  5
106B6
  8
0
 10
270.54789885879433
 20
331.69975541539429
 30
0.0
  0
VERTEX
  5
106B7
  8
0
 10
270.55380344389431
 20
331.53916560119433
 30
0.0
  0
SEQEND
  5
106B8
  8
0
  0
POLYLINE
  5
F35D
  8
0
 66
     1
 10
0.0
 20
0.0
 30
0.0
 70
   128
  0
VERTEX
  5
106B9
  8
0
 10
274.75899308919429
 20
336.06904409829428
 30
0.0
  0
VERTEX
  5
106BA
  8
0
 10
274.67223852869432
 20
335.56435666979428
 30
0.0
  0
VERTEX
  5
106BB
  8
0
 10
274.4469031690943
 20
335.11604033419428
 30
0.0
  0
VERTEX
  5
106BC
  8
0
 10
274.09549653529427
 20
334.77468453349428
 30
0.0
  0
VERTEX
  5
106BD
  8
0
 10
273.69106411929431
 20
334.59597490729419
 30
0.0
  0
VERTEX
  5
106BE
  8
0
 10
273.22226986289428
 20
334.57058332869428
 30
0.0
  0
VERTEX
  5
106BF
  8
0
 10
272.78918251389427
 20
334.72089134159432
 30
0.0
  0
VERTEX
  5
106C0
  8
0
 10
272.43495956059428
 20
335.00811122359431
 30
0.0
  0
VERTEX
  5
106C1
  8
0
 10
272.1684820949942
 20
335.43303273619432
 30
0.0
  0
VERTEX
  5
106C2
  8
0
 10
272.05900698899433
 20
335.9106000512943
 30
0.0
  0
VERTEX
  5
106C3
  8
0
 10
272.05534875389418
 20
336.0648419707943
 30
0.0
  0
VERTEX
  5
106C4
  8
0
 10
272.14489355679427
 20
336.56902275979428
 30
0.0
  0
VERTEX
  5
106C5
  8
0
 10
272.38818481559429
 20
337.01510392129433
 30
0.0
  0
VERTEX
  5
106C6
  8
0
 10
272.73950949309432
 20
337.3453732579942
 30
0.0
  0
VERTEX
  5
106C7
  8
0
 10
273.19146916269432
 20
337.54367791119432
 30
0.0
  0
VERTEX
  5
106C8
  8
0
 10
273.63359034059431
 20
337.56015859549427
 30
0.0
  0
VERTEX
  5
106C9
  8
0
 10
274.05480518929431
 20
337.41959594189427
 30
0.0
  0
VERTEX
  5
106CA
  8
0
 10
274.41581189629431
 20
337.11719177669431
 30
0.0
  0
VERTEX
  5
106CB
  8
0
 10
274.64260384439422
 20
336.72371171419428
 30
0.0
  0
VERTEX
  5
106CC
  8
0
 10
274.75430667399428
 20
336.23696528379429
 30
0.0
  0
VERTEX
  5
106CD
  8
0
 10
274.75899308919429
 20
336.06904409829428
 30
0.0
  0
SEQEND
  5
106CE
  8
0
  0
CIRCLE
  5
F35E
  8
0
 10
264.77771039469428
 20
344.95616668599428
 30
0.0
 40
1.49074730842315
  0
LINE
  5
F35F
  8
0
 10
249.64359253639429
 20
309.9872287362943
 30
0.0
 11
249.83434230089421
 21
306.53518848129431
 31
0.0
  0
LINE
  5
F361
  8
0
 10
247.03218266369419
 20
325.46431981029428
 30
0.0
 11
248.21992814539431
 21
320.88714502759427
 31
0.0
  0
ARC
  5
F368
  8
0
 10
263.2251815802943
 20
264.21658773269428
 30
0.0
 40
15.352312412282339
 50
45.128764822502667
 51
134.80829835589759
  0
LINE
  5
F370
  8
0
 10
263.1054244934943
 20
327.12883912029429
 30
0.0
 11
263.1521843373942
 21
327.39935480059432
 31
0.0
  0
POLYLINE
  5
F378
  8
0
 66
     1
 10
0.0
 20
0.0
 30
0.0
 70
   128
  0
VERTEX
  5
106CF
  8
0
 10
250.14622732989281
 20
306.24820701781363
 30
0.0
  0
VERTEX
  5
106D0
  8
0
 10
250.5027972161943
 20
306.21537975969431
 30
0.0
  0
VERTEX
  5
106D1
  8
0
 10
251.53911337249431
 20
306.1132919043942
 30
0.0
  0
VERTEX
  5
106D2
  8
0
 10
253.14216911789421
 20
305.92745207249419
 30
0.0
  0
VERTEX
  5
106D3
  8
0
 10
255.18857538699419
 20
305.62985353179431
 30
0.0
  0
VERTEX
  5
106D4
  8
0
 10
257.50918909899428
 20
305.17673902219428
 30
0.0
  0
VERTEX
  5
106D5
  8
0
 10
259.9560081958943
 20
304.48104105889428
 30
0.0
  0
VERTEX
  5
106D6
  8
0
 10
261.16391122339428
 20
303.98590527479428
 30
0.0
  0
VERTEX
  5
106D7
  8
0
 10
262.29223459959428
 20
303.34189198919432
 30
0.0
  0
VERTEX
  5
106D8
  8
0
 10
263.20370137689429
 20
302.48077623549432
 30
0.0
  0
VERTEX
  5
106D9
  8
0
 10
263.48143666979422
 20
301.95027999579429
 30
0.0
  0
VERTEX
  5
106DA
  8
0
 10
263.5789200662943
 20
301.3797368854942
 30
0.0
  0
VERTEX
  5
106DB
  8
0
 10
263.47901150579418
 20
300.79808495939432
 30
0.0
  0
VERTEX
  5
106DC
  8
0
 10
263.2135100661942
 20
300.25171898309429
 30
0.0
  0
VERTEX
  5
106DD
  8
0
 10
262.36335784189419
 20
299.32309351869429
 30
0.0
  0
VERTEX
  5
106DE
  8
0
 10
261.29392758009431
 20
298.56953434649432
 30
0.0
  0
VERTEX
  5
106DF
  8
0
 10
260.1432040332943
 20
297.9453917592943
 30
0.0
  0
VERTEX
  5
106E0
  8
0
 10
257.78777748339428
 20
296.98087684809428
 30
0.0
  0
VERTEX
  5
106E1
  8
0
 10
255.49290925259419
 20
296.26547209919431
 30
0.0
  0
VERTEX
  5
106E2
  8
0
 10
253.43071147799421
 20
295.74992172419428
 30
0.0
  0
VERTEX
  5
106E3
  8
0
 10
251.7636775969942
 20
295.39600424469432
 30
0.0
  0
VERTEX
  5
106E4
  8
0
 10
250.66987648599431
 20
295.1961126178943
 30
0.0
  0
VERTEX
  5
106E5
  8
0
 10
250.28546378009341
 20
295.13219408692498
 30
0.0
  0
SEQEND
  5
106E6
  8
0
  0
ARC
  5
F379
  8
0
 10
250.13459553781021
 20
306.54853141156059
 30
0.0
 40
0.3005495634111197
 50
182.5444886080455
 51
272.21800048793239
  0
ARC
  5
F37A
  8
0
 10
250.2837173300571
 20
294.83157683014957
 30
0.0
 40
0.3006223297742576
 50
89.667141229496337
 51
179.39482973405819
  0
POLYLINE
  5
F37B
  8
0
 66
     1
 10
0.0
 20
0.0
 30
0.0
 70
   128
  0
VERTEX
  5
106E7
  8
0
 10
252.4058394133942
 20
275.10857246819432
 30
0.0
  0
VERTEX
  5
106E8
  8
0
 10
252.32895314689421
 20
274.98935572809432
 30
0.0
  0
VERTEX
  5
106E9
  8
0
 10
252.3213572799942
 20
274.9390196055943
 30
0.0
  0
VERTEX
  5
106EA
  8
0
 10
252.33590453859421
 20
274.88900385799428
 30
0.0
  0
VERTEX
  5
106EB
  8
0
 10
252.3644775151943
 20
274.85731653869431
 30
0.0
  0
VERTEX
  5
106EC
  8
0
 10
252.4061337112943
 20
274.83401857319433
 30
0.0
  0
VERTEX
  5
106ED
  8
0
 10
252.4742469190943
 20
274.81683753439432
 30
0.0
  0
VERTEX
  5
106EE
  8
0
 10
252.5382511316943
 20
274.8127322643943
 30
0.0
  0
SEQEND
  5
106EF
  8
0
  0
POLYLINE
  5
F37C
  8
0
 66
     1
 10
0.0
 20
0.0
 30
0.0
 70
   128
  0
VERTEX
  5
106F0
  8
0
 10
274.05648156999428
 20
275.09668134159432
 30
0.0
  0
VERTEX
  5
106F1
  8
0
 10
274.11905527109428
 20
274.99922774739429
 30
0.0
  0
VERTEX
  5
106F2
  8
0
 10
274.13019016379428
 20
274.94576983159419
 30
0.0
  0
VERTEX
  5
106F3
  8
0
 10
274.11729320879431
 20
274.89197663969429
 30
0.0
  0
VERTEX
  5
106F4
  8
0
 10
274.08989742399422
 20
274.8596262186943
 30
0.0
  0
VERTEX
  5
106F5
  8
0
 10
274.04893785709419
 20
274.83548633759432
 30
0.0
  0
VERTEX
  5
106F6
  8
0
 10
273.98302257059419
 20
274.81767944999427
 30
0.0
  0
VERTEX
  5
106F7
  8
0
 10
273.91325533389431
 20
274.8127322643943
 30
0.0
  0
SEQEND
  5
106F8
  8
0
  0
LINE
  5
F37D
  8
0
 10
250.01766499222589
 20
274.8127322643943
 30
0.0
 11
276.43621386881568
 21
274.8127298088944
 31
0.0
  0
POLYLINE
  5
F37F
  8
0
 66
     1
 10
0.0
 20
0.0
 30
0.0
 70
   128
  0
VERTEX
  5
106F9
  8
0
 10
248.48591157201989
 20
320.650286177233
 30
0.0
  0
VERTEX
  5
106FA
  8
0
 10
249.49980378149431
 20
320.55574320259427
 30
0.0
  0
VERTEX
  5
106FB
  8
0
 10
250.6125591694942
 20
320.39628587669432
 30
0.0
  0
VERTEX
  5
106FC
  8
0
 10
252.0791091024943
 20
320.13864479959432
 30
0.0
  0
VERTEX
  5
106FD
  8
0
 10
253.78154069179419
 20
319.73354183139418
 30
0.0
  0
VERTEX
  5
106FE
  8
0
 10
255.61923012129429
 20
319.11711059519428
 30
0.0
  0
VERTEX
  5
106FF
  8
0
 10
257.40225091569431
 20
318.13431940979427
 30
0.0
  0
VERTEX
  5
10700
  8
0
 10
258.1311710178943
 20
317.42523275319428
 30
0.0
  0
VERTEX
  5
10701
  8
0
 10
258.39221701019432
 20
316.99981950229432
 30
0.0
  0
VERTEX
  5
10702
  8
0
 10
258.5506722330943
 20
316.53943322599429
 30
0.0
  0
VERTEX
  5
10703
  8
0
 10
258.58186408869432
 20
316.05849824849429
 30
0.0
  0
VERTEX
  5
10704
  8
0
 10
258.49319472909428
 20
315.57513438169428
 30
0.0
  0
VERTEX
  5
10705
  8
0
 10
258.03389996289428
 20
314.68976698819432
 30
0.0
  0
VERTEX
  5
10706
  8
0
 10
257.34592080109428
 20
313.94056640569431
 30
0.0
  0
VERTEX
  5
10707
  8
0
 10
256.55196830629433
 20
313.30537460749429
 30
0.0
  0
VERTEX
  5
10708
  8
0
 10
254.8907160758942
 20
312.29474805299418
 30
0.0
  0
VERTEX
  5
10709
  8
0
 10
253.29941362139419
 20
311.55012212699432
 30
0.0
  0
VERTEX
  5
1070A
  8
0
 10
251.90995857119421
 20
310.99566482009431
 30
0.0
  0
VERTEX
  5
1070B
  8
0
 10
250.83134546869431
 20
310.60710214079432
 30
0.0
  0
VERTEX
  5
1070C
  8
0
 10
249.92146193976109
 20
310.30715666710961
 30
0.0
  0
VERTEX
  5
1070D
  8
0
 10
249.92146193976109
 20
310.30715666710961
 30
0.0
  0
SEQEND
  5
1070E
  8
0
  0
ARC
  5
F380
  8
0
 10
248.51380127369811
 20
320.94937927605059
 30
0.0
 40
0.3003906077426834
 50
191.95701190577299
 51
264.67271316625539
  0
ARC
  5
F381
  8
0
 10
249.94329201294059
 20
310.00756246698052
 30
0.0
 40
0.3003884765532487
 50
94.167518860794175
 51
183.88140227138911
  0
LINE
  5
F385
  8
0
 10
277.6152197270942
 20
293.26761923729418
 30
0.0
 11
277.33369943315739
 21
293.28589886057938
 31
0.0
  0
POLYLINE
  5
F386
  8
0
 66
     1
 10
0.0
 20
0.0
 30
0.0
 70
   128
  0
VERTEX
  5
1070F
  8
0
 10
261.8059054016943
 20
291.8379273265943
 30
0.0
  0
VERTEX
  5
10710
  8
0
 10
260.96443682909421
 20
291.59706495709429
 30
0.0
  0
VERTEX
  5
10711
  8
0
 10
259.4815440475943
 20
290.84665738049432
 30
0.0
  0
VERTEX
  5
10712
  8
0
 10
258.8374711572942
 20
290.2870517224942
 30
0.0
  0
VERTEX
  5
10713
  8
0
 10
258.47617015239427
 20
289.72685001799431
 30
0.0
  0
VERTEX
  5
10714
  8
0
 10
258.34490582339419
 20
289.19805251069431
 30
0.0
  0
VERTEX
  5
10715
  8
0
 10
258.38443860409433
 20
288.65136615939429
 30
0.0
  0
VERTEX
  5
10716
  8
0
 10
258.66427123539432
 20
287.97278217979419
 30
0.0
  0
VERTEX
  5
10717
  8
0
 10
259.47025641799428
 20
287.01106123629421
 30
0.0
  0
VERTEX
  5
10718
  8
0
 10
260.57214885949429
 20
286.16714142269433
 30
0.0
  0
VERTEX
  5
10719
  8
0
 10
261.80986911059421
 20
285.45262329279433
 30
0.0
  0
VERTEX
  5
1071A
  8
0
 10
264.09026458859421
 20
284.43406186999431
 30
0.0
  0
VERTEX
  5
1071B
  8
0
 10
265.28842225669428
 20
284.01612155139429
 30
0.0
  0
SEQEND
  5
1071C
  8
0
  0
ARC
  5
F388
  8
0
 10
295.30996515333487
 20
385.93875716679122
 30
0.0
 40
106.2521373370145
 50
253.5875433590389
 51
259.93327472501238
  0
ARC
  5
F389
  8
0
 10
275.55834106206419
 20
228.34186978411751
 30
0.0
 40
64.968290804284919
 50
88.434109862269793
 51
102.2207756806948
  0
ARC
  5
F38B
  8
0
 10
277.63497377823131
 20
293.56663222321271
 30
0.0
 40
0.2996647931163209
 50
266.22029309354679
 51
356.34805910770427
  0
POLYLINE
  5
F38E
  8
0
 66
     1
 10
0.0
 20
0.0
 30
0.0
 70
   128
  0
VERTEX
  5
1071D
  8
0
 10
243.67708429809429
 20
334.67143722056778
 30
0.0
  0
VERTEX
  5
1071E
  8
0
 10
243.96338909859421
 20
334.6604969352943
 30
0.0
  0
VERTEX
  5
1071F
  8
0
 10
244.52850073569419
 20
334.61230657999431
 30
0.0
  0
VERTEX
  5
10720
  8
0
 10
245.47347277399419
 20
334.48257707059429
 30
0.0
  0
VERTEX
  5
10721
  8
0
 10
246.73435315489431
 20
334.27580855789432
 30
0.0
  0
VERTEX
  5
10722
  8
0
 10
248.22416752569421
 20
333.98337326949428
 30
0.0
  0
VERTEX
  5
10723
  8
0
 10
249.83532577749421
 20
333.54648612439428
 30
0.0
  0
VERTEX
  5
10724
  8
0
 10
251.49109438059429
 20
332.86547325559428
 30
0.0
  0
VERTEX
  5
10725
  8
0
 10
252.2664874791943
 20
332.38856159159428
 30
0.0
  0
VERTEX
  5
10726
  8
0
 10
252.90604159229429
 20
331.7694183438943
 30
0.0
  0
VERTEX
  5
10727
  8
0
 10
253.12241017819429
 20
331.39626346529428
 30
0.0
  0
VERTEX
  5
10728
  8
0
 10
253.2479263841943
 20
330.98807595669427
 30
0.0
  0
VERTEX
  5
10729
  8
0
 10
253.27316522599429
 20
330.57047091429428
 30
0.0
  0
VERTEX
  5
1072A
  8
0
 10
253.19196134799421
 20
330.16371391719429
 30
0.0
  0
VERTEX
  5
1072B
  8
0
 10
252.79648452989429
 20
329.41074334089433
 30
0.0
  0
VERTEX
  5
1072C
  8
0
 10
252.2359475492942
 20
328.78440283239428
 30
0.0
  0
VERTEX
  5
1072D
  8
0
 10
250.94761550419429
 20
327.81645320359428
 30
0.0
  0
VERTEX
  5
1072E
  8
0
 10
249.7145146130942
 20
327.06734202809429
 30
0.0
  0
VERTEX
  5
1072F
  8
0
 10
248.6633345483942
 20
326.52616165579428
 30
0.0
  0
VERTEX
  5
10730
  8
0
 10
247.8620059787942
 20
326.15363262599431
 30
0.0
  0
VERTEX
  5
10731
  8
0
 10
247.27872237559421
 20
325.87153874339418
 30
0.0
  0
SEQEND
  5
10732
  8
0
  0
ARC
  5
F38F
  8
0
 10
243.6771999224641
 20
334.97195062029027
 30
0.0
 40
0.3005134219659611
 50
198.96254330844491
 51
269.97795509923662
  0
ARC
  5
F390
  8
0
 10
244.47845259411309
 20
350.17088083144557
 30
0.0
 40
0.3001688730899854
 50
157.30903864963111
 51
247.8641779121823
  0
ARC
  5
F392
  8
0
 10
242.62688194219069
 20
341.01291140692763
 30
0.0
 40
0.4121004008396041
 50
108.09559256905899
 51
174.37716644234561
  0
POLYLINE
  5
F393
  8
0
 66
     1
 10
0.0
 20
0.0
 30
0.0
 70
   128
  0
VERTEX
  5
10733
  8
0
 10
245.47568559639419
 20
349.44189749659432
 30
0.0
  0
VERTEX
  5
10734
  8
0
 10
246.4854528327896
 20
349.09132309917578
 30
0.0
  0
VERTEX
  5
10735
  8
0
 10
247.60128408669419
 20
348.55726025999428
 30
0.0
  0
VERTEX
  5
10736
  8
0
 10
248.81827309719421
 20
347.7966751903943
 30
0.0
  0
VERTEX
  5
10737
  8
0
 10
249.40660074349429
 20
347.3087664693943
 30
0.0
  0
VERTEX
  5
10738
  8
0
 10
249.87046271559419
 20
346.70607410379432
 30
0.0
  0
VERTEX
  5
10739
  8
0
 10
250.01176297659421
 20
346.34807370609428
 30
0.0
  0
VERTEX
  5
1073A
  8
0
 10
250.0743702053943
 20
345.9670361131943
 30
0.0
  0
VERTEX
  5
1073B
  8
0
 10
250.0455178319942
 20
345.58847211309433
 30
0.0
  0
VERTEX
  5
1073C
  8
0
 10
249.9226167797942
 20
345.21935544909428
 30
0.0
  0
VERTEX
  5
1073D
  8
0
 10
249.46728572249421
 20
344.5667888969943
 30
0.0
  0
VERTEX
  5
1073E
  8
0
 10
248.5138684510942
 20
343.8310142606943
 30
0.0
  0
VERTEX
  5
1073F
  8
0
 10
247.48721569769421
 20
343.24520491069433
 30
0.0
  0
VERTEX
  5
10740
  8
0
 10
246.1326181887942
 20
342.68256686629428
 30
0.0
  0
VERTEX
  5
10741
  8
0
 10
244.89763975139431
 20
342.2442194074942
 30
0.0
  0
VERTEX
  5
10742
  8
0
 10
243.87065172189429
 20
341.89463816589432
 30
0.0
  0
VERTEX
  5
10743
  8
0
 10
243.11632513999419
 20
341.64486490189421
 30
0.0
  0
VERTEX
  5
10744
  8
0
 10
242.66289770599431
 20
341.47652648389419
 30
0.0
  0
VERTEX
  5
10745
  8
0
 10
242.49888219319789
 20
341.4046291683706
 30
0.0
  0
SEQEND
  5
10746
  8
0
  0
LINE
  5
F395
  8
0
 10
244.36534792179421
 20
349.89283643669432
 30
0.0
 11
245.47568559639419
 21
349.44189749659432
 31
0.0
  0
LINE
  5
F399
  8
0
 10
275.64987193766609
 20
281.52133800966482
 30
0.0
 11
276.4150877932812
 21
293.3045113180691
 31
0.0
  0
ARC
  5
F39E
  8
0
 10
264.77892445959429
 20
341.05941532959429
 30
0.0
 40
21.044738959831669
 50
156.52697741650141
 51
177.8350290036995
  0
ARC
  5
F3A4
  8
0
 10
250.01764502647941
 20
275.11287502270329
 30
0.0
 40
0.3001427589731702
 50
179.97508036477171
 51
270.00381136302258
  0
ARC
  5
F3A5
  8
0
 10
276.43621416079429
 20
275.11272980889419
 30
0.0
 40
0.2999999999999829
 50
270.00000000480071
 51
356.2843439253005
  0
CIRCLE
  5
F3AC
  8
0
 10
263.24879612679428
 20
184.56272980389431
 30
0.0
 40
4.9999999999999778
  0
CIRCLE
  5
F3AD
  8
0
 10
263.24879612149419
 20
248.0627298077942
 30
0.0
 40
5.0000000000000133
  0
CIRCLE
  5
F3AE
  8
0
 10
294.99879612409421
 20
216.3127297998943
 30
0.0
 40
5.0
  0
ARC
  5
F3AF
  8
0
 10
203.8130037485943
 20
193.5205256135942
 30
0.0
 40
14.71381813096157
 50
63.435520115803499
 51
116.5644798841965
  0
ARC
  5
F3B1
  8
0
 10
203.8130037485943
 20
192.27052494299431
 30
0.0
 40
14.71381813096157
 50
63.435520115803499
 51
116.5644798841965
  0
ARC
  5
F3B3
  8
0
 10
213.9946715645942
 20
208.3631537430943
 30
0.0
 40
4.6442143843140187
 50
219.14978421220019
 51
258.46560760419999
  0
LINE
  5
F3B4
  8
0
 10
190.8130034803942
 20
203.81272993989421
 30
0.0
 11
216.81300401679411
 21
203.8127299398943
 31
0.0
  0
ARC
  5
F3B5
  8
0
 10
193.8950016442943
 20
207.92765790359419
 30
0.0
 40
4.168311608814351
 50
279.17965263069777
 51
323.20495555290131
  0
ARC
  5
F3B7
  8
0
 10
194.1943129096943
 20
218.8500923372942
 30
0.0
 40
12.5426941964042
 50
271.67060292340028
 51
284.02001038740087
  0
ARC
  5
F3B8
  8
0
 10
213.3969846749942
 20
218.5981854056943
 30
0.0
 40
12.289912861359619
 50
255.85247767100009
 51
268.45690901829897
  0
ARC
  5
F3BC
  8
0
 10
203.8130037485943
 20
239.1049346386942
 30
0.0
 40
14.71381813096157
 50
243.43552011579641
 51
296.56447988419649
  0
ARC
  5
F3BE
  8
0
 10
203.8130037485943
 20
240.3549334465942
 30
0.0
 40
14.71381813096157
 50
243.43552011579641
 51
296.56447988419649
  0
ARC
  5
F3C0
  8
0
 10
193.63132396169431
 20
224.26228487429429
 30
0.0
 40
4.6442361508985108
 50
39.149880138597489
 51
78.465511677799796
  0
LINE
  5
F3C1
  8
0
 10
216.81300401679411
 20
228.8127284496943
 30
0.0
 11
190.8130034803942
 21
228.8127284496943
 31
0.0
  0
ARC
  5
F3C2
  8
0
 10
213.73103840759421
 20
224.69774671569419
 30
0.0
 40
4.1683698840647887
 50
99.179976467098214
 51
143.2046317165003
  0
ARC
  5
F3C3
  8
0
 10
194.22899696159419
 20
214.0270871625942
 30
0.0
 40
12.29010117373045
 50
75.852574626598098
 51
88.456812062598559
  0
ARC
  5
F3C6
  8
0
 10
213.43174632419419
 20
213.7749924366943
 30
0.0
 40
12.54307102338116
 50
91.670789149300816
 51
104.01982416149799
  0
LINE
  5
F3F3
  8
0
 10
208.8130026119463
 20
249.31272777329431
 30
0.0
 11
198.81300469814639
 21
249.31272777329431
 31
0.0
  0
LINE
  5
F3F4
  8
0
 10
207.81300058544639
 20
250.3127297998943
 30
0.0
 11
199.8130067247464
 21
250.3127297998943
 31
0.0
  0
LINE
  5
F3F5
  8
0
 10
211.17610269719421
 20
164.31272979989421
 30
0.0
 11
196.44990460658391
 21
164.31272979989421
 31
0.0
  0
LINE
  5
F3F7
  8
0
 10
209.88812269869419
 20
182.8127297998951
 30
0.0
 11
197.73788459809421
 21
182.8127297998951
 31
0.0
  0
CIRCLE
  5
F3F8
  8
0
 10
292.19129612319421
 20
188.31221216989431
 30
0.0
 40
4.0000000000000506
  0
ARC
  5
F3F9
  8
0
 10
250.56977731349431
 20
255.66999209819431
 30
0.0
 40
6.6976198861090062
 50
242.322736829603
 51
269.05056600049937
  0
ARC
  5
F3FA
  8
0
 10
250.88726363639421
 20
204.98084152249419
 30
0.0
 40
23.108787056804061
 50
91.062396313699423
 51
98.532019778899766
  0
LINE
  5
F3FB
  8
0
 10
247.4587961211941
 20
251.4336417444101
 30
0.0
 11
247.4587954580943
 21
227.00472958389429
 31
0.0
  0
LINE
  5
F3FD
  8
0
 10
250.45879781239429
 20
248.97329173989431
 30
0.0
 11
250.45879781239429
 21
251.42952932512591
 31
0.0
  0
LINE
  5
F3FE
  8
0
 10
250.45879781239429
 20
227.83388607209429
 30
0.0
 11
250.45879781239429
 21
228.0856560915943
 31
0.0
  0
ARC
  5
F400
  8
0
 10
251.7487961212943
 20
249.7387298068943
 30
0.0
 40
1.5000000000000071
 50
210.6834171138
 51
270.00000000480071
  0
LINE
  5
F401
  8
0
 10
253.48841622469419
 20
248.23873154819429
 30
0.0
 11
251.74879506229419
 21
248.23873154819429
 31
0.0
  0
ARC
  5
F402
  8
0
 10
253.48841580079429
 20
250.23872980699429
 30
0.0
 40
2.0000000000000528
 50
270.00000000480071
 51
319.04198833019808
  0
ARC
  5
F403
  8
0
 10
253.2487961232942
 20
226.50472980699419
 30
0.0
 40
2.0000000000001701
 50
28.955024376701338
 51
90.000000004898325
  0
LINE
  5
F404
  8
0
 10
251.4987945555942
 20
228.50472889849431
 30
0.0
 11
253.24879437679431
 21
228.50472889849431
 31
0.0
  0
ARC
  5
F405
  8
0
 10
251.4987961231943
 20
227.0047298067943
 30
0.0
 40
1.500000000000199
 50
90.000000004800668
 51
133.8945537684985
  0
ARC
  5
F406
  8
0
 10
255.4587961211943
 20
251.43364174509429
 30
0.0
 40
5.0000000000000311
 50
95.278676108200173
 51
180.00000000489999
  0
ARC
  5
F409
  8
0
 10
255.4587961211943
 20
251.43364174509429
 30
0.0
 40
8.0000000000000924
 50
93.296325444000345
 51
180.00000000489999
  0
LINE
  5
F40A
  8
0
 10
247.4587954580943
 20
227.00472958389429
 30
0.0
 11
250.45879781239429
 21
227.00472958389429
 31
0.0
  0
LINE
  5
F40C
  8
0
 10
250.45879781239429
 20
227.83388607209429
 30
0.0
 11
250.45879781239429
 21
227.00472958389429
 31
0.0
  0
ARC
  5
F41F
  8
0
 10
263.24879612679428
 20
184.5627298077942
 30
0.0
 40
8.2500000000000568
 50
180.00000000489999
 51
0.000000004899988
  0
LINE
  5
F420
  8
0
 10
271.49879783389429
 20
274.81273026780781
 30
0.0
 11
271.49879783389429
 21
184.56272981129419
 31
0.0
  0
LINE
  5
F421
  8
0
 10
254.99879792329429
 20
184.56272981129419
 30
0.0
 11
254.9987979232944
 21
274.81273180141761
 31
0.0
  0
LINE
  5
F42A
  8
0
 10
164.31300938129419
 20
226.31273083389431
 30
0.0
 11
194.90292519329429
 21
226.31273083389431
 31
0.0
  0
LINE
  5
F42B
  8
0
 10
212.70704120389419
 20
226.31273083389431
 30
0.0
 11
254.9987979232944
 21
226.31273083389431
 31
0.0
  0
LINE
  5
F434
  8
0
 10
254.99879792329429
 20
206.31272941829431
 30
0.0
 11
213.0660325312181
 21
206.31272941829431
 31
0.0
  0
LINE
  5
F435
  8
0
 10
194.55997496924661
 20
206.31272941829431
 30
0.0
 11
164.31300938129419
 21
206.31272941829431
 31
0.0
  0
LINE
  5
F439
  8
0
 10
271.49879783389429
 20
227.91689299049429
 30
0.0
 11
295.41096687309431
 21
225.03424473109419
 31
0.0
  0
LINE
  5
F43A
  8
0
 10
255.3112976252942
 20
167.31300894179421
 30
0.0
 11
303.91004625709428
 21
167.31300894179421
 31
0.0
  0
LINE
  5
F43B
  8
0
 10
303.91004625709428
 20
164.31300938129419
 30
0.0
 11
255.3112976252942
 21
164.31300938129419
 31
0.0
  0
ARC
  5
F444
  8
0
 10
244.9925461279943
 20
174.93902250729431
 30
0.0
 40
10.318749995150091
 50
0.0
 51
27.79577249100058
  0
ARC
  5
F445
  8
0
 10
263.24879612619429
 20
184.56272980389431
 30
0.0
 40
10.31875000184907
 50
143.08385564369701
 51
207.7957724910006
  0
LINE
  5
F446
  8
0
 10
289.0470106153943
 20
222.7010767906942
 30
0.0
 11
271.49879783389429
 21
206.3520591705942
 31
0.0
  0
ARC
  5
F447
  8
0
 10
294.99879612459432
 20
216.3127297998943
 30
0.0
 40
8.7312499985322365
 50
0.0
 51
132.9738660211969
  0
LINE
  5
F448
  8
0
 10
303.73004628339419
 20
207.19590075319431
 30
0.0
 11
303.73004628339419
 21
216.3127291947942
 31
0.0
  0
ARC
  5
F449
  8
0
 10
305.9100461205943
 20
207.19590056739429
 30
0.0
 40
2.179999997486683
 50
180.0
 51
254.207778599699
  0
ARC
  5
F44A
  8
0
 10
305.9100461205943
 20
171.01590057039419
 30
0.0
 40
2.0
 50
107.2560896124028
 51
180.0
  0
LINE
  5
F44B
  8
0
 10
303.91004625709428
 20
164.31300938129419
 30
0.0
 11
303.91004625709428
 21
171.0159009322943
 31
0.0
  0
LINE
  5
F44C
  8
0
 10
255.3112976252942
 20
174.93902230639421
 30
0.0
 11
255.3112976252942
 21
164.31300938129419
 31
0.0
  0
ARC
  5
F44D
  8
0
 10
306.51535137819428
 20
213.75225452219431
 30
0.0
 40
8.736678702777942
 50
262.11468053789679
 51
269.5064286363006
  0
LINE
  5
F44E
  8
0
 10
308.41675996779418
 20
205.0158999860943
 30
0.0
 11
306.44009066739432
 21
205.0158999860943
 31
0.0
  0
LINE
  5
F44F
  8
0
 10
308.41675996779418
 20
173.0159003287942
 30
0.0
 11
308.41675996779418
 21
205.0158999860943
 31
0.0
  0
LINE
  5
F450
  8
0
 10
306.44009066739432
 20
173.0159003287942
 30
0.0
 11
308.41675996779418
 21
173.0159003287942
 31
0.0
  0
ARC
  5
F451
  8
0
 10
306.54911888549418
 20
164.60175702459429
 30
0.0
 40
8.4148496537520643
 50
90.742381835999296
 51
98.421283927001483
  0
LINE
  5
F46C
  8
0
 10
214.8947924374942
 20
178.01062334329421
 30
0.0
 11
192.73121505969419
 21
178.01062334329421
 31
0.0
  0
LINE
  5
F46E
  8
0
 10
214.99782651659419
 20
177.56131794309431
 30
0.0
 11
192.62818098069411
 21
177.56131794309431
 31
0.0
  0
LINE
  5
F47B
  8
0
 10
271.49879783389429
 20
240.2356531470943
 30
0.0
 11
254.99879792329429
 21
240.2356531470943
 31
0.0
  0
LINE
  5
F47C
  8
0
 10
271.49879783389429
 20
195.57622205469431
 30
0.0
 11
254.99879792329429
 21
195.57622205469431
 31
0.0
  0
LINE
  5
F47D
  8
0
 10
254.99879792329429
 20
260.77945195139432
 30
0.0
 11
271.49879783389429
 21
260.77945195139432
 31
0.0
  0
LINE
  5
F480
  8
0
 10
271.49879783389429
 20
271.09315656129428
 30
0.0
 11
254.99879792329429
 21
271.09315656129428
 31
0.0
  0
LINE
  5
F485
  8
0
 10
248.85280653829429
 20
226.31273083389431
 30
0.0
 11
248.85280653829429
 21
206.31272941829431
 31
0.0
  0
ARC
  5
F495
  8
0
 10
70.199203252799975
 20
188.5627298038942
 30
0.0
 40
1.0
 50
0.0
 51
90.0
  0
ARC
  5
F496
  8
0
 10
70.199203252799975
 20
180.5627298038942
 30
0.0
 40
1.0
 50
270.0
 51
0.0
  0
ARC
  5
F497
  8
0
 10
94.199203252799975
 20
180.5627298038942
 30
0.0
 40
1.0
 50
180.0
 51
270.0
  0
ARC
  5
F498
  8
0
 10
94.199203252799975
 20
188.5627298038942
 30
0.0
 40
1.0
 50
90.0
 51
180.0
  0
ARC
  5
F499
  8
0
 10
69.699203252799975
 20
188.5627298038942
 30
0.0
 40
1.0
 50
90.0
 51
180.0
  0
ARC
  5
F49A
  8
0
 10
69.699203252799975
 20
180.5627298038942
 30
0.0
 40
1.0
 50
180.0
 51
270.0
  0
ARC
  5
F49B
  8
0
 10
94.699203252799975
 20
180.5627298038942
 30
0.0
 40
1.0
 50
270.0
 51
0.0
  0
ARC
  5
F49C
  8
0
 10
94.699203252799975
 20
188.5627298038942
 30
0.0
 40
1.0
 50
0.0
 51
90.0
  0
LINE
  5
F49D
  8
0
 10
69.69920285040007
 20
179.56272969029419
 30
0.0
 11
70.199203863700063
 21
179.56272969029419
 31
0.0
  0
LINE
  5
F49E
  8
0
 10
70.199203863700063
 20
189.56272993239421
 30
0.0
 11
69.69920285040007
 21
189.56272993239421
 31
0.0
  0
LINE
  5
F49F
  8
0
 10
94.699203223000026
 20
189.56272993239421
 30
0.0
 11
94.199203140999998
 21
189.56272993239421
 31
0.0
  0
LINE
  5
F4A0
  8
0
 10
94.199203140999998
 20
179.56272969029419
 30
0.0
 11
94.699203223000026
 21
179.56272969029419
 31
0.0
  0
ARC
  5
F4A1
  8
0
 10
70.199203252799975
 20
252.0627298077942
 30
0.0
 40
1.0
 50
0.0
 51
90.0
  0
ARC
  5
F4A2
  8
0
 10
70.199203252799975
 20
244.0627298077942
 30
0.0
 40
1.0
 50
270.0
 51
0.0
  0
ARC
  5
F4A3
  8
0
 10
94.199203252799975
 20
244.0627298077942
 30
0.0
 40
1.0
 50
180.0
 51
270.0
  0
ARC
  5
F4A4
  8
0
 10
94.199203252799975
 20
252.0627298077942
 30
0.0
 40
1.0
 50
90.0
 51
180.0
  0
ARC
  5
F4A5
  8
0
 10
69.699203252799975
 20
252.0627298077942
 30
0.0
 40
1.0
 50
90.0
 51
180.0
  0
ARC
  5
F4A6
  8
0
 10
69.699203252799975
 20
244.0627298077942
 30
0.0
 40
1.0
 50
180.0
 51
270.0
  0
ARC
  5
F4A7
  8
0
 10
94.699203252799975
 20
244.0627298077942
 30
0.0
 40
1.0
 50
270.0
 51
0.0
  0
ARC
  5
F4A8
  8
0
 10
94.699203252799975
 20
252.0627298077942
 30
0.0
 40
1.0
 50
0.0
 51
90.0
  0
LINE
  5
F4A9
  8
0
 10
69.69920285040007
 20
243.06273125119429
 30
0.0
 11
70.199203863700063
 21
243.06273125119429
 31
0.0
  0
LINE
  5
F4AA
  8
0
 10
70.199203863700063
 20
253.06272916499421
 30
0.0
 11
69.69920285040007
 21
253.06272916499421
 31
0.0
  0
LINE
  5
F4AB
  8
0
 10
94.699203223000026
 20
253.06272916499421
 30
0.0
 11
94.199203140999998
 21
253.06272916499421
 31
0.0
  0
LINE
  5
F4AC
  8
0
 10
94.199203140999998
 20
243.06273125119429
 30
0.0
 11
94.699203223000026
 21
243.06273125119429
 31
0.0
  0
ARC
  5
F4AD
  8
0
 10
73.699203252799975
 20
220.3127297998943
 30
0.0
 40
1.0
 50
138.59037789060099
 51
180.0
  0
ARC
  5
F4AE
  8
0
 10
73.699203252799975
 20
212.3127297998943
 30
0.0
 40
1.0
 50
180.0
 51
221.40962210939901
  0
ARC
  5
F4AF
  8
0
 10
90.699203252799975
 20
212.3127297998943
 30
0.0
 40
1.0
 50
318.59037789089791
 51
0.0
  0
ARC
  5
F4B0
  8
0
 10
90.699203252799975
 20
220.3127297998943
 30
0.0
 40
1.0
 50
0.0
 51
41.409622109102152
  0
LINE
  5
F4B1
  8
0
 10
71.535797044600031
 20
208.2297340035943
 30
0.0
 11
69.370732828900032
 21
206.9797333329943
 31
0.0
  0
LINE
  5
F4B2
  8
0
 10
95.027673710099975
 20
206.9797333329943
 30
0.0
 11
92.862610192899979
 21
208.2297340035943
 31
0.0
  0
LINE
  5
F4B3
  8
0
 10
69.370732828900032
 20
225.64572505659419
 30
0.0
 11
71.535797044600031
 21
224.3957262486943
 31
0.0
  0
LINE
  5
F4B4
  8
0
 10
92.862610192899979
 20
224.3957262486943
 30
0.0
 11
95.027673710099975
 21
225.64572505659419
 31
0.0
  0
LINE
  5
F4BE
  8
0
 10
77.199203148500033
 20
196.2127298116942
 30
0.0
 11
77.199203148500033
 21
182.81272975729419
 31
0.0
  0
LINE
  5
F4BF
  8
0
 10
87.199203157800056
 20
182.81272975729419
 30
0.0
 11
87.199203157800056
 21
196.2127298116942
 31
0.0
  0
ARC
  5
F4C3
  8
0
 10
92.900024004300008
 20
177.68679922459421
 30
0.0
 40
0.5000000000000063
 50
345.46554491950133
 51
40.364536573097674
  0
ARC
  5
F4C4
  8
0
 10
71.498382501200012
 20
177.68679922459421
 30
0.0
 40
0.5000000000000071
 50
139.63546342690231
 51
194.53445508049859
  0
LINE
  5
F4C5
  8
0
 10
71.014384925300064
 20
177.5613179430942
 30
0.0
 11
74.352105334399994
 21
164.6872483193942
 31
0.0
  0
LINE
  5
F4C6
  8
0
 10
90.046300739000003
 20
164.6872483193942
 30
0.0
 11
93.384022544999993
 21
177.5613179430942
 31
0.0
  0
LINE
  5
F4C7
  8
0
 10
93.280993588199976
 20
178.01062334329421
 30
0.0
 11
89.798200945299982
 21
182.10802666149419
 31
0.0
  0
LINE
  5
F4C8
  8
0
 10
74.600205942999992
 20
182.10802666149419
 30
0.0
 11
71.117413416499971
 21
178.01062334329421
 31
0.0
  0
ARC
  5
F4C9
  8
0
 10
89.562302301599971
 20
164.81272979989421
 30
0.0
 40
0.5
 50
270.0
 51
345.46554491950133
  0
ARC
  5
F4CA
  8
0
 10
74.836104203900049
 20
164.81272979989421
 30
0.0
 40
0.5000000000000028
 50
194.53445508049859
 51
270.0
  0
ARC
  5
F4CB
  8
0
 10
88.274322303100007
 20
180.81272979989421
 30
0.0
 40
2.0000000000008229
 50
40.364536574000951
 51
90.0
  0
ARC
  5
F4CC
  8
0
 10
76.124084202400013
 20
180.81272979989421
 30
0.0
 40
2.000000000000818
 50
90.0
 51
139.63546342599901
  0
ARC
  5
F4CD
  8
0
 10
98.199203252799975
 20
191.3122121698942
 30
0.0
 40
1.0
 50
0.0
 51
90.0
  0
ARC
  5
F4CE
  8
0
 10
98.199203252799975
 20
185.3122121698942
 30
0.0
 40
1.0
 50
270.0
 51
0.0
  0
LINE
  5
F4CF
  8
0
 10
95.699203386899967
 20
184.31221218779419
 30
0.0
 11
98.199202865299995
 21
184.31221218779419
 31
0.0
  0
LINE
  5
F4D0
  8
0
 10
98.199202865299995
 20
192.3122121021942
 30
0.0
 11
93.199203442800012
 21
192.3122121021942
 31
0.0
  0
LINE
  5
F4D1
  8
0
 10
78.199203312400073
 20
256.0627277940942
 30
0.0
 11
75.199202820600021
 21
256.0627277940942
 31
0.0
  0
LINE
  5
F4D2
  8
0
 10
89.199203252799975
 20
256.0627277940942
 30
0.0
 11
86.199203226699964
 21
256.0627277940942
 31
0.0
  0
LINE
  5
F4D3
  8
0
 10
71.19920402759999
 20
176.3127296231942
 30
0.0
 11
71.338092163200031
 21
176.3127296231942
 31
0.0
  0
LINE
  5
F4D4
  8
0
 10
93.06031437590002
 20
176.3127296231942
 30
0.0
 11
93.199203442800012
 21
176.3127296231942
 31
0.0
  0
POLYLINE
  5
F4DB
  8
0
 66
     1
 10
0.0
 20
0.0
 30
0.0
 70
   128
  0
VERTEX
  5
10747
  8
0
 10
71.350464534099956
 20
284.28403697909431
 30
0.0
  0
VERTEX
  5
10748
  8
0
 10
71.49902538590004
 20
284.97961573309419
 30
0.0
  0
VERTEX
  5
10749
  8
0
 10
71.774324338899987
 20
285.84590218969419
 30
0.0
  0
VERTEX
  5
1074A
  8
0
 10
72.111539479399994
 20
286.9918312877943
 30
0.0
  0
VERTEX
  5
1074B
  8
0
 10
72.240177478700033
 20
287.73173354569423
 30
0.0
  0
VERTEX
  5
1074C
  8
0
 10
72.268214013500028
 20
288.14775906509419
 30
0.0
  0
VERTEX
  5
1074D
  8
0
 10
72.259519185899975
 20
288.57697956269419
 30
0.0
  0
VERTEX
  5
1074E
  8
0
 10
72.213096480900049
 20
288.99687938399433
 30
0.0
  0
VERTEX
  5
1074F
  8
0
 10
72.134414624499982
 20
289.38392959539419
 30
0.0
  0
VERTEX
  5
10750
  8
0
 10
71.924319427499995
 20
290.03019295639422
 30
0.0
  0
VERTEX
  5
10751
  8
0
 10
71.489063959600003
 20
290.9275408834942
 30
0.0
  0
VERTEX
  5
10752
  8
0
 10
71.170976322199976
 20
291.53343699879429
 30
0.0
  0
VERTEX
  5
10753
  8
0
 10
71.012332972199943
 20
291.9849198311943
 30
0.0
  0
SEQEND
  5
10754
  8
0
  0
POLYLINE
  5
F4E5
  8
0
 66
     1
 10
0.0
 20
0.0
 30
0.0
 70
   128
  0
VERTEX
  5
10755
  8
0
 10
82.199203252799975
 20
349.4418977769069
 30
0.0
  0
VERTEX
  5
10756
  8
0
 10
79.562889348800013
 20
349.33609925219417
 30
0.0
  0
VERTEX
  5
10757
  8
0
 10
77.093788359400037
 20
348.98939393469419
 30
0.0
  0
VERTEX
  5
10758
  8
0
 10
75.823085319299935
 20
348.6569043248943
 30
0.0
  0
VERTEX
  5
10759
  8
0
 10
74.68336069220004
 20
348.18794988099421
 30
0.0
  0
VERTEX
  5
1075A
  8
0
 10
73.736780259799957
 20
347.6031985133942
 30
0.0
  0
VERTEX
  5
1075B
  8
0
 10
72.954734724100035
 20
346.80503271519422
 30
0.0
  0
VERTEX
  5
1075C
  8
0
 10
72.440236743600053
 20
345.75834535069419
 30
0.0
  0
VERTEX
  5
1075D
  8
0
 10
72.34332517910002
 20
345.3034725040942
 30
0.0
  0
VERTEX
  5
1075E
  8
0
 10
72.316180851399963
 20
344.80575881899432
 30
0.0
  0
VERTEX
  5
1075F
  8
0
 10
72.355341103000001
 20
344.35274861759422
 30
0.0
  0
VERTEX
  5
10760
  8
0
 10
72.477180447500004
 20
343.89386735859421
 30
0.0
  0
VERTEX
  5
10761
  8
0
 10
72.869807418500045
 20
343.17709170289419
 30
0.0
  0
VERTEX
  5
10762
  8
0
 10
73.451263766800025
 20
342.61025153109432
 30
0.0
  0
VERTEX
  5
10763
  8
0
 10
74.17143036799996
 20
342.18968115749419
 30
0.0
  0
VERTEX
  5
10764
  8
0
 10
75.134787645200049
 20
341.84440635149429
 30
0.0
  0
VERTEX
  5
10765
  8
0
 10
76.298038411900052
 20
341.59220419829421
 30
0.0
  0
VERTEX
  5
10766
  8
0
 10
77.458843525599946
 20
341.44061468549421
 30
0.0
  0
VERTEX
  5
10767
  8
0
 10
78.780596081199974
 20
341.34666286409418
 30
0.0
  0
VERTEX
  5
10768
  8
0
 10
79.965937819399983
 20
341.3225825875943
 30
0.0
  0
SEQEND
  5
10769
  8
0
  0
ARC
  5
F4E7
  8
0
 10
82.294206011561968
 20
296.5718084693591
 30
0.0
 40
38.116761459720429
 50
90.142804964181522
 51
101.6196997793549
  0
POLYLINE
  5
F4EA
  8
0
 66
     1
 10
0.0
 20
0.0
 30
0.0
 70
   128
  0
VERTEX
  5
1076A
  8
0
 10
74.616929452899953
 20
333.90740714969422
 30
0.0
  0
VERTEX
  5
1076B
  8
0
 10
73.814735684600009
 20
333.45919512219427
 30
0.0
  0
VERTEX
  5
1076C
  8
0
 10
73.098476912899969
 20
332.75733552879421
 30
0.0
  0
VERTEX
  5
1076D
  8
0
 10
72.686685185899933
 20
331.93096183239419
 30
0.0
  0
VERTEX
  5
1076E
  8
0
 10
72.580793809200031
 20
331.4132060855942
 30
0.0
  0
VERTEX
  5
1076F
  8
0
 10
72.554767068500041
 20
330.89008592069422
 30
0.0
  0
VERTEX
  5
10770
  8
0
 10
72.616858344600018
 20
330.3066309541943
 30
0.0
  0
VERTEX
  5
10771
  8
0
 10
72.733953531899942
 20
329.82732020319418
 30
0.0
  0
VERTEX
  5
10772
  8
0
 10
72.990745242699973
 20
329.22175191349419
 30
0.0
  0
VERTEX
  5
10773
  8
0
 10
73.708176549600012
 20
328.28086279339419
 30
0.0
  0
VERTEX
  5
10774
  8
0
 10
74.623156275700012
 20
327.59181819859418
 30
0.0
  0
VERTEX
  5
10775
  8
0
 10
75.735563349000003
 20
327.05071233219428
 30
0.0
  0
VERTEX
  5
10776
  8
0
 10
77.039451275099964
 20
326.6509439796942
 30
0.0
  0
VERTEX
  5
10777
  8
0
 10
78.538514610399943
 20
326.37792490429422
 30
0.0
  0
VERTEX
  5
10778
  8
0
 10
80.048272322899948
 20
326.23605094849432
 30
0.0
  0
VERTEX
  5
10779
  8
0
 10
81.661210797799981
 20
326.20072029539432
 30
0.0
  0
VERTEX
  5
1077A
  8
0
 10
82.199203252799975
 20
326.21006344469879
 30
0.0
  0
SEQEND
  5
1077B
  8
0
  0
ARC
  5
F4EC
  8
0
 10
82.493643035741115
 20
268.22538918741242
 30
0.0
 40
52.430452361910753
 50
90.321764257185649
 51
97.062226241806073
  0
POLYLINE
  5
F4F2
  8
0
 66
     1
 10
0.0
 20
0.0
 30
0.0
 70
   128
  0
VERTEX
  5
1077C
  8
0
 10
76.047464210599969
 20
320.2580627053942
 30
0.0
  0
VERTEX
  5
1077D
  8
0
 10
74.432003248499996
 20
319.79976259179421
 30
0.0
  0
VERTEX
  5
1077E
  8
0
 10
73.51258018249996
 20
319.28278170529433
 30
0.0
  0
VERTEX
  5
1077F
  8
0
 10
72.798278119499969
 20
318.53493712849422
 30
0.0
  0
VERTEX
  5
10780
  8
0
 10
72.367887880699982
 20
317.4853440374942
 30
0.0
  0
VERTEX
  5
10781
  8
0
 10
72.278046917199944
 20
316.88357554379422
 30
0.0
  0
VERTEX
  5
10782
  8
0
 10
72.262432362899972
 20
316.18229709569431
 30
0.0
  0
VERTEX
  5
10783
  8
0
 10
72.316894244499963
 20
315.55798314519433
 30
0.0
  0
VERTEX
  5
10784
  8
0
 10
72.472400900000025
 20
314.78531323379423
 30
0.0
  0
VERTEX
  5
10785
  8
0
 10
72.908369761000017
 20
313.69122527539417
 30
0.0
  0
VERTEX
  5
10786
  8
0
 10
73.482476111600022
 20
312.87616156049421
 30
0.0
  0
VERTEX
  5
10787
  8
0
 10
74.224378850399944
 20
312.20563910909419
 30
0.0
  0
VERTEX
  5
10788
  8
0
 10
76.309696707900002
 20
311.18276380009422
 30
0.0
  0
VERTEX
  5
10789
  8
0
 10
77.759965259599994
 20
310.7989396899942
 30
0.0
  0
VERTEX
  5
1078A
  8
0
 10
79.438546609199989
 20
310.53673885769422
 30
0.0
  0
VERTEX
  5
1078B
  8
0
 10
82.199203252799975
 20
310.39286778227751
 30
0.0
  0
SEQEND
  5
1078C
  8
0
  0
LINE
  5
F4F7
  8
0
 10
82.199203252799975
 20
295.13219391796019
 30
0.0
 11
80.648115772799997
 21
295.16973011199423
 31
0.0
  0
ARC
  5
F4F8
  8
0
 10
81.333650596075017
 20
225.75950352281399
 30
0.0
 40
80.493357229037684
 50
89.383881208885413
 51
93.02307680540693
  0
POLYLINE
  5
F4FD
  8
0
 66
     1
 10
0.0
 20
0.0
 30
0.0
 70
   128
  0
VERTEX
  5
1078D
  8
0
 10
77.088578540900016
 20
306.14084415139428
 30
0.0
  0
VERTEX
  5
1078E
  8
0
 10
76.573656808599935
 20
306.10426925129423
 30
0.0
  0
VERTEX
  5
1078F
  8
0
 10
75.425354700599996
 20
305.97678236669418
 30
0.0
  0
VERTEX
  5
10790
  8
0
 10
74.420202460200017
 20
305.80374263229419
 30
0.0
  0
VERTEX
  5
10791
  8
0
 10
73.508636962699939
 20
305.55183850229429
 30
0.0
  0
VERTEX
  5
10792
  8
0
 10
72.811512213300034
 20
305.20449988549422
 30
0.0
  0
VERTEX
  5
10793
  8
0
 10
72.386920388800036
 20
304.78863082829417
 30
0.0
  0
VERTEX
  5
10794
  8
0
 10
72.133855830899961
 20
304.20105569069432
 30
0.0
  0
VERTEX
  5
10795
  8
0
 10
72.054265003700039
 20
303.33269797269429
 30
0.0
  0
VERTEX
  5
10796
  8
0
 10
72.065031092699996
 20
302.79583893719428
 30
0.0
  0
VERTEX
  5
10797
  8
0
 10
72.092138167500025
 20
302.13325880469432
 30
0.0
  0
VERTEX
  5
10798
  8
0
 10
72.118801932800011
 20
301.47870294749418
 30
0.0
  0
VERTEX
  5
10799
  8
0
 10
72.1469800287
 20
300.77071897689427
 30
0.0
  0
VERTEX
  5
1079A
  8
0
 10
72.210000764599954
 20
299.7933443635942
 30
0.0
  0
VERTEX
  5
1079B
  8
0
 10
72.331735801000036
 20
298.97553138439429
 30
0.0
  0
VERTEX
  5
1079C
  8
0
 10
72.539500828900032
 20
298.28294776379431
 30
0.0
  0
VERTEX
  5
1079D
  8
0
 10
73.103895347599973
 20
297.35266827049418
 30
0.0
  0
VERTEX
  5
1079E
  8
0
 10
74.001418363400035
 20
296.60617224879422
 30
0.0
  0
VERTEX
  5
1079F
  8
0
 10
75.199498731700032
 20
296.05001620949412
 30
0.0
  0
VERTEX
  5
107A0
  8
0
 10
76.789209555900015
 20
295.61395607889432
 30
0.0
  0
VERTEX
  5
107A1
  8
0
 10
77.988467116000024
 20
295.40489278739432
 30
0.0
  0
VERTEX
  5
107A2
  8
0
 10
79.345206666799982
 20
295.24927996099427
 30
0.0
  0
VERTEX
  5
107A3
  8
0
 10
80.648115772799997
 20
295.16973011199423
 30
0.0
  0
SEQEND
  5
107A4
  8
0
  0
LINE
  5
F4FE
  8
0
 10
68.699203252799975
 20
188.5627298038942
 30
0.0
 11
68.699203252799975
 21
180.5627298038942
 31
0.0
  0
LINE
  5
F4FF
  8
0
 10
95.699203252799975
 20
188.5627298038942
 30
0.0
 11
95.699203386899967
 21
180.57388348979421
 31
0.0
  0
LINE
  5
F500
  8
0
 10
68.699203252799975
 20
252.0627298077942
 30
0.0
 11
68.699203252799975
 21
244.0627298077942
 31
0.0
  0
LINE
  5
F501
  8
0
 10
95.699203252799975
 20
252.0627298077942
 30
0.0
 11
95.699203252799975
 21
244.0627298077942
 31
0.0
  0
LINE
  5
F503
  8
0
 10
72.699203252799975
 20
220.3127297998943
 30
0.0
 11
72.699203252799975
 21
212.3127297998943
 31
0.0
  0
LINE
  5
F505
  8
0
 10
91.699203252799975
 20
220.3127297998943
 30
0.0
 11
91.699203252799975
 21
212.3127297998943
 31
0.0
  0
LINE
  5
F508
  8
0
 10
73.067854344800026
 20
203.81272993989421
 30
0.0
 11
91.33055126290003
 21
203.81272993989421
 31
0.0
  0
ARC
  5
F50A
  8
0
 10
73.015810651600063
 20
206.98713391899429
 30
0.0
 40
0.6610162241278457
 50
207.5860611593005
 51
264.2168190314033
  0
ARC
  5
F50B
  8
0
 10
73.06785624470001
 20
207.0493327598943
 30
0.0
 40
3.236602820056437
 50
210.0000363188982
 51
269.99996636749859
  0
ARC
  5
F50C
  8
0
 10
91.384543740200002
 20
206.98732788719431
 30
0.0
 40
0.6593809203543493
 50
275.62751319959779
 51
332.32064024769983
  0
ARC
  5
F50E
  8
0
 10
91.330556406899973
 20
207.0493213660942
 30
0.0
 40
3.236591426237676
 50
269.99990893819978
 51
330.00008013209867
  0
LINE
  5
F515
  8
0
 10
91.33055126290003
 20
228.81272844969419
 30
0.0
 11
73.067854344800026
 21
228.81272844969419
 31
0.0
  0
ARC
  5
F516
  8
0
 10
73.013861745300005
 20
225.63813461959421
 30
0.0
 40
0.6593785276840637
 50
95.627401034702757
 51
152.3207524126027
  0
ARC
  5
F518
  8
0
 10
73.067844347499985
 20
225.57614623629431
 30
0.0
 40
3.2365822134728779
 50
89.999823021501101
 51
150.00017429220279
  0
ARC
  5
F51A
  8
0
 10
91.382598631899995
 20
225.6383296992943
 30
0.0
 40
0.6610126456283224
 50
27.585894037001161
 51
84.216986153696595
  0
ARC
  5
F51B
  8
0
 10
91.330554442699963
 20
225.57613362139429
 30
0.0
 40
3.236594828340797
 50
29.999954639299141
 51
90.00005629039758
  0
LINE
  5
F54F
  8
0
 10
74.836104238654684
 20
164.31272979989421
 30
0.0
 11
89.562302301599971
 21
164.31272979989421
 31
0.0
  0
LINE
  5
F552
  8
0
 10
88.273909503798791
 20
182.81272975729419
 30
0.0
 11
76.124084202400013
 21
182.81272979989501
 31
0.0
  0
LINE
  5
F553
  8
0
 10
99.199203029200035
 20
185.31514275819421
 30
0.0
 11
99.199203252799975
 21
191.3122121698942
 31
0.0
  0
LINE
  5
F554
  8
0
 10
86.199203226699964
 20
259.43363867699418
 30
0.0
 11
78.199203312400073
 21
259.43363867699418
 31
0.0
  0
LINE
  5
F555
  8
0
 10
86.199203226723171
 20
250.3127267563213
 30
0.0
 11
86.199203226699964
 21
259.43363867699418
 31
0.0
  0
LINE
  5
F556
  8
0
 10
78.199203312400073
 20
259.43363867699418
 30
0.0
 11
78.199203312421901
 21
250.31272678986619
 31
0.0
  0
LINE
  5
F559
  8
0
 10
75.199202820600021
 20
248.97329173989419
 30
0.0
 11
75.199202820600021
 21
236.41273044049419
 31
0.0
  0
ARC
  5
F55A
  8
0
 10
78.181445058699978
 20
243.5466011997942
 30
0.0
 40
6.1921514019186832
 50
95.409895980176586
 51
118.79103099410101
  0
LINE
  5
F55B
  8
0
 10
89.199203252799975
 20
236.41273044049419
 30
0.0
 11
89.199203252799975
 21
248.97329173989419
 31
0.0
  0
ARC
  5
F55C
  8
0
 10
85.728330241600034
 20
241.63149204079431
 30
0.0
 40
8.1208978740593079
 50
64.697319751999814
 51
82.165219250344521
  0
ARC
  5
F55D
  8
0
 10
76.199203252799975
 20
271.09315693189421
 30
0.0
 40
6.0000000000000071
 50
315.00000000000028
 51
0.0
  0
LINE
  5
F55E
  8
0
 10
80.441843904500047
 20
266.85051284739433
 30
0.0
 11
75.784989818900044
 21
262.19366155569429
 31
0.0
  0
ARC
  5
F55F
  8
0
 10
77.199203252799975
 20
260.77944843289418
 30
0.0
 40
2.0000000000000151
 50
135.00000000000031
 51
180.0
  0
LINE
  5
F560
  8
0
 10
75.199202820600021
 20
260.77945195139421
 30
0.0
 11
75.199202820600021
 21
248.97329173989419
 31
0.0
  0
ARC
  5
F561
  8
0
 10
68.199203252799975
 20
240.23565187599431
 30
0.0
 40
7.0000000000000071
 50
329.99999999999909
 51
0.0
  0
LINE
  5
F562
  8
0
 10
74.261381477100031
 20
236.73565350479419
 30
0.0
 11
74.074941873500052
 21
236.41273044049419
 31
0.0
  0
LINE
  5
F563
  8
0
 10
72.430602461100079
 20
229.68949276637221
 30
0.0
 11
72.430602461100079
 21
228.74937601095391
 31
0.0
  0
LINE
  5
F564
  8
0
 10
72.430602461100079
 20
225.94514153899431
 30
0.0
 11
72.430602461100079
 21
206.6803615540943
 31
0.0
  0
LINE
  5
F565
  8
0
 10
72.430602461100079
 20
203.8760843564306
 30
0.0
 11
72.430602461100079
 21
202.9359656232163
 31
0.0
  0
LINE
  5
F568
  8
0
 10
75.199202820600021
 20
195.5762220546942
 30
0.0
 11
75.199202820600021
 21
190.76064079999421
 31
0.0
  0
LINE
  5
F569
  8
0
 10
71.19920402759999
 20
195.5762220546942
 30
0.0
 11
71.19920402759999
 21
178.1068475997692
 31
0.0
  0
ARC
  5
F56A
  8
0
 10
68.199203252799975
 20
195.57622209889419
 30
0.0
 40
3.000000000000008
 50
0.0
 51
30.000000000000899
  0
LINE
  5
F56B
  8
0
 10
69.368425011600038
 20
199.55107048159419
 30
0.0
 11
70.797278731999995
 21
197.0762223005942
 31
0.0
  0
ARC
  5
F56C
  8
0
 10
75.430603252799983
 20
203.05106988899419
 30
0.0
 40
7.000000000000016
 50
180.0
 51
210.00000000000091
  0
LINE
  5
F56D
  8
0
 10
68.430603668100034
 20
232.76080228389429
 30
0.0
 11
68.430603668100034
 21
203.05107012399429
 31
0.0
  0
ARC
  5
F56E
  8
0
 10
75.430603252799983
 20
232.76080408589419
 30
0.0
 40
7.0
 50
149.99999999999909
 51
180.0
  0
LINE
  5
F56F
  8
0
 10
70.797278731999995
 20
238.73565010729419
 30
0.0
 11
69.368425011600038
 21
236.26080565159421
 31
0.0
  0
ARC
  5
F570
  8
0
 10
68.199203252799975
 20
240.23565187599431
 30
0.0
 40
3.0000000000000062
 50
329.99999999999909
 51
0.0
  0
LINE
  5
F571
  8
0
 10
71.19920402759999
 20
260.77945195139421
 30
0.0
 11
71.19920402759999
 21
240.23565314709421
 31
0.0
  0
ARC
  5
F572
  8
0
 10
77.199203252799975
 20
260.77944843289418
 30
0.0
 40
6.0000000000000133
 50
135.00000000000031
 51
180.0
  0
LINE
  5
F573
  8
0
 10
77.613417245400001
 20
269.6789469569942
 30
0.0
 11
72.956563159799998
 21
265.02208821479422
 31
0.0
  0
ARC
  5
F574
  8
0
 10
76.199203252799975
 20
271.09315693189421
 30
0.0
 40
2.00000000000002
 50
315.00000000000028
 51
0.0
  0
LINE
  5
F577
  8
0
 10
78.199203312400073
 20
274.8127322643943
 30
0.0
 11
78.199203312400073
 21
271.09315656129422
 31
0.0
  0
LINE
  5
F579
  8
0
 10
71.19920402759999
 20
176.84844406329421
 30
0.0
 11
71.19920402759999
 21
176.3127296231942
 31
0.0
  0
ARC
  5
F57A
  8
0
 10
88.199203252799975
 20
271.09315693189421
 30
0.0
 40
2.0000000000000111
 50
180.0
 51
224.99999999999969
  0
LINE
  5
F57B
  8
0
 10
91.441843844900063
 20
265.02208821479422
 30
0.0
 11
86.784989759300061
 21
269.6789469569942
 31
0.0
  0
ARC
  5
F57C
  8
0
 10
87.199203252799975
 20
260.77944843289418
 30
0.0
 40
6.0000000000000133
 50
0.0
 51
44.999999999999709
  0
LINE
  5
F57D
  8
0
 10
93.199203442800012
 20
240.23565314709421
 30
0.0
 11
93.199203442800012
 21
260.77945195139421
 31
0.0
  0
ARC
  5
F57E
  8
0
 10
96.199203252799975
 20
240.23565187599431
 30
0.0
 40
3.0
 50
180.0
 51
210.00000000000091
  0
LINE
  5
F57F
  8
0
 10
95.029981061800058
 20
236.26080565159421
 30
0.0
 11
93.601126875700075
 21
238.73565010729419
 31
0.0
  0
ARC
  5
F580
  8
0
 10
88.967803252800081
 20
232.76080408589419
 30
0.0
 40
6.9999999999999973
 50
0.0
 51
30.000000000000899
  0
LINE
  5
F581
  8
0
 10
95.967803336700058
 20
203.05107012399429
 30
0.0
 11
95.967803336700058
 21
232.76080228389429
 31
0.0
  0
ARC
  5
F582
  8
0
 10
88.967803252800081
 20
203.05106988899419
 30
0.0
 40
7.0000000000000089
 50
329.99999999999909
 51
0.0
  0
LINE
  5
F583
  8
0
 10
93.601126875700075
 20
197.0762223005942
 30
0.0
 11
95.029981061800058
 21
199.55107048159419
 31
0.0
  0
ARC
  5
F584
  8
0
 10
96.199203252799975
 20
195.57622209889419
 30
0.0
 40
3.0000000000000009
 50
149.99999999999909
 51
180.0
  0
LINE
  5
F585
  8
0
 10
93.199203442800012
 20
178.10684704867069
 30
0.0
 11
93.199203442800012
 21
195.5762220546942
 31
0.0
  0
LINE
  5
F586
  8
0
 10
89.199203252799975
 20
190.76064079999421
 30
0.0
 11
89.199203252799975
 21
195.5762220546942
 31
0.0
  0
LINE
  5
F589
  8
0
 10
91.967803146700248
 20
202.9359656231583
 30
0.0
 11
91.967803146699907
 21
203.8760831693921
 31
0.0
  0
LINE
  5
F58A
  8
0
 10
91.967803146700021
 20
206.68031685059421
 30
0.0
 11
91.967803146700021
 21
225.94509683549421
 31
0.0
  0
LINE
  5
F58B
  8
0
 10
91.967803146700021
 20
228.74937489367289
 30
0.0
 11
91.967803146700135
 21
229.68949276642999
 31
0.0
  0
LINE
  5
F58C
  8
0
 10
90.323464549099981
 20
236.41273044049419
 30
0.0
 11
90.137025411200057
 21
236.73565350479419
 31
0.0
  0
ARC
  5
F58D
  8
0
 10
96.199203252799975
 20
240.23565187599431
 30
0.0
 40
7.0
 50
180.0
 51
210.00000000000091
  0
LINE
  5
F58E
  8
0
 10
89.199203252799975
 20
248.97329173989419
 30
0.0
 11
89.199203252799975
 21
260.77945195139421
 31
0.0
  0
ARC
  5
F58F
  8
0
 10
87.199203252799975
 20
260.77944843289418
 30
0.0
 40
2.00000000000002
 50
0.0
 51
44.999999999999709
  0
LINE
  5
F590
  8
0
 10
88.613416836599995
 20
262.19366155569429
 30
0.0
 11
83.956562634500074
 21
266.85051284739433
 31
0.0
  0
ARC
  5
F591
  8
0
 10
88.199203252799975
 20
271.09315693189421
 30
0.0
 40
5.9999999999999858
 50
180.0
 51
224.99999999999969
  0
LINE
  5
F592
  8
0
 10
86.199203226699964
 20
271.09315656129422
 30
0.0
 11
86.199203226699964
 21
274.8127322643943
 31
0.0
  0
LINE
  5
F593
  8
0
 10
93.199203442800012
 20
176.3127296231942
 30
0.0
 11
93.199203442800012
 21
176.84844406329421
 31
0.0
  0
LINE
  5
F595
  8
0
 10
91.449203155900022
 20
226.31273083389419
 30
0.0
 11
72.949203848800039
 21
226.31273083389419
 31
0.0
  0
LINE
  5
F596
  8
0
 10
72.949203848800039
 20
226.31273083389419
 30
0.0
 11
72.949203848800039
 21
206.31272941829431
 31
0.0
  0
LINE
  5
F597
  8
0
 10
72.949203848800039
 20
206.31272941829431
 30
0.0
 11
91.449203155900022
 21
206.31272941829431
 31
0.0
  0
LINE
  5
F598
  8
0
 10
91.449203155900022
 20
206.31272941829431
 30
0.0
 11
91.449203155900022
 21
226.31273083389419
 31
0.0
  0
LINE
  5
F599
  8
0
 10
89.199203252799975
 20
182.61266967749421
 30
0.0
 11
89.199203252799975
 21
190.76064079999421
 31
0.0
  0
LINE
  5
F59A
  8
0
 10
75.199202820600021
 20
190.76064079999421
 30
0.0
 11
75.199202820600021
 21
182.61266967749421
 31
0.0
  0
LINE
  5
F59B
  8
0
 10
74.795939214499981
 20
164.31434489789419
 30
0.0
 11
74.699203669999974
 21
164.31300938129419
 31
0.0
  0
LINE
  5
F59C
  8
0
 10
74.699203669999974
 20
164.31300938129419
 30
0.0
 11
50.0
 21
164.31300938129419
 31
0.0
  0
LINE
  5
F59D
  8
0
 10
50.0
 20
167.31300894179421
 30
0.0
 11
73.671353235799984
 21
167.31300894179421
 31
0.0
  0
LINE
  5
F59E
  8
0
 10
50.0
 20
167.31300894179421
 30
0.0
 11
50.0
 21
164.31300938129419
 31
0.0
  0
LINE
  5
F5A1
  8
0
 10
90.727053303200023
 20
167.31300894179421
 30
0.0
 11
114.3984060734001
 21
167.31300894179421
 31
0.0
  0
LINE
  5
F5A2
  8
0
 10
114.3984060734001
 20
164.31300938129419
 30
0.0
 11
89.699203276500043
 21
164.31300938129419
 31
0.0
  0
LINE
  5
F5A3
  8
0
 10
89.699203276500043
 20
164.31300938129419
 30
0.0
 11
89.602466829800036
 21
164.31434489789419
 31
0.0
  0
LINE
  5
F5A4
  8
0
 10
114.3984060734
 20
164.31300938129419
 30
0.0
 11
114.3984060734
 21
167.31300894179421
 31
0.0
  0
LINE
  5
F5A7
  8
0
 10
89.199203252799975
 20
196.2127298116942
 30
0.0
 11
89.199203252799975
 21
195.5762220546942
 31
0.0
  0
LINE
  5
F5A8
  8
0
 10
75.199202820600021
 20
195.5762220546942
 30
0.0
 11
75.199202820600021
 21
196.2127298116942
 31
0.0
  0
LINE
  5
F5DB
  8
0
 10
93.280993588199976
 20
178.01062334329421
 30
0.0
 11
71.117413416499971
 21
178.01062334329421
 31
0.0
  0
LINE
  5
F5DD
  8
0
 10
93.384022544999993
 20
177.5613179430942
 30
0.0
 11
71.014161112265924
 21
177.56218122228819
 31
0.0
  0
LINE
  5
F5F3
  8
0
 10
401.13739073276849
 20
279.46836166089417
 30
0.0
 11
401.29625201216862
 21
284.28403697909408
 31
0.0
  0
ARC
  5
F5FC
  8
0
 10
378.44752006226861
 20
180.5627298038942
 30
0.0
 40
1.0
 50
270.0
 51
0.0
  0
ARC
  5
F5FD
  8
0
 10
402.44752006226861
 20
180.5627298038942
 30
0.0
 40
1.0
 50
180.0
 51
270.0
  0
ARC
  5
F5FE
  8
0
 10
402.44752006226861
 20
188.5627298038942
 30
0.0
 40
1.0
 50
90.0
 51
180.0
  0
ARC
  5
F5FF
  8
0
 10
377.94752006226861
 20
180.5627298038942
 30
0.0
 40
1.0
 50
180.0
 51
270.0
  0
ARC
  5
F600
  8
0
 10
402.94752006226861
 20
180.5627298038942
 30
0.0
 40
1.0
 50
270.0
 51
0.0
  0
ARC
  5
F601
  8
0
 10
402.94752006226861
 20
188.5627298038942
 30
0.0
 40
1.0
 50
0.0
 51
90.0
  0
LINE
  5
F602
  8
0
 10
377.94752009216859
 20
179.56272969029419
 30
0.0
 11
378.44752017406859
 21
179.56272969029419
 31
0.0
  0
LINE
  5
F603
  8
0
 10
402.94752046466851
 20
189.56272993239421
 30
0.0
 11
402.44751945136858
 21
189.56272993239421
 31
0.0
  0
LINE
  5
F604
  8
0
 10
402.44751945136858
 20
179.56272969029419
 30
0.0
 11
402.94752046466851
 21
179.56272969029419
 31
0.0
  0
ARC
  5
F605
  8
0
 10
402.44752006236848
 20
244.06272980779411
 30
0.0
 40
1.0
 50
180.0
 51
270.0
  0
ARC
  5
F606
  8
0
 10
402.44752006236848
 20
252.0627298077942
 30
0.0
 40
1.0
 50
90.0
 51
180.0
  0
ARC
  5
F607
  8
0
 10
378.44752006236848
 20
252.0627298077942
 30
0.0
 40
1.0
 50
0.0
 51
90.0
  0
ARC
  5
F608
  8
0
 10
378.44752006236848
 20
244.06272980779411
 30
0.0
 40
1.0
 50
270.0
 51
0.0
  0
ARC
  5
F609
  8
0
 10
402.94752006236848
 20
244.06272980779411
 30
0.0
 40
1.0
 50
270.0
 51
0.0
  0
ARC
  5
F60A
  8
0
 10
402.94752006236848
 20
252.0627298077942
 30
0.0
 40
1.0
 50
0.0
 51
90.0
  0
ARC
  5
F60B
  8
0
 10
377.94752006236848
 20
252.0627298077942
 30
0.0
 40
1.0
 50
90.0
 51
180.0
  0
ARC
  5
F60C
  8
0
 10
377.94752006236848
 20
244.06272980779411
 30
0.0
 40
1.0
 50
180.0
 51
270.0
  0
LINE
  5
F60D
  8
0
 10
402.94752046466851
 20
253.06272916499421
 30
0.0
 11
402.44751945136858
 21
253.06272916499421
 31
0.0
  0
LINE
  5
F60E
  8
0
 10
402.44751945136858
 20
243.06273125119421
 30
0.0
 11
402.94752046466851
 21
243.06273125119421
 31
0.0
  0
LINE
  5
F60F
  8
0
 10
377.94752009216859
 20
243.06273125119421
 30
0.0
 11
378.44752017406859
 21
243.06273125119421
 31
0.0
  0
LINE
  5
F610
  8
0
 10
378.44752017406859
 20
253.06272916499421
 30
0.0
 11
377.94752009216859
 21
253.06272916499421
 31
0.0
  0
ARC
  5
F611
  8
0
 10
398.44752006236848
 20
212.31272979989421
 30
0.0
 40
1.0
 50
180.0
 51
270.0
  0
ARC
  5
F612
  8
0
 10
398.44752006236848
 20
220.31272979989421
 30
0.0
 40
1.0
 50
90.0
 51
180.0
  0
ARC
  5
F613
  8
0
 10
382.44752006236848
 20
220.31272979989421
 30
0.0
 40
1.0
 50
0.0
 51
90.0
  0
ARC
  5
F614
  8
0
 10
382.44752006236848
 20
212.31272979989421
 30
0.0
 40
1.0
 50
270.0
 51
0.0
  0
ARC
  5
F615
  8
0
 10
398.94752006236848
 20
212.31272979989421
 30
0.0
 40
1.0
 50
270.0
 51
0.0
  0
ARC
  5
F616
  8
0
 10
398.94752006236848
 20
220.31272979989421
 30
0.0
 40
1.0
 50
0.0
 51
90.0
  0
ARC
  5
F617
  8
0
 10
381.94752006236848
 20
220.31272979989421
 30
0.0
 40
1.0
 50
90.0
 51
180.0
  0
ARC
  5
F618
  8
0
 10
381.94752006236848
 20
212.31272979989421
 30
0.0
 40
1.0
 50
180.0
 51
270.0
  0
LINE
  5
F619
  8
0
 10
398.94751980896859
 20
221.31272815169419
 30
0.0
 11
398.44751972706848
 21
221.31272815169419
 31
0.0
  0
LINE
  5
F61A
  8
0
 10
398.44751972706848
 20
211.31273023789419
 30
0.0
 11
398.94751980896859
 21
211.31273023789419
 31
0.0
  0
LINE
  5
F61B
  8
0
 10
381.94752004926858
 20
211.31273023789419
 30
0.0
 11
382.44752001486859
 21
211.31273023789419
 31
0.0
  0
LINE
  5
F61C
  8
0
 10
382.44752001486859
 20
221.31272815169419
 30
0.0
 11
381.94752004926858
 21
221.31272815169419
 31
0.0
  0
ARC
  5
F621
  8
0
 10
401.14834081386851
 20
177.68679922459421
 30
0.0
 40
0.4999999999999927
 50
345.46554491950133
 51
40.364536573097674
  0
ARC
  5
F622
  8
0
 10
379.74669931076858
 20
177.68679922459421
 30
0.0
 40
0.4999999999999927
 50
139.63546342690231
 51
194.53445508049859
  0
LINE
  5
F623
  8
0
 10
379.26270077006859
 20
177.5613179430942
 30
0.0
 11
379.44751987236862
 21
176.84844406329421
 31
0.0
  0
LINE
  5
F624
  8
0
 10
379.58640893916868
 20
176.3127296231942
 30
0.0
 11
381.91967001186862
 21
167.31300894179421
 31
0.0
  0
LINE
  5
F625
  8
0
 10
398.97537007926871
 20
167.31300894179421
 30
0.0
 11
401.3086311518685
 21
176.3127296231942
 31
0.0
  0
LINE
  5
F626
  8
0
 10
401.44751928746859
 20
176.84844406329421
 30
0.0
 11
401.63233838976851
 21
177.5613179430942
 31
0.0
  0
LINE
  5
F627
  8
0
 10
401.52930989856861
 20
178.01062334329421
 30
0.0
 11
401.44751928746859
 21
178.10684735889421
 31
0.0
  0
LINE
  5
F628
  8
0
 10
379.44751987236862
 20
178.10684735889421
 30
0.0
 11
379.36572972686861
 21
178.01062334329421
 31
0.0
  0
ARC
  5
F62B
  8
0
 10
374.4475200623686
 20
185.3122121698942
 30
0.0
 40
1.0000000000000571
 50
180.0
 51
270.0
  0
ARC
  5
F62C
  8
0
 10
374.4475200623686
 20
191.3122121698942
 30
0.0
 40
1.0000000000000571
 50
90.0
 51
180.0
  0
ARC
  5
F62D
  8
0
 10
382.44752006236848
 20
185.3122121698942
 30
0.0
 40
1.0
 50
270.0
 51
0.0
  0
ARC
  5
F62E
  8
0
 10
382.44752006236848
 20
191.3122121698942
 30
0.0
 40
1.0
 50
0.0
 51
90.0
  0
LINE
  5
F62F
  8
0
 10
382.44752001486859
 20
192.3122121021942
 30
0.0
 11
374.4475204497686
 21
192.3122121021942
 31
0.0
  0
LINE
  5
F630
  8
0
 10
374.4475204497686
 20
184.31221218779419
 30
0.0
 11
382.44752001486859
 21
184.31221218779419
 31
0.0
  0
ARC
  5
F631
  8
0
 10
400.44752006236848
 20
186.0622121698942
 30
0.0
 40
1.0
 50
270.0
 51
0.0
  0
ARC
  5
F632
  8
0
 10
400.44752006236848
 20
190.5622121698942
 30
0.0
 40
1.0
 50
0.0
 51
90.0
  0
ARC
  5
F633
  8
0
 10
398.41576589886859
 20
186.0622121698942
 30
0.0
 40
1.0
 50
194.4775121858994
 51
270.0
  0
ARC
  5
F634
  8
0
 10
398.41576589886859
 20
190.5622121698942
 30
0.0
 40
1.0
 50
90.0
 51
165.52248781410049
  0
LINE
  5
F635
  8
0
 10
400.44752098616851
 20
191.56221244489419
 30
0.0
 11
398.41576628386861
 21
191.56221244489419
 31
0.0
  0
LINE
  5
F636
  8
0
 10
398.41576628386861
 20
185.06221207789409
 30
0.0
 11
400.44752098616851
 21
185.06221207789409
 31
0.0
  0
LINE
  5
F637
  8
0
 10
394.44752000266868
 20
252.86273322999421
 30
0.0
 11
386.44752008836861
 21
252.86273322999421
 31
0.0
  0
LINE
  5
F638
  8
0
 10
386.44752008836861
 20
256.0627277940942
 30
0.0
 11
383.44752006236848
 21
256.0627277940942
 31
0.0
  0
LINE
  5
F639
  8
0
 10
397.44752049446862
 20
256.0627277940942
 30
0.0
 11
394.44752000266868
 21
256.0627277940942
 31
0.0
  0
LINE
  5
F63A
  8
0
 10
397.44752049446862
 20
176.3127296231942
 30
0.0
 11
401.44751928746859
 21
176.3127296231942
 31
0.0
  0
LINE
  5
F63B
  8
0
 10
379.44751987236862
 20
176.3127296231942
 30
0.0
 11
383.44752006226861
 21
176.3127296231942
 31
0.0
  0
LINE
  5
F63C
  8
0
 10
390.44752027836859
 20
228.8127209991942
 30
0.0
 11
386.44752008836861
 21
228.8127209991942
 31
0.0
  0
LINE
  5
F63D
  8
0
 10
394.44752000266868
 20
228.81271727389421
 30
0.0
 11
390.44752027836859
 21
228.81271727389421
 31
0.0
  0
LINE
  5
F63E
  8
0
 10
386.44752008836861
 20
225.04397891469421
 30
0.0
 11
383.44752006236848
 21
225.04397891469421
 31
0.0
  0
LINE
  5
F63F
  8
0
 10
397.44752049446862
 20
225.04397891469421
 30
0.0
 11
394.44752000266868
 21
225.04397891469421
 31
0.0
  0
POLYLINE
  5
F640
  8
0
 66
     1
 10
0.0
 20
0.0
 30
0.0
 70
   128
  0
VERTEX
  5
107A5
  8
0
 10
403.61712276936839
 20
345.02525292339419
 30
0.0
  0
VERTEX
  5
107A6
  8
0
 10
403.6017261444685
 20
344.52199600639409
 30
0.0
  0
VERTEX
  5
107A7
  8
0
 10
403.60445491966851
 20
344.07353065909422
 30
0.0
  0
VERTEX
  5
107A8
  8
0
 10
403.62060219046862
 20
343.74299310149422
 30
0.0
  0
VERTEX
  5
107A9
  8
0
 10
403.64639610046851
 20
343.5336168855942
 30
0.0
  0
VERTEX
  5
107AA
  8
0
 10
403.67441773406853
 20
343.50299499929417
 30
0.0
  0
VERTEX
  5
107AB
  8
0
 10
403.6956316140151
 20
343.60959830511831
 30
0.0
  0
SEQEND
  5
107AC
  8
0
  0
POLYLINE
  5
F641
  8
0
 66
     1
 10
0.0
 20
0.0
 30
0.0
 70
   128
  0
VERTEX
  5
107AD
  8
0
 10
403.80800481366458
 20
346.42402441423491
 30
0.0
  0
VERTEX
  5
107AE
  8
0
 10
403.78860533236872
 20
346.46127782769418
 30
0.0
  0
VERTEX
  5
107AF
  8
0
 10
403.75092774626859
 20
346.32660113279422
 30
0.0
  0
VERTEX
  5
107B0
  8
0
 10
403.70489060876872
 20
346.04058824479421
 30
0.0
  0
VERTEX
  5
107B1
  8
0
 10
403.65743786096863
 20
345.6171270459941
 30
0.0
  0
VERTEX
  5
107B2
  8
0
 10
403.62424924966848
 20
345.1625969260943
 30
0.0
  0
VERTEX
  5
107B3
  8
0
 10
403.61712276936839
 20
345.02525292339419
 30
0.0
  0
SEQEND
  5
107B4
  8
0
  0
POLYLINE
  5
F642
  8
0
 66
     1
 10
0.0
 20
0.0
 30
0.0
 70
   128
  0
VERTEX
  5
107B5
  8
0
 10
400.66739134486841
 20
336.07795499269417
 30
0.0
  0
VERTEX
  5
107B6
  8
0
 10
400.69378875196861
 20
335.49995385109418
 30
0.0
  0
VERTEX
  5
107B7
  8
0
 10
400.80650858576848
 20
335.0640203803942
 30
0.0
  0
VERTEX
  5
107B8
  8
0
 10
400.97041204566852
 20
334.75710116329418
 30
0.0
  0
VERTEX
  5
107B9
  8
0
 10
401.18193589146853
 20
334.5806267112942
 30
0.0
  0
VERTEX
  5
107BA
  8
0
 10
401.38824060556863
 20
334.5840986818942
 30
0.0
  0
VERTEX
  5
107BB
  8
0
 10
401.58164463936839
 20
334.74620841449422
 30
0.0
  0
VERTEX
  5
107BC
  8
0
 10
401.74718163906857
 20
335.06954871119422
 30
0.0
  0
VERTEX
  5
107BD
  8
0
 10
401.8558893352685
 20
335.48038862649418
 30
0.0
  0
VERTEX
  5
107BE
  8
0
 10
401.91795453426852
 20
335.97600124779422
 30
0.0
  0
VERTEX
  5
107BF
  8
0
 10
401.92255899306861
 20
336.0617872327943
 30
0.0
  0
VERTEX
  5
107C0
  8
0
 10
401.90742686386852
 20
336.6385217755942
 30
0.0
  0
VERTEX
  5
107C1
  8
0
 10
401.83126702896851
 20
337.0707448571942
 30
0.0
  0
VERTEX
  5
107C2
  8
0
 10
401.69406458736847
 20
337.39453218879419
 30
0.0
  0
VERTEX
  5
107C3
  8
0
 10
401.51866674416863
 20
337.55597136919408
 30
0.0
  0
VERTEX
  5
107C4
  8
0
 10
401.30156613886851
 20
337.55716346209419
 30
0.0
  0
VERTEX
  5
107C5
  8
0
 10
401.08948349946849
 20
337.38584481179419
 30
0.0
  0
VERTEX
  5
107C6
  8
0
 10
400.90567767616858
 20
337.08898387849422
 30
0.0
  0
VERTEX
  5
107C7
  8
0
 10
400.75071118766863
 20
336.65175400679408
 30
0.0
  0
VERTEX
  5
107C8
  8
0
 10
400.6724763661685
 20
336.15913651889412
 30
0.0
  0
VERTEX
  5
107C9
  8
0
 10
400.66739134486841
 20
336.07795499269417
 30
0.0
  0
SEQEND
  5
107CA
  8
0
  0
POLYLINE
  5
F643
  8
0
 66
     1
 10
0.0
 20
0.0
 30
0.0
 70
   128
  0
VERTEX
  5
107CB
  8
0
 10
402.19963863486862
 20
331.54399357739419
 30
0.0
  0
VERTEX
  5
107CC
  8
0
 10
402.20279395576858
 20
331.03800974789419
 30
0.0
  0
VERTEX
  5
107CD
  8
0
 10
402.25444324306858
 20
330.59088550509421
 30
0.0
  0
VERTEX
  5
107CE
  8
0
 10
402.33891978856849
 20
330.26657663289421
 30
0.0
  0
VERTEX
  5
107CF
  8
0
 10
402.45105475186853
 20
330.07022403189421
 30
0.0
  0
VERTEX
  5
107D0
  8
0
 10
402.56297178566848
 20
330.05539737649423
 30
0.0
  0
VERTEX
  5
107D1
  8
0
 10
402.6663411408685
 20
330.20083270969423
 30
0.0
  0
VERTEX
  5
107D2
  8
0
 10
402.75649316606859
 20
330.51003180449408
 30
0.0
  0
VERTEX
  5
107D3
  8
0
 10
402.81781330696862
 20
330.91018758719417
 30
0.0
  0
VERTEX
  5
107D4
  8
0
 10
402.85751931366849
 20
331.39337264009419
 30
0.0
  0
VERTEX
  5
107D5
  8
0
 10
402.8640255331685
 20
331.54034279289419
 30
0.0
  0
VERTEX
  5
107D6
  8
0
 10
402.86758691066848
 20
332.0377584546942
 30
0.0
  0
VERTEX
  5
107D7
  8
0
 10
402.84214504056848
 20
332.47762583199409
 30
0.0
  0
VERTEX
  5
107D8
  8
0
 10
402.78323143716852
 20
332.8244950622942
 30
0.0
  0
VERTEX
  5
107D9
  8
0
 10
402.69866175946851
 20
333.00722800199418
 30
0.0
  0
VERTEX
  5
107DA
  8
0
 10
402.58679315446852
 20
333.02980326119422
 30
0.0
  0
VERTEX
  5
107DB
  8
0
 10
402.46714428066849
 20
332.87471197549422
 30
0.0
  0
VERTEX
  5
107DC
  8
0
 10
402.35885381696852
 20
332.59005509319422
 30
0.0
  0
VERTEX
  5
107DD
  8
0
 10
402.26259231566848
 20
332.16729424899421
 30
0.0
  0
VERTEX
  5
107DE
  8
0
 10
402.20743380486857
 20
331.68804310269422
 30
0.0
  0
VERTEX
  5
107DF
  8
0
 10
402.19963863486862
 20
331.54399357739419
 30
0.0
  0
SEQEND
  5
107E0
  8
0
  0
POLYLINE
  5
F644
  8
0
 66
     1
 10
0.0
 20
0.0
 30
0.0
 70
   128
  0
VERTEX
  5
107E1
  8
0
 10
403.23137268416849
 20
336.03731952609422
 30
0.0
  0
VERTEX
  5
107E2
  8
0
 10
403.22143919766847
 20
335.53300462669421
 30
0.0
  0
VERTEX
  5
107E3
  8
0
 10
403.2303109764685
 20
335.08845828479423
 30
0.0
  0
VERTEX
  5
107E4
  8
0
 10
403.25200520456849
 20
334.76441763349419
 30
0.0
  0
VERTEX
  5
107E5
  8
0
 10
403.28234024346852
 20
334.56900380559421
 30
0.0
  0
VERTEX
  5
107E6
  8
0
 10
403.3127143978686
 20
334.55435596409421
 30
0.0
  0
VERTEX
  5
107E7
  8
0
 10
403.33986647824798
 20
334.6993359833225
 30
0.0
  0
SEQEND
  5
107E8
  8
0
  0
POLYLINE
  5
F645
  8
0
 66
     1
 10
0.0
 20
0.0
 30
0.0
 70
   128
  0
VERTEX
  5
107E9
  8
0
 10
403.43194231386849
 20
337.48441599309422
 30
0.0
  0
VERTEX
  5
107EA
  8
0
 10
403.40154953296849
 20
337.5078555196942
 30
0.0
  0
VERTEX
  5
107EB
  8
0
 10
403.35895083836863
 20
337.35288344329422
 30
0.0
  0
VERTEX
  5
107EC
  8
0
 10
403.31303849816851
 20
337.06301115459422
 30
0.0
  0
VERTEX
  5
107ED
  8
0
 10
403.26741300516852
 20
336.63630150259422
 30
0.0
  0
VERTEX
  5
107EE
  8
0
 10
403.23710404336862
 20
336.17208562799419
 30
0.0
  0
VERTEX
  5
107EF
  8
0
 10
403.23137268416849
 20
336.03731952609422
 30
0.0
  0
SEQEND
  5
107F0
  8
0
  0
POLYLINE
  5
F646
  8
0
 66
     1
 10
0.0
 20
0.0
 30
0.0
 70
   128
  0
VERTEX
  5
107F1
  8
0
 10
402.85756029186848
 20
349.65105019509417
 30
0.0
  0
VERTEX
  5
107F2
  8
0
 10
402.93475203216838
 20
349.06592629849422
 30
0.0
  0
VERTEX
  5
107F3
  8
0
 10
403.03009152406861
 20
348.62950108949423
 30
0.0
  0
VERTEX
  5
107F4
  8
0
 10
403.13303805886852
 20
348.3187373727942
 30
0.0
  0
VERTEX
  5
107F5
  8
0
 10
403.24930436906851
 20
348.12877736989418
 30
0.0
  0
VERTEX
  5
107F6
  8
0
 10
403.3594164996685
 20
348.11654351659422
 30
0.0
  0
VERTEX
  5
107F7
  8
0
 10
403.46112251276861
 20
348.27336333699418
 30
0.0
  0
VERTEX
  5
107F8
  8
0
 10
403.54417227206858
 20
348.5974635928942
 30
0.0
  0
VERTEX
  5
107F9
  8
0
 10
403.5911966114686
 20
349.0101661533941
 30
0.0
  0
VERTEX
  5
107FA
  8
0
 10
403.59842367466848
 20
349.5571281760943
 30
0.0
  0
VERTEX
  5
107FB
  8
0
 10
403.55573557316842
 20
350.04576705399421
 30
0.0
  0
VERTEX
  5
107FC
  8
0
 10
403.47108393906859
 20
350.48386119309419
 30
0.0
  0
VERTEX
  5
107FD
  8
0
 10
403.34474258116859
 20
350.84664486349419
 30
0.0
  0
VERTEX
  5
107FE
  8
0
 10
403.20620276026852
 20
351.05129741139422
 30
0.0
  0
VERTEX
  5
107FF
  8
0
 10
403.06360051036847
 20
351.09920464459418
 30
0.0
  0
VERTEX
  5
10800
  8
0
 10
402.94479355216862
 20
350.96867047249418
 30
0.0
  0
VERTEX
  5
10801
  8
0
 10
402.86544859406848
 20
350.68823061889418
 30
0.0
  0
VERTEX
  5
10802
  8
0
 10
402.83037871116858
 20
350.26715360589412
 30
0.0
  0
VERTEX
  5
10803
  8
0
 10
402.84494832156861
 20
349.80462156239417
 30
0.0
  0
VERTEX
  5
10804
  8
0
 10
402.85756029186848
 20
349.65105019509417
 30
0.0
  0
SEQEND
  5
10805
  8
0
  0
POLYLINE
  5
F647
  8
0
 66
     1
 10
0.0
 20
0.0
 30
0.0
 70
   128
  0
VERTEX
  5
10806
  8
0
 10
398.03228583186859
 20
340.61096273369418
 30
0.0
  0
VERTEX
  5
10807
  8
0
 10
398.0812445282686
 20
340.07046781479409
 30
0.0
  0
VERTEX
  5
10808
  8
0
 10
398.25885985046853
 20
339.6287079900942
 30
0.0
  0
VERTEX
  5
10809
  8
0
 10
398.51433932776848
 20
339.31538127369419
 30
0.0
  0
VERTEX
  5
1080A
  8
0
 10
398.84858634316851
 20
339.12445269529422
 30
0.0
  0
VERTEX
  5
1080B
  8
0
 10
399.17835742226862
 20
339.11412619059422
 30
0.0
  0
VERTEX
  5
1080C
  8
0
 10
399.48495812706869
 20
339.25889097159421
 30
0.0
  0
VERTEX
  5
1080D
  8
0
 10
399.75843913846859
 20
339.56737481059417
 30
0.0
  0
VERTEX
  5
1080E
  8
0
 10
399.94184449306857
 20
339.9797495454942
 30
0.0
  0
VERTEX
  5
1080F
  8
0
 10
400.04046596586858
 20
340.4756005853942
 30
0.0
  0
VERTEX
  5
10810
  8
0
 10
400.04947185516852
 20
340.6104113906942
 30
0.0
  0
VERTEX
  5
10811
  8
0
 10
400.01242384306852
 20
341.14989303059423
 30
0.0
  0
VERTEX
  5
10812
  8
0
 10
399.87640976906857
 20
341.59448407589429
 30
0.0
  0
VERTEX
  5
10813
  8
0
 10
399.64363872996847
 20
341.92485772079419
 30
0.0
  0
VERTEX
  5
10814
  8
0
 10
399.36994537706869
 20
342.08440445369422
 30
0.0
  0
VERTEX
  5
10815
  8
0
 10
399.03594702476857
 20
342.10265837609421
 30
0.0
  0
VERTEX
  5
10816
  8
0
 10
398.69033880526848
 20
341.94938503209431
 30
0.0
  0
VERTEX
  5
10817
  8
0
 10
398.3954010530685
 20
341.65849946439431
 30
0.0
  0
VERTEX
  5
10818
  8
0
 10
398.15868493166857
 20
341.23056791729408
 30
0.0
  0
VERTEX
  5
10819
  8
0
 10
398.04203957316849
 20
340.73950015009422
 30
0.0
  0
VERTEX
  5
1081A
  8
0
 10
398.03228583186859
 20
340.61096273369418
 30
0.0
  0
SEQEND
  5
1081B
  8
0
  0
POLYLINE
  5
F648
  8
0
 66
     1
 10
0.0
 20
0.0
 30
0.0
 70
   128
  0
VERTEX
  5
1081C
  8
0
 10
401.04388967156859
 20
345.19454501569419
 30
0.0
  0
VERTEX
  5
1081D
  8
0
 10
401.06379017226851
 20
344.6833904832942
 30
0.0
  0
VERTEX
  5
1081E
  8
0
 10
401.16768851876861
 20
344.2285027354942
 30
0.0
  0
VERTEX
  5
1081F
  8
0
 10
401.32607296106852
 20
343.89949999749422
 30
0.0
  0
VERTEX
  5
10820
  8
0
 10
401.53588503596848
 20
343.68978105489418
 30
0.0
  0
VERTEX
  5
10821
  8
0
 10
401.75049528476848
 20
343.66045556969408
 30
0.0
  0
VERTEX
  5
10822
  8
0
 10
401.94988586006849
 20
343.79773996769421
 30
0.0
  0
VERTEX
  5
10823
  8
0
 10
402.12174654006861
 20
344.10227499909422
 30
0.0
  0
VERTEX
  5
10824
  8
0
 10
402.23471783096858
 20
344.49661932889421
 30
0.0
  0
VERTEX
  5
10825
  8
0
 10
402.30391137296851
 20
344.9784781783942
 30
0.0
  0
VERTEX
  5
10826
  8
0
 10
402.3149028419686
 20
345.15164457269418
 30
0.0
  0
VERTEX
  5
10827
  8
0
 10
402.30626761906859
 20
345.66366337239418
 30
0.0
  0
VERTEX
  5
10828
  8
0
 10
402.23659351466858
 20
346.11875973649421
 30
0.0
  0
VERTEX
  5
10829
  8
0
 10
402.10211612276862
 20
346.47220037879418
 30
0.0
  0
VERTEX
  5
1082A
  8
0
 10
401.92636437706869
 20
346.66013382379418
 30
0.0
  0
VERTEX
  5
1082B
  8
0
 10
401.70654803506858
 20
346.68941460549422
 30
0.0
  0
VERTEX
  5
1082C
  8
0
 10
401.48591585456859
 20
346.5380784124942
 30
0.0
  0
VERTEX
  5
1082D
  8
0
 10
401.29757821556848
 20
346.2553139775942
 30
0.0
  0
VERTEX
  5
1082E
  8
0
 10
401.13801285616859
 20
345.83106301729413
 30
0.0
  0
VERTEX
  5
1082F
  8
0
 10
401.0531973093685
 20
345.3385051339942
 30
0.0
  0
VERTEX
  5
10830
  8
0
 10
401.04388967156859
 20
345.19454501569419
 30
0.0
  0
SEQEND
  5
10831
  8
0
  0
POLYLINE
  5
F649
  8
0
 66
     1
 10
0.0
 20
0.0
 30
0.0
 70
   128
  0
VERTEX
  5
10832
  8
0
 10
402.5795269756685
 20
340.58944545689423
 30
0.0
  0
VERTEX
  5
10833
  8
0
 10
402.58112512526861
 20
340.07447622719422
 30
0.0
  0
VERTEX
  5
10834
  8
0
 10
402.62942537656858
 20
339.61933515969417
 30
0.0
  0
VERTEX
  5
10835
  8
0
 10
402.71010957656858
 20
339.28647302099421
 30
0.0
  0
VERTEX
  5
10836
  8
0
 10
402.81659513706848
 20
339.08977769319421
 30
0.0
  0
VERTEX
  5
10837
  8
0
 10
402.92236171656839
 20
339.0773948281942
 30
0.0
  0
VERTEX
  5
10838
  8
0
 10
403.02174873646851
 20
339.22622762629419
 30
0.0
  0
VERTEX
  5
10839
  8
0
 10
403.10937501486859
 20
339.5399566739942
 30
0.0
  0
VERTEX
  5
1083A
  8
0
 10
403.16993892186861
 20
339.9400826543943
 30
0.0
  0
VERTEX
  5
1083B
  8
0
 10
403.21122631426852
 20
340.42438529439431
 30
0.0
  0
VERTEX
  5
1083C
  8
0
 10
403.21770086876859
 20
340.55246077479421
 30
0.0
  0
VERTEX
  5
1083D
  8
0
 10
403.22588719426852
 20
341.05614982549412
 30
0.0
  0
VERTEX
  5
1083E
  8
0
 10
403.20534594356849
 20
341.50258861489419
 30
0.0
  0
VERTEX
  5
1083F
  8
0
 10
403.15163470796853
 20
341.8509181588941
 30
0.0
  0
VERTEX
  5
10840
  8
0
 10
403.0720327048686
 20
342.03408323229422
 30
0.0
  0
VERTEX
  5
10841
  8
0
 10
402.96427868306858
 20
342.06007085749422
 30
0.0
  0
VERTEX
  5
10842
  8
0
 10
402.84536182876849
 20
341.90840683879418
 30
0.0
  0
VERTEX
  5
10843
  8
0
 10
402.73512676356847
 20
341.61948822439422
 30
0.0
  0
VERTEX
  5
10844
  8
0
 10
402.63938866556862
 20
341.19291268289419
 30
0.0
  0
VERTEX
  5
10845
  8
0
 10
402.58705019946859
 20
340.72737060489419
 30
0.0
  0
VERTEX
  5
10846
  8
0
 10
402.5795269756685
 20
340.58944545689423
 30
0.0
  0
SEQEND
  5
10847
  8
0
  0
POLYLINE
  5
F64A
  8
0
 66
     1
 10
0.0
 20
0.0
 30
0.0
 70
   128
  0
VERTEX
  5
10848
  8
0
 10
401.01170316336862
 20
304.53338883819413
 30
0.0
  0
VERTEX
  5
10849
  8
0
 10
401.01814419026869
 20
304.03477363289409
 30
0.0
  0
VERTEX
  5
1084A
  8
0
 10
401.08266435556851
 20
303.59355024999422
 30
0.0
  0
VERTEX
  5
1084B
  8
0
 10
401.18467025456852
 20
303.27554456889419
 30
0.0
  0
VERTEX
  5
1084C
  8
0
 10
401.32048688826848
 20
303.0752878636942
 30
0.0
  0
VERTEX
  5
1084D
  8
0
 10
401.45718827836851
 20
303.05409841239418
 30
0.0
  0
VERTEX
  5
1084E
  8
0
 10
401.58187374466848
 20
303.19483242929408
 30
0.0
  0
VERTEX
  5
1084F
  8
0
 10
401.69009715316849
 20
303.49967293449407
 30
0.0
  0
VERTEX
  5
10850
  8
0
 10
401.76448561246849
 20
303.90385948129421
 30
0.0
  0
VERTEX
  5
10851
  8
0
 10
401.81199610226838
 20
304.39186505979421
 30
0.0
  0
VERTEX
  5
10852
  8
0
 10
401.81999616316853
 20
304.54710535709421
 30
0.0
  0
VERTEX
  5
10853
  8
0
 10
401.82357616716848
 20
305.03904484219419
 30
0.0
  0
VERTEX
  5
10854
  8
0
 10
401.79339013986862
 20
305.4742928594942
 30
0.0
  0
VERTEX
  5
10855
  8
0
 10
401.72309204936857
 20
305.8188598602942
 30
0.0
  0
VERTEX
  5
10856
  8
0
 10
401.62247382096848
 20
305.99847100679409
 30
0.0
  0
VERTEX
  5
10857
  8
0
 10
401.4883279799684
 20
306.02413080639423
 30
0.0
  0
VERTEX
  5
10858
  8
0
 10
401.34017877276852
 20
305.8738972991942
 30
0.0
  0
VERTEX
  5
10859
  8
0
 10
401.20452046386862
 20
305.58719150729422
 30
0.0
  0
VERTEX
  5
1085A
  8
0
 10
401.08664669096862
 20
305.16290329399419
 30
0.0
  0
VERTEX
  5
1085B
  8
0
 10
401.02092884476849
 20
304.6839054673942
 30
0.0
  0
VERTEX
  5
1085C
  8
0
 10
401.01170316336862
 20
304.53338883819413
 30
0.0
  0
SEQEND
  5
1085D
  8
0
  0
POLYLINE
  5
F64B
  8
0
 66
     1
 10
0.0
 20
0.0
 30
0.0
 70
   128
  0
VERTEX
  5
1085E
  8
0
 10
399.14363771676858
 20
309.05982516709417
 30
0.0
  0
VERTEX
  5
1085F
  8
0
 10
399.17938373976858
 20
308.47085677089422
 30
0.0
  0
VERTEX
  5
10860
  8
0
 10
399.31502155956861
 20
308.04098807279422
 30
0.0
  0
VERTEX
  5
10861
  8
0
 10
399.51029196376862
 20
307.73844979709418
 30
0.0
  0
VERTEX
  5
10862
  8
0
 10
399.76250529286858
 20
307.56508968779423
 30
0.0
  0
VERTEX
  5
10863
  8
0
 10
400.01039914786861
 20
307.57021568719409
 30
0.0
  0
VERTEX
  5
10864
  8
0
 10
400.24442002176852
 20
307.73624442519417
 30
0.0
  0
VERTEX
  5
10865
  8
0
 10
400.44233724466858
 20
308.06350372739422
 30
0.0
  0
VERTEX
  5
10866
  8
0
 10
400.57088583706849
 20
308.47774110739419
 30
0.0
  0
VERTEX
  5
10867
  8
0
 10
400.6441902368685
 20
309.03413556519422
 30
0.0
  0
VERTEX
  5
10868
  8
0
 10
400.63129141926851
 20
309.53123830259409
 30
0.0
  0
VERTEX
  5
10869
  8
0
 10
400.54841302326849
 20
309.97322164479419
 30
0.0
  0
VERTEX
  5
1086A
  8
0
 10
400.39101950816848
 20
310.31961403789421
 30
0.0
  0
VERTEX
  5
1086B
  8
0
 10
400.18982589236862
 20
310.50051413479412
 30
0.0
  0
VERTEX
  5
1086C
  8
0
 10
399.93966892356849
 20
310.53140424199421
 30
0.0
  0
VERTEX
  5
1086D
  8
0
 10
399.67740103596861
 20
310.3875633329942
 30
0.0
  0
VERTEX
  5
1086E
  8
0
 10
399.44761395446858
 20
310.10597608989423
 30
0.0
  0
VERTEX
  5
1086F
  8
0
 10
399.25631843506858
 20
309.68634448949422
 30
0.0
  0
VERTEX
  5
10870
  8
0
 10
399.15606155986859
 20
309.21055041259422
 30
0.0
  0
VERTEX
  5
10871
  8
0
 10
399.14363771676858
 20
309.05982516709417
 30
0.0
  0
SEQEND
  5
10872
  8
0
  0
POLYLINE
  5
F64C
  8
0
 66
     1
 10
0.0
 20
0.0
 30
0.0
 70
   128
  0
VERTEX
  5
10873
  8
0
 10
402.57979333396861
 20
318.05060468619422
 30
0.0
  0
VERTEX
  5
10874
  8
0
 10
402.56945565336849
 20
317.54934452479409
 30
0.0
  0
VERTEX
  5
10875
  8
0
 10
402.57673487066847
 20
317.10807643839422
 30
0.0
  0
VERTEX
  5
10876
  8
0
 10
402.59425491086859
 20
316.7901899665942
 30
0.0
  0
VERTEX
  5
10877
  8
0
 10
402.61604040856849
 20
316.59797988839421
 30
0.0
  0
VERTEX
  5
10878
  8
0
 10
402.61709472465549
 20
316.59726448773949
 30
0.0
  0
SEQEND
  5
10879
  8
0
  0
POLYLINE
  5
F64D
  8
0
 66
     1
 10
0.0
 20
0.0
 30
0.0
 70
   128
  0
VERTEX
  5
1087A
  8
0
 10
402.73492125127672
 20
319.54827107920141
 30
0.0
  0
VERTEX
  5
1087B
  8
0
 10
402.7019921689685
 20
319.39309500159408
 30
0.0
  0
VERTEX
  5
1087C
  8
0
 10
402.6609655469685
 20
319.10195611419419
 30
0.0
  0
VERTEX
  5
1087D
  8
0
 10
402.6172138750685
 20
318.67430768909412
 30
0.0
  0
VERTEX
  5
1087E
  8
0
 10
402.5860089808686
 20
318.1955482810942
 30
0.0
  0
VERTEX
  5
1087F
  8
0
 10
402.57979333396861
 20
318.05060468619422
 30
0.0
  0
SEQEND
  5
10880
  8
0
  0
POLYLINE
  5
F64E
  8
0
 66
     1
 10
0.0
 20
0.0
 30
0.0
 70
   128
  0
VERTEX
  5
10881
  8
0
 10
401.4180205761686
 20
313.52719329299418
 30
0.0
  0
VERTEX
  5
10882
  8
0
 10
401.4234296976685
 20
313.0259182304942
 30
0.0
  0
VERTEX
  5
10883
  8
0
 10
401.48457847536861
 20
312.58280239999419
 30
0.0
  0
VERTEX
  5
10884
  8
0
 10
401.58239342266859
 20
312.26271055639421
 30
0.0
  0
VERTEX
  5
10885
  8
0
 10
401.71218812466839
 20
312.06518076359419
 30
0.0
  0
VERTEX
  5
10886
  8
0
 10
401.84165127566848
 20
312.0481636375942
 30
0.0
  0
VERTEX
  5
10887
  8
0
 10
401.96009501806861
 20
312.19137869779422
 30
0.0
  0
VERTEX
  5
10888
  8
0
 10
402.06311419606851
 20
312.49785088009418
 30
0.0
  0
VERTEX
  5
10889
  8
0
 10
402.13362835346851
 20
312.90049515669421
 30
0.0
  0
VERTEX
  5
1088A
  8
0
 10
402.17889621846848
 20
313.38619850579408
 30
0.0
  0
VERTEX
  5
1088B
  8
0
 10
402.18661129466858
 20
313.54114077989431
 30
0.0
  0
VERTEX
  5
1088C
  8
0
 10
402.19035148616848
 20
314.03761766859418
 30
0.0
  0
VERTEX
  5
1088D
  8
0
 10
402.16123834246849
 20
314.47653137149422
 30
0.0
  0
VERTEX
  5
1088E
  8
0
 10
402.09375284606853
 20
314.81913886969409
 30
0.0
  0
VERTEX
  5
1088F
  8
0
 10
401.99789740136862
 20
314.99549411239423
 30
0.0
  0
VERTEX
  5
10890
  8
0
 10
401.8701292573686
 20
315.0178756564942
 30
0.0
  0
VERTEX
  5
10891
  8
0
 10
401.73003412776848
 20
314.86500464379418
 30
0.0
  0
VERTEX
  5
10892
  8
0
 10
401.60184316336853
 20
314.57785926759419
 30
0.0
  0
VERTEX
  5
10893
  8
0
 10
401.48974917826848
 20
314.15336988869421
 30
0.0
  0
VERTEX
  5
10894
  8
0
 10
401.42679736016862
 20
313.67419324819417
 30
0.0
  0
VERTEX
  5
10895
  8
0
 10
401.4180205761686
 20
313.52719329299418
 30
0.0
  0
SEQEND
  5
10896
  8
0
  0
POLYLINE
  5
F64F
  8
0
 66
     1
 10
0.0
 20
0.0
 30
0.0
 70
   128
  0
VERTEX
  5
10897
  8
0
 10
400.18200650806853
 20
327.04086266459421
 30
0.0
  0
VERTEX
  5
10898
  8
0
 10
400.2090074121686
 20
326.45192407079418
 30
0.0
  0
VERTEX
  5
10899
  8
0
 10
400.32772123806848
 20
326.02244280279422
 30
0.0
  0
VERTEX
  5
1089A
  8
0
 10
400.50118565556858
 20
325.72076879449418
 30
0.0
  0
VERTEX
  5
1089B
  8
0
 10
400.72588771576852
 20
325.55009089409418
 30
0.0
  0
VERTEX
  5
1089C
  8
0
 10
400.94570592046841
 20
325.55853985249422
 30
0.0
  0
VERTEX
  5
1089D
  8
0
 10
401.15269608796848
 20
325.72567127649421
 30
0.0
  0
VERTEX
  5
1089E
  8
0
 10
401.32942199706861
 20
326.05349682279422
 30
0.0
  0
VERTEX
  5
1089F
  8
0
 10
401.44524313506849
 20
326.46867297589409
 30
0.0
  0
VERTEX
  5
108A0
  8
0
 10
401.50971859686859
 20
326.96741484109418
 30
0.0
  0
VERTEX
  5
108A1
  8
0
 10
401.51315145186851
 20
327.03020833439422
 30
0.0
  0
VERTEX
  5
108A2
  8
0
 10
401.50423496956859
 20
327.52924822279419
 30
0.0
  0
VERTEX
  5
108A3
  8
0
 10
401.43332593136842
 20
327.9721554368943
 30
0.0
  0
VERTEX
  5
108A4
  8
0
 10
401.29644572726852
 20
328.31714712089422
 30
0.0
  0
VERTEX
  5
108A5
  8
0
 10
401.11959874626848
 20
328.4959759563942
 30
0.0
  0
VERTEX
  5
108A6
  8
0
 10
400.89826434846862
 20
328.52254472679419
 30
0.0
  0
VERTEX
  5
108A7
  8
0
 10
400.66734477876872
 20
328.37454639379411
 30
0.0
  0
VERTEX
  5
108A8
  8
0
 10
400.46431459486848
 20
328.09351049369423
 30
0.0
  0
VERTEX
  5
108A9
  8
0
 10
400.29049068686851
 20
327.67432592809422
 30
0.0
  0
VERTEX
  5
108AA
  8
0
 10
400.19459426396861
 20
327.1920349448942
 30
0.0
  0
VERTEX
  5
108AB
  8
0
 10
400.18200650806853
 20
327.04086266459421
 30
0.0
  0
SEQEND
  5
108AC
  8
0
  0
POLYLINE
  5
F650
  8
0
 66
     1
 10
0.0
 20
0.0
 30
0.0
 70
   128
  0
VERTEX
  5
108AD
  8
0
 10
401.81892327956859
 20
322.52691350879422
 30
0.0
  0
VERTEX
  5
108AE
  8
0
 10
401.82291120286851
 20
322.02535532419421
 30
0.0
  0
VERTEX
  5
108AF
  8
0
 10
401.87928229566847
 20
321.58204577869418
 30
0.0
  0
VERTEX
  5
108B0
  8
0
 10
401.97046622626863
 20
321.26170061529422
 30
0.0
  0
VERTEX
  5
108B1
  8
0
 10
402.09207087746859
 20
321.06412611909423
 30
0.0
  0
VERTEX
  5
108B2
  8
0
 10
402.2137723862686
 20
321.04722820229421
 30
0.0
  0
VERTEX
  5
108B3
  8
0
 10
402.32535041866851
 20
321.19071148339413
 30
0.0
  0
VERTEX
  5
108B4
  8
0
 10
402.4223979561686
 20
321.49727307259423
 30
0.0
  0
VERTEX
  5
108B5
  8
0
 10
402.48872302466862
 20
321.8987997621943
 30
0.0
  0
VERTEX
  5
108B6
  8
0
 10
402.53131799396851
 20
322.38328121609408
 30
0.0
  0
VERTEX
  5
108B7
  8
0
 10
402.53859162326847
 20
322.53895364709422
 30
0.0
  0
VERTEX
  5
108B8
  8
0
 10
402.54186242816849
 20
323.03532622759423
 30
0.0
  0
VERTEX
  5
108B9
  8
0
 10
402.5141518562686
 20
323.47398661079421
 30
0.0
  0
VERTEX
  5
108BA
  8
0
 10
402.4505145847686
 20
323.81789050999419
 30
0.0
  0
VERTEX
  5
108BB
  8
0
 10
402.35995091496852
 20
323.9965852349942
 30
0.0
  0
VERTEX
  5
108BC
  8
0
 10
402.23984755576862
 20
324.01832602919421
 30
0.0
  0
VERTEX
  5
108BD
  8
0
 10
402.10992246866857
 20
323.86369667949418
 30
0.0
  0
VERTEX
  5
108BE
  8
0
 10
401.99177861206857
 20
323.5777731984943
 30
0.0
  0
VERTEX
  5
108BF
  8
0
 10
401.8872395157685
 20
323.15420769159408
 30
0.0
  0
VERTEX
  5
108C0
  8
0
 10
401.82735919946862
 20
322.67290018499421
 30
0.0
  0
VERTEX
  5
108C1
  8
0
 10
401.81892327956859
 20
322.52691350879422
 30
0.0
  0
SEQEND
  5
108C2
  8
0
  0
ARC
  5
F651
  8
0
 10
406.92878466716382
 20
326.50054014028302
 30
0.0
 40
4.056277397111077
 50
172.24588606265129
 51
192.9789259717117
  0
POLYLINE
  5
F652
  8
0
 66
     1
 10
0.0
 20
0.0
 30
0.0
 70
   128
  0
VERTEX
  5
108C3
  8
0
 10
403.09300902989162
 20
328.51670480390351
 30
0.0
  0
VERTEX
  5
108C4
  8
0
 10
403.09292599556841
 20
328.51883433759423
 30
0.0
  0
VERTEX
  5
108C5
  8
0
 10
403.0686184763685
 20
328.53799723089418
 30
0.0
  0
VERTEX
  5
108C6
  8
0
 10
403.03044542666862
 20
328.3803131431942
 30
0.0
  0
VERTEX
  5
108C7
  8
0
 10
402.98775173716848
 20
328.08917425579421
 30
0.0
  0
VERTEX
  5
108C8
  8
0
 10
402.94447690246852
 20
327.66180895269417
 30
0.0
  0
VERTEX
  5
108C9
  8
0
 10
402.91516818106851
 20
327.18872688719421
 30
0.0
  0
VERTEX
  5
108CA
  8
0
 10
402.9095970093685
 20
327.04782150689419
 30
0.0
  0
VERTEX
  5
108CB
  8
0
 10
402.9095970093685
 20
327.04782150689419
 30
0.0
  0
SEQEND
  5
108CC
  8
0
  0
POLYLINE
  5
F653
  8
0
 66
     1
 10
0.0
 20
0.0
 30
0.0
 70
   128
  0
VERTEX
  5
108CD
  8
0
 10
399.6531698852686
 20
318.04445050659422
 30
0.0
  0
VERTEX
  5
108CE
  8
0
 10
399.67083334916862
 20
317.54351817079419
 30
0.0
  0
VERTEX
  5
108CF
  8
0
 10
399.78260137136851
 20
317.0982863753942
 30
0.0
  0
VERTEX
  5
108D0
  8
0
 10
399.9567940830687
 20
316.77624247969408
 30
0.0
  0
VERTEX
  5
108D1
  8
0
 10
400.1913998275686
 20
316.57193265859422
 30
0.0
  0
VERTEX
  5
108D2
  8
0
 10
400.4320275037685
 20
316.54679439969408
 30
0.0
  0
VERTEX
  5
108D3
  8
0
 10
400.65723620346853
 20
316.68322943159421
 30
0.0
  0
VERTEX
  5
108D4
  8
0
 10
400.85542351006848
 20
316.98387525979422
 30
0.0
  0
VERTEX
  5
108D5
  8
0
 10
400.98865665486858
 20
317.38119982189431
 30
0.0
  0
VERTEX
  5
108D6
  8
0
 10
401.06797181066838
 20
317.8625818341942
 30
0.0
  0
VERTEX
  5
108D7
  8
0
 10
401.07962079346862
 20
318.02774630489421
 30
0.0
  0
VERTEX
  5
108D8
  8
0
 10
401.06881931416859
 20
318.52861903609409
 30
0.0
  0
VERTEX
  5
108D9
  8
0
 10
400.99080987266848
 20
318.97334419199422
 30
0.0
  0
VERTEX
  5
108DA
  8
0
 10
400.84228441116841
 20
319.31665204469408
 30
0.0
  0
VERTEX
  5
108DB
  8
0
 10
400.65315887326852
 20
319.49297748509417
 30
0.0
  0
VERTEX
  5
108DC
  8
0
 10
400.4163086413684
 20
319.52047012749421
 30
0.0
  0
VERTEX
  5
108DD
  8
0
 10
400.16748532646852
 20
319.37443874779422
 30
0.0
  0
VERTEX
  5
108DE
  8
0
 10
399.94749762116862
 20
319.09060142939421
 30
0.0
  0
VERTEX
  5
108DF
  8
0
 10
399.76346828036861
 20
318.66964362569422
 30
0.0
  0
VERTEX
  5
108E0
  8
0
 10
399.66544844206862
 20
318.19177828729408
 30
0.0
  0
VERTEX
  5
108E1
  8
0
 10
399.6531698852686
 20
318.04445050659422
 30
0.0
  0
SEQEND
  5
108E2
  8
0
  0
POLYLINE
  5
F654
  8
0
 66
     1
 10
0.0
 20
0.0
 30
0.0
 70
   128
  0
VERTEX
  5
108E3
  8
0
 10
401.24775804576848
 20
354.09806333489411
 30
0.0
  0
VERTEX
  5
108E4
  8
0
 10
401.02518685156861
 20
354.56539355219422
 30
0.0
  0
VERTEX
  5
108E5
  8
0
 10
400.73231197886849
 20
354.97933290899408
 30
0.0
  0
VERTEX
  5
108E6
  8
0
 10
400.4207324236686
 20
355.2782353013942
 30
0.0
  0
VERTEX
  5
108E7
  8
0
 10
400.09218230836848
 20
355.46035729349421
 30
0.0
  0
VERTEX
  5
108E8
  8
0
 10
399.82699193056862
 20
355.47636114069422
 30
0.0
  0
VERTEX
  5
108E9
  8
0
 10
399.63325634596868
 20
355.35111688079422
 30
0.0
  0
VERTEX
  5
108EA
  8
0
 10
399.52111579476849
 20
355.07496856159412
 30
0.0
  0
VERTEX
  5
108EB
  8
0
 10
399.52425807706868
 20
354.7004874795943
 30
0.0
  0
VERTEX
  5
108EC
  8
0
 10
399.63608197866859
 20
354.2494889348942
 30
0.0
  0
VERTEX
  5
108ED
  8
0
 10
399.68450888986848
 20
354.12248633809418
 30
0.0
  0
VERTEX
  5
108EE
  8
0
 10
399.91432391106861
 20
353.66925261919408
 30
0.0
  0
VERTEX
  5
108EF
  8
0
 10
400.20189024506863
 20
353.26338969179409
 30
0.0
  0
VERTEX
  5
108F0
  8
0
 10
400.52856467656852
 20
352.94054113329418
 30
0.0
  0
VERTEX
  5
108F1
  8
0
 10
400.82271918646842
 20
352.76843272149421
 30
0.0
  0
VERTEX
  5
108F2
  8
0
 10
401.0923650115684
 20
352.73378752179423
 30
0.0
  0
VERTEX
  5
108F3
  8
0
 10
401.28988362846849
 20
352.86238454289418
 30
0.0
  0
VERTEX
  5
108F4
  8
0
 10
401.3913996517685
 20
353.12038324779422
 30
0.0
  0
VERTEX
  5
108F5
  8
0
 10
401.3980995863684
 20
353.50925885149422
 30
0.0
  0
VERTEX
  5
108F6
  8
0
 10
401.29778683186839
 20
353.95574234429421
 30
0.0
  0
VERTEX
  5
108F7
  8
0
 10
401.24775804576848
 20
354.09806333489411
 30
0.0
  0
SEQEND
  5
108F8
  8
0
  0
POLYLINE
  5
F655
  8
0
 66
     1
 10
0.0
 20
0.0
 30
0.0
 70
   128
  0
VERTEX
  5
108F9
  8
0
 10
395.65710313616859
 20
304.6839054673942
 30
0.0
  0
VERTEX
  5
108FA
  8
0
 10
395.70529721676849
 20
304.13311384619419
 30
0.0
  0
VERTEX
  5
108FB
  8
0
 10
395.89716084296862
 20
303.6928664892942
 30
0.0
  0
VERTEX
  5
108FC
  8
0
 10
396.17788195606857
 20
303.37643288079408
 30
0.0
  0
VERTEX
  5
108FD
  8
0
 10
396.55311368406871
 20
303.1759601086942
 30
0.0
  0
VERTEX
  5
108FE
  8
0
 10
396.93468585606848
 20
303.15456204119431
 30
0.0
  0
VERTEX
  5
108FF
  8
0
 10
397.29454331096861
 20
303.29482667149421
 30
0.0
  0
VERTEX
  5
10900
  8
0
 10
397.60791752486853
 20
303.5991754382942
 30
0.0
  0
VERTEX
  5
10901
  8
0
 10
397.81538359816858
 20
303.99955473839418
 30
0.0
  0
VERTEX
  5
10902
  8
0
 10
397.92987853286849
 20
304.48833517729418
 30
0.0
  0
VERTEX
  5
10903
  8
0
 10
397.93899524956862
 20
304.59701679649419
 30
0.0
  0
VERTEX
  5
10904
  8
0
 10
397.89782986036857
 20
305.14656417079431
 30
0.0
  0
VERTEX
  5
10905
  8
0
 10
397.74783477186861
 20
305.57661168279429
 30
0.0
  0
VERTEX
  5
10906
  8
0
 10
397.48544394966848
 20
305.91529272499417
 30
0.0
  0
VERTEX
  5
10907
  8
0
 10
397.16245662416861
 20
306.09329454609423
 30
0.0
  0
VERTEX
  5
10908
  8
0
 10
396.77471723406859
 20
306.11949823799421
 30
0.0
  0
VERTEX
  5
10909
  8
0
 10
396.38963490716861
 20
305.97236417239418
 30
0.0
  0
VERTEX
  5
1090A
  8
0
 10
396.06047105036851
 20
305.68952523179422
 30
0.0
  0
VERTEX
  5
1090B
  8
0
 10
395.79560197886849
 20
305.26736788459419
 30
0.0
  0
VERTEX
  5
1090C
  8
0
 10
395.66768109796863
 20
304.79324273769419
 30
0.0
  0
VERTEX
  5
1090D
  8
0
 10
395.65710313616859
 20
304.6839054673942
 30
0.0
  0
SEQEND
  5
1090E
  8
0
  0
POLYLINE
  5
F656
  8
0
 66
     1
 10
0.0
 20
0.0
 30
0.0
 70
   128
  0
VERTEX
  5
1090F
  8
0
 10
398.65023326126851
 20
300.07900707429422
 30
0.0
  0
VERTEX
  5
10910
  8
0
 10
398.68922587476851
 20
299.4911115616942
 30
0.0
  0
VERTEX
  5
10911
  8
0
 10
398.83114174006857
 20
299.06255416579421
 30
0.0
  0
VERTEX
  5
10912
  8
0
 10
399.03377704316858
 20
298.76103661959422
 30
0.0
  0
VERTEX
  5
10913
  8
0
 10
399.29651617996859
 20
298.58514331289422
 30
0.0
  0
VERTEX
  5
10914
  8
0
 10
399.55628998576861
 20
298.58760200449422
 30
0.0
  0
VERTEX
  5
10915
  8
0
 10
399.80030208826861
 20
298.75227473679422
 30
0.0
  0
VERTEX
  5
10916
  8
0
 10
400.00551715486858
 20
299.0780215710941
 30
0.0
  0
VERTEX
  5
10917
  8
0
 10
400.1385360955685
 20
299.49129037559419
 30
0.0
  0
VERTEX
  5
10918
  8
0
 10
400.21363422266859
 20
300.04731230439421
 30
0.0
  0
VERTEX
  5
10919
  8
0
 10
400.19882619376853
 20
300.54215751589419
 30
0.0
  0
VERTEX
  5
1091A
  8
0
 10
400.11167302726852
 20
300.98251663149421
 30
0.0
  0
VERTEX
  5
1091B
  8
0
 10
399.94691088796861
 20
301.3303842395942
 30
0.0
  0
VERTEX
  5
1091C
  8
0
 10
399.7362680732686
 20
301.51357911529419
 30
0.0
  0
VERTEX
  5
1091D
  8
0
 10
399.47560951106863
 20
301.54648087919418
 30
0.0
  0
VERTEX
  5
1091E
  8
0
 10
399.20255504546861
 20
301.40477828689433
 30
0.0
  0
VERTEX
  5
1091F
  8
0
 10
398.96328337486858
 20
301.12408511349417
 30
0.0
  0
VERTEX
  5
10920
  8
0
 10
398.76524135466849
 20
300.70490054789423
 30
0.0
  0
VERTEX
  5
10921
  8
0
 10
398.66268876936851
 20
300.23045502609421
 30
0.0
  0
VERTEX
  5
10922
  8
0
 10
398.65023326126851
 20
300.07900707429422
 30
0.0
  0
SEQEND
  5
10923
  8
0
  0
POLYLINE
  5
F657
  8
0
 66
     1
 10
0.0
 20
0.0
 30
0.0
 70
   128
  0
VERTEX
  5
10924
  8
0
 10
397.53535725176857
 20
331.59508965909413
 30
0.0
  0
VERTEX
  5
10925
  8
0
 10
397.5768551229686
 20
331.04693554349421
 30
0.0
  0
VERTEX
  5
10926
  8
0
 10
397.7517537772685
 20
330.60867749159422
 30
0.0
  0
VERTEX
  5
10927
  8
0
 10
398.00646118816849
 20
330.2976604551942
 30
0.0
  0
VERTEX
  5
10928
  8
0
 10
398.3462393283686
 20
330.10260425509421
 30
0.0
  0
VERTEX
  5
10929
  8
0
 10
398.68997558946847
 20
330.08585534989419
 30
0.0
  0
VERTEX
  5
1092A
  8
0
 10
399.01329260316862
 20
330.22880218929419
 30
0.0
  0
VERTEX
  5
1092B
  8
0
 10
399.29693154986848
 20
330.53545318549408
 30
0.0
  0
VERTEX
  5
1092C
  8
0
 10
399.48587827376861
 20
330.93955777589417
 30
0.0
  0
VERTEX
  5
1092D
  8
0
 10
399.5920211076687
 20
331.42898641529422
 30
0.0
  0
VERTEX
  5
1092E
  8
0
 10
399.60267357526868
 20
331.55762813989418
 30
0.0
  0
VERTEX
  5
1092F
  8
0
 10
399.57141838966862
 20
332.10420273249417
 30
0.0
  0
VERTEX
  5
10930
  8
0
 10
399.4381982832686
 20
332.54547081889422
 30
0.0
  0
VERTEX
  5
10931
  8
0
 10
399.20531176026861
 20
332.8756656497942
 30
0.0
  0
VERTEX
  5
10932
  8
0
 10
398.92502278086857
 20
333.03945921369422
 30
0.0
  0
VERTEX
  5
10933
  8
0
 10
398.57974052426857
 20
333.06014202539421
 30
0.0
  0
VERTEX
  5
10934
  8
0
 10
398.2258742674685
 20
332.90967009969421
 30
0.0
  0
VERTEX
  5
10935
  8
0
 10
397.9198062791686
 20
332.62198828169409
 30
0.0
  0
VERTEX
  5
10936
  8
0
 10
397.67151009286857
 20
332.19656012959422
 30
0.0
  0
VERTEX
  5
10937
  8
0
 10
397.54658527666862
 20
331.7125108092942
 30
0.0
  0
VERTEX
  5
10938
  8
0
 10
397.53535725176857
 20
331.59508965909413
 30
0.0
  0
SEQEND
  5
10939
  8
0
  0
POLYLINE
  5
F658
  8
0
 66
     1
 10
0.0
 20
0.0
 30
0.0
 70
   128
  0
VERTEX
  5
1093A
  8
0
 10
396.90036103126857
 20
322.62105904519422
 30
0.0
  0
VERTEX
  5
1093B
  8
0
 10
396.94225005806862
 20
322.0697011798942
 30
0.0
  0
VERTEX
  5
1093C
  8
0
 10
397.12145328516868
 20
321.6297294944942
 30
0.0
  0
VERTEX
  5
1093D
  8
0
 10
397.3853901028686
 20
321.3148381560942
 30
0.0
  0
VERTEX
  5
1093E
  8
0
 10
397.7370398118685
 20
321.11882828179421
 30
0.0
  0
VERTEX
  5
1093F
  8
0
 10
398.09238594016858
 20
321.10163234179407
 30
0.0
  0
VERTEX
  5
10940
  8
0
 10
398.42990003526859
 20
321.24477289619409
 30
0.0
  0
VERTEX
  5
10941
  8
0
 10
398.72555583706873
 20
321.55206464239421
 30
0.0
  0
VERTEX
  5
10942
  8
0
 10
398.92285279926853
 20
321.95654176179409
 30
0.0
  0
VERTEX
  5
10943
  8
0
 10
399.03327319766862
 20
322.44668565699419
 30
0.0
  0
VERTEX
  5
10944
  8
0
 10
399.0429542958687
 20
322.55801223219419
 30
0.0
  0
VERTEX
  5
10945
  8
0
 10
399.01066720486858
 20
323.10802899309419
 30
0.0
  0
VERTEX
  5
10946
  8
0
 10
398.87423962346861
 20
323.5423084348941
 30
0.0
  0
VERTEX
  5
10947
  8
0
 10
398.63349180666859
 20
323.87484274809418
 30
0.0
  0
VERTEX
  5
10948
  8
0
 10
398.33950772876858
 20
324.04413484039418
 30
0.0
  0
VERTEX
  5
10949
  8
0
 10
397.9789946227686
 20
324.06745515769421
 30
0.0
  0
VERTEX
  5
1094A
  8
0
 10
397.61141743506857
 20
323.91889058059422
 30
0.0
  0
VERTEX
  5
1094B
  8
0
 10
397.29297775766861
 20
323.63184951249423
 30
0.0
  0
VERTEX
  5
1094C
  8
0
 10
397.03703541306868
 20
323.20731543009418
 30
0.0
  0
VERTEX
  5
1094D
  8
0
 10
396.91140744826862
 20
322.73205779499409
 30
0.0
  0
VERTEX
  5
1094E
  8
0
 10
396.90036103126857
 20
322.62105904519422
 30
0.0
  0
SEQEND
  5
1094F
  8
0
  0
POLYLINE
  5
F659
  8
0
 66
     1
 10
0.0
 20
0.0
 30
0.0
 70
   128
  0
VERTEX
  5
10950
  8
0
 10
396.26945238556863
 20
313.65391276779422
 30
0.0
  0
VERTEX
  5
10951
  8
0
 10
396.31416518236858
 20
313.10718916359423
 30
0.0
  0
VERTEX
  5
10952
  8
0
 10
396.49915471666861
 20
312.6635070890942
 30
0.0
  0
VERTEX
  5
10953
  8
0
 10
396.7733127995686
 20
312.34314702459432
 30
0.0
  0
VERTEX
  5
10954
  8
0
 10
397.13668692856862
 20
312.14494667949418
 30
0.0
  0
VERTEX
  5
10955
  8
0
 10
397.5007763131685
 20
312.12673746049421
 30
0.0
  0
VERTEX
  5
10956
  8
0
 10
397.84738942976861
 20
312.26732991639409
 30
0.0
  0
VERTEX
  5
10957
  8
0
 10
398.15300945186863
 20
312.57205866279418
 30
0.0
  0
VERTEX
  5
10958
  8
0
 10
398.3578957616686
 20
312.97650597989423
 30
0.0
  0
VERTEX
  5
10959
  8
0
 10
398.47104214126853
 20
313.46711181109413
 30
0.0
  0
VERTEX
  5
1095A
  8
0
 10
398.4803600236686
 20
313.57657574119418
 30
0.0
  0
VERTEX
  5
1095B
  8
0
 10
398.44369851046849
 20
314.12221156069421
 30
0.0
  0
VERTEX
  5
1095C
  8
0
 10
398.30145202576858
 20
314.55261670059423
 30
0.0
  0
VERTEX
  5
1095D
  8
0
 10
398.04998375466857
 20
314.89111147829419
 30
0.0
  0
VERTEX
  5
1095E
  8
0
 10
397.73949477816859
 20
315.06840549409412
 30
0.0
  0
VERTEX
  5
1095F
  8
0
 10
397.3641829564686
 20
315.0949593633942
 30
0.0
  0
VERTEX
  5
10960
  8
0
 10
396.9884306191687
 20
314.94773589079421
 30
0.0
  0
VERTEX
  5
10961
  8
0
 10
396.66750989846861
 20
314.66528438039421
 30
0.0
  0
VERTEX
  5
10962
  8
0
 10
396.40784692016859
 20
314.24393914639421
 30
0.0
  0
VERTEX
  5
10963
  8
0
 10
396.28070741886859
 20
313.76951597639408
 30
0.0
  0
VERTEX
  5
10964
  8
0
 10
396.26945238556863
 20
313.65391276779422
 30
0.0
  0
SEQEND
  5
10965
  8
0
  0
POLYLINE
  5
F65A
  8
0
 66
     1
 10
0.0
 20
0.0
 30
0.0
 70
   128
  0
VERTEX
  5
10966
  8
0
 10
397.80652113256861
 20
349.65176545089417
 30
0.0
  0
VERTEX
  5
10967
  8
0
 10
397.95811995856849
 20
349.16068278259422
 30
0.0
  0
VERTEX
  5
10968
  8
0
 10
398.2191994785685
 20
348.73211048549422
 30
0.0
  0
VERTEX
  5
10969
  8
0
 10
398.53503797196862
 20
348.42887185519419
 30
0.0
  0
VERTEX
  5
1096A
  8
0
 10
398.9129137247686
 20
348.24287556119418
 30
0.0
  0
VERTEX
  5
1096B
  8
0
 10
399.27530996496853
 20
348.23247455069418
 30
0.0
  0
VERTEX
  5
1096C
  8
0
 10
399.58968162536848
 20
348.38392995299421
 30
0.0
  0
VERTEX
  5
1096D
  8
0
 10
399.8373221605687
 20
348.69907461109409
 30
0.0
  0
VERTEX
  5
1096E
  8
0
 10
399.9665375798686
 20
349.10955689849419
 30
0.0
  0
VERTEX
  5
1096F
  8
0
 10
399.98538754876859
 20
349.60110150279422
 30
0.0
  0
VERTEX
  5
10970
  8
0
 10
399.9652169644686
 20
349.76192973559421
 30
0.0
  0
VERTEX
  5
10971
  8
0
 10
399.82192181046861
 20
350.25566481059423
 30
0.0
  0
VERTEX
  5
10972
  8
0
 10
399.57609735426848
 20
350.6879772990942
 30
0.0
  0
VERTEX
  5
10973
  8
0
 10
399.23738464706872
 20
351.01936422289418
 30
0.0
  0
VERTEX
  5
10974
  8
0
 10
398.88265784826848
 20
351.18126533929421
 30
0.0
  0
VERTEX
  5
10975
  8
0
 10
398.50710947066852
 20
351.1895354837942
 30
0.0
  0
VERTEX
  5
10976
  8
0
 10
398.17136023186862
 20
351.02100335069417
 30
0.0
  0
VERTEX
  5
10977
  8
0
 10
397.93078191576859
 20
350.71514211599418
 30
0.0
  0
VERTEX
  5
10978
  8
0
 10
397.78968933966848
 20
350.27886591859419
 30
0.0
  0
VERTEX
  5
10979
  8
0
 10
397.78458382926851
 20
349.79638122029422
 30
0.0
  0
VERTEX
  5
1097A
  8
0
 10
397.80652113256861
 20
349.65176545089417
 30
0.0
  0
SEQEND
  5
1097B
  8
0
  0
POLYLINE
  5
F65C
  8
0
 66
     1
 10
0.0
 20
0.0
 30
0.0
 70
   128
  0
VERTEX
  5
1097C
  8
0
 10
401.29625201216862
 20
284.28403697909408
 30
0.0
  0
VERTEX
  5
1097D
  8
0
 10
401.14769116036848
 20
284.97961573309419
 30
0.0
  0
VERTEX
  5
1097E
  8
0
 10
400.87239220736859
 20
285.84590218969419
 30
0.0
  0
VERTEX
  5
1097F
  8
0
 10
400.53517706686853
 20
286.99183128779418
 30
0.0
  0
VERTEX
  5
10980
  8
0
 10
400.40653906756859
 20
287.73173354569423
 30
0.0
  0
VERTEX
  5
10981
  8
0
 10
400.37850253276861
 20
288.14775906509419
 30
0.0
  0
VERTEX
  5
10982
  8
0
 10
400.38719736036842
 20
288.57697956269419
 30
0.0
  0
VERTEX
  5
10983
  8
0
 10
400.43362006536859
 20
288.9968793839941
 30
0.0
  0
VERTEX
  5
10984
  8
0
 10
400.51230192176848
 20
289.38392959539419
 30
0.0
  0
VERTEX
  5
10985
  8
0
 10
400.72239711876858
 20
290.03019295639422
 30
0.0
  0
VERTEX
  5
10986
  8
0
 10
401.15765258666852
 20
290.9275408834942
 30
0.0
  0
VERTEX
  5
10987
  8
0
 10
401.4757402240686
 20
291.53343699879417
 30
0.0
  0
VERTEX
  5
10988
  8
0
 10
401.63438357406852
 20
291.9849198311943
 30
0.0
  0
VERTEX
  5
10989
  8
0
 10
401.63438357406852
 20
291.9849198311943
 30
0.0
  0
SEQEND
  5
1098A
  8
0
  0
ARC
  5
F68B
  8
0
 10
388.30733517606689
 20
45.544847860482179
 30
0.0
 40
247.73201620078339
 50
88.080481194071552
 51
89.505009077977718
  0
POLYLINE
  5
F68F
  8
0
 66
     1
 10
0.0
 20
0.0
 30
0.0
 70
   128
  0
VERTEX
  5
1098B
  8
0
 10
396.60528171806868
 20
293.13785247509418
 30
0.0
  0
VERTEX
  5
1098C
  8
0
 10
397.50184826546871
 20
293.0619459599942
 30
0.0
  0
VERTEX
  5
1098D
  8
0
 10
398.65524005136848
 20
292.89421848959421
 30
0.0
  0
VERTEX
  5
1098E
  8
0
 10
399.49196912346861
 20
292.65590421859417
 30
0.0
  0
VERTEX
  5
1098F
  8
0
 10
399.98225644226858
 20
292.33075343079418
 30
0.0
  0
VERTEX
  5
10990
  8
0
 10
400.13839080926863
 20
291.91050343219422
 30
0.0
  0
SEQEND
  5
10991
  8
0
  0
LINE
  5
F698
  8
0
 10
390.44752027836859
 20
274.81273226439419
 30
0.0
 11
396.44752778106857
 21
274.81273226439419
 31
0.0
  0
LINE
  5
F6A6
  8
0
 10
376.94751992816862
 20
184.31221218779419
 30
0.0
 11
376.94752006226861
 21
180.5627298038942
 31
0.0
  0
LINE
  5
F6A7
  8
0
 10
403.9475200622685
 20
180.5627298038942
 30
0.0
 11
403.9475206285685
 21
188.55157624929419
 31
0.0
  0
LINE
  5
F6A8
  8
0
 10
403.94752006236848
 20
244.06272980779411
 30
0.0
 11
403.94752006236848
 21
252.0627298077942
 31
0.0
  0
LINE
  5
F6A9
  8
0
 10
376.9475200623686
 20
244.06272980779411
 30
0.0
 11
376.9475200623686
 21
252.0627298077942
 31
0.0
  0
LINE
  5
F6AA
  8
0
 10
399.94751997286858
 20
212.31273040179411
 30
0.0
 11
399.94751997286858
 21
216.3127291947942
 31
0.0
  0
LINE
  5
F6AB
  8
0
 10
399.94751997286858
 20
216.3127291947942
 30
0.0
 11
399.94751997286858
 21
220.31272985049409
 31
0.0
  0
LINE
  5
F6AC
  8
0
 10
380.94752011816871
 20
216.3127291947942
 30
0.0
 11
380.94752011816871
 21
212.31273040179411
 31
0.0
  0
LINE
  5
F6AD
  8
0
 10
380.94752011816871
 20
220.31272985049409
 30
0.0
 11
380.94752011816871
 21
216.3127291947942
 31
0.0
  0
LINE
  5
F6B0
  8
0
 10
381.31617205216872
 20
203.81272993989421
 30
0.0
 11
383.44752006226861
 21
203.81272993989421
 31
0.0
  0
LINE
  5
F6B1
  8
0
 10
397.44752049446862
 20
203.81272993989421
 30
0.0
 11
399.57886897026862
 21
203.81272993989421
 31
0.0
  0
ARC
  5
F6B2
  8
0
 10
381.26411826806861
 20
206.98712107739419
 30
0.0
 40
0.6610025718520256
 50
207.58542356269899
 51
264.21745662809968
  0
LINE
  5
F6B3
  8
0
 10
381.31617205216872
 20
203.81272993989421
 30
0.0
 11
380.67892016846861
 21
203.91822829849411
 31
0.0
  0
POLYLINE
  5
F6B4
  8
0
 66
     1
 10
0.0
 20
0.0
 30
0.0
 70
   128
  0
VERTEX
  5
10992
  8
0
 10
400.2161208539685
 20
203.90928946439419
 30
0.0
  0
VERTEX
  5
10993
  8
0
 10
400.06796047086851
 20
203.84989716119421
 30
0.0
  0
VERTEX
  5
10994
  8
0
 10
399.57886897026862
 20
203.81272993989421
 30
0.0
  0
SEQEND
  5
10995
  8
0
  0
ARC
  5
F6B5
  8
0
 10
399.63286626226869
 20
206.98731866899419
 30
0.0
 40
0.6593711374655574
 50
275.6270545862003
 51
332.32109886119849
  0
LINE
  5
F6B8
  8
0
 10
399.57886897026862
 20
228.81272844969419
 30
0.0
 11
397.44752049446862
 21
228.81272844969419
 31
0.0
  0
LINE
  5
F6B9
  8
0
 10
383.44752006236848
 20
228.81272844969419
 30
0.0
 11
381.31617205216872
 21
228.81272844969419
 31
0.0
  0
POLYLINE
  5
F6BA
  8
0
 66
     1
 10
0.0
 20
0.0
 30
0.0
 70
   128
  0
VERTEX
  5
10996
  8
0
 10
380.67892016846861
 20
228.71616892519421
 30
0.0
  0
VERTEX
  5
10997
  8
0
 10
380.8270789216686
 20
228.77556122839411
 30
0.0
  0
VERTEX
  5
10998
  8
0
 10
381.31617205216872
 20
228.81272844969419
 30
0.0
  0
SEQEND
  5
10999
  8
0
  0
ARC
  5
F6BB
  8
0
 10
381.26217936746872
 20
225.6381326727942
 30
0.0
 40
0.6593805937489968
 50
95.627497888899413
 51
152.3206555583991
  0
ARC
  5
F6BC
  8
0
 10
399.63091454906862
 20
225.6383291184942
 30
0.0
 40
0.6610132631129114
 50
27.585922874800829
 51
84.216957315902306
  0
LINE
  5
F6BD
  8
0
 10
399.57886897026862
 20
228.81272844969419
 30
0.0
 11
400.2161208539685
 21
228.70723195379421
 31
0.0
  0
LINE
  5
F6BE
  8
0
 10
397.5849166512686
 20
228.81272844969419
 30
0.0
 11
397.44752049446862
 21
228.83521057669421
 31
0.0
  0
LINE
  5
F6D0
  8
0
 10
382.94752003856871
 20
164.31300938129419
 30
0.0
 11
397.9475196450685
 21
164.31300938129419
 31
0.0
  0
LINE
  5
F6D1
  8
0
 10
373.44752028586868
 20
191.30928199739421
 30
0.0
 11
373.44752006236843
 21
185.3122121698942
 31
0.0
  0
LINE
  5
F706
  8
0
 10
386.44752008836861
 20
243.26434396209419
 30
0.0
 11
394.44752000266868
 21
243.26434396209419
 31
0.0
  0
LINE
  5
F70F
  8
0
 10
394.44752000266868
 20
259.43363867699418
 30
0.0
 11
386.44752008836861
 21
259.43363867699418
 31
0.0
  0
LINE
  5
F710
  8
0
 10
394.44752000266868
 20
205.01589998609421
 30
0.0
 11
394.44752000266868
 21
259.43363867699418
 31
0.0
  0
LINE
  5
F711
  8
0
 10
394.44752000266868
 20
256.43364004799417
 30
0.0
 11
386.44752008836861
 21
256.43364004799417
 31
0.0
  0
LINE
  5
F715
  8
0
 10
394.44752000266868
 20
271.09315656129422
 30
0.0
 11
394.44752000266868
 21
274.81273226439419
 31
0.0
  0
ARC
  5
F716
  8
0
 10
396.44752006226861
 20
271.09315693329421
 30
0.0
 40
2.000000000000056
 50
180.0
 51
224.99999999999969
  0
LINE
  5
F717
  8
0
 10
399.69016015526859
 20
265.02208821479422
 30
0.0
 11
395.0333060696687
 21
269.6789469569942
 31
0.0
  0
ARC
  5
F718
  8
0
 10
395.44752006226861
 20
260.77944843429418
 30
0.0
 40
6.0
 50
0.0
 51
44.999999999999709
  0
LINE
  5
F719
  8
0
 10
401.44751928746859
 20
240.23565314709421
 30
0.0
 11
401.44751928746859
 21
260.77945195139421
 31
0.0
  0
ARC
  5
F71A
  8
0
 10
404.4475200622685
 20
240.23565187739419
 30
0.0
 40
3.0
 50
180.0
 51
210.00000000000091
  0
LINE
  5
F71B
  8
0
 10
403.27829830346849
 20
236.2608056515941
 30
0.0
 11
401.84944458306848
 21
238.73565010729419
 31
0.0
  0
ARC
  5
F71C
  8
0
 10
397.2161200622686
 20
232.76080408729419
 30
0.0
 40
7.0
 50
0.0
 51
30.000000000000899
  0
LINE
  5
F71D
  8
0
 10
404.21611964696848
 20
203.05107012399421
 30
0.0
 11
404.21611964696848
 21
232.76080228389421
 31
0.0
  0
ARC
  5
F71E
  8
0
 10
397.2161200622686
 20
203.05106989039419
 30
0.0
 40
7.0
 50
329.99999999999909
 51
0.0
  0
LINE
  5
F71F
  8
0
 10
401.84944458306848
 20
197.0762223005942
 30
0.0
 11
403.27829830346849
 21
199.55107048159419
 31
0.0
  0
ARC
  5
F720
  8
0
 10
404.4475200622685
 20
195.57622210029419
 30
0.0
 40
3.0
 50
149.99999999999909
 51
180.0
  0
ARC
  5
F721
  8
0
 10
404.4475200622685
 20
195.57622210029419
 30
0.0
 40
7.0
 50
149.99999999999909
 51
180.0
  0
LINE
  5
F722
  8
0
 10
398.3853418379685
 20
199.07622262839419
 30
0.0
 11
399.8141955584685
 21
201.55107080939419
 31
0.0
  0
ARC
  5
F723
  8
0
 10
397.2161200622686
 20
203.05106989039419
 30
0.0
 40
3.0
 50
329.99999999999909
 51
0.0
  0
LINE
  5
F724
  8
0
 10
400.2161208539685
 20
203.05107012399421
 30
0.0
 11
400.2161208539685
 21
232.76080228389421
 31
0.0
  0
ARC
  5
F725
  8
0
 10
397.2161200622686
 20
232.76080408729419
 30
0.0
 40
3.0
 50
0.0
 51
30.000000000000899
  0
LINE
  5
F726
  8
0
 10
399.8141955584685
 20
234.26080532379419
 30
0.0
 11
398.3853418379685
 21
236.7356535047941
 31
0.0
  0
ARC
  5
F727
  8
0
 10
404.4475200622685
 20
240.23565187739419
 30
0.0
 40
7.0000000000000311
 50
180.0
 51
210.00000000000091
  0
LINE
  5
F728
  8
0
 10
397.44752049446862
 20
240.23565314709421
 30
0.0
 11
397.44752049446862
 21
260.77945195139421
 31
0.0
  0
ARC
  5
F729
  8
0
 10
395.44752006226861
 20
260.77944843429418
 30
0.0
 40
2.0
 50
0.0
 51
44.999999999999709
  0
LINE
  5
F72A
  8
0
 10
396.8617334961686
 20
262.19366155569429
 30
0.0
 11
392.20487941056848
 21
266.85051284739421
 31
0.0
  0
ARC
  5
F72B
  8
0
 10
396.44751885890889
 20
271.0931561292349
 30
0.0
 40
5.999998580540379
 50
179.9999958741364
 51
225.00000269622379
  0
LINE
  5
F72C
  8
0
 10
390.44752027836859
 20
271.09315656129422
 30
0.0
 11
390.44752027836859
 21
274.81273226439419
 31
0.0
  0
LINE
  5
F72E
  8
0
 10
401.44751928746859
 20
176.3127296231942
 30
0.0
 11
401.44751928746859
 21
195.5762220546942
 31
0.0
  0
LINE
  5
F72F
  8
0
 10
379.44751987236862
 20
184.31221218779419
 30
0.0
 11
379.44751987236862
 21
176.3127296231942
 31
0.0
  0
ARC
  5
F730
  8
0
 10
384.44751885890747
 20
271.09315773735409
 30
0.0
 40
6.0000014194610278
 50
315.00000269623098
 51
359.99998876945801
  0
LINE
  5
F731
  8
0
 10
388.69016068056862
 20
266.85051284739421
 30
0.0
 11
384.0333064784686
 21
262.19366155569429
 31
0.0
  0
ARC
  5
F732
  8
0
 10
385.44752006226861
 20
260.77944843429418
 30
0.0
 40
2.0000000000000151
 50
135.00000000000031
 51
180.0
  0
LINE
  5
F733
  8
0
 10
383.44752006226861
 20
260.77945195139421
 30
0.0
 11
383.44752006226861
 21
240.23565314709421
 31
0.0
  0
ARC
  5
F734
  8
0
 10
376.44752006226861
 20
240.23565187739419
 30
0.0
 40
7.0
 50
329.99999999999909
 51
0.0
  0
LINE
  5
F735
  8
0
 10
382.50969790386858
 20
236.7356535047941
 30
0.0
 11
381.0808438341686
 21
234.26080532379419
 31
0.0
  0
ARC
  5
F736
  8
0
 10
383.67892006226862
 20
232.76080408729419
 30
0.0
 40
3.000000000000056
 50
149.99999999999909
 51
180.0
  0
LINE
  5
F737
  8
0
 10
380.67892016846861
 20
232.76080228389421
 30
0.0
 11
380.67892016846861
 21
203.05107012399421
 31
0.0
  0
ARC
  5
F738
  8
0
 10
383.67892006226862
 20
203.05106989039419
 30
0.0
 40
3.000000000000056
 50
180.0
 51
210.00000000000091
  0
LINE
  5
F739
  8
0
 10
381.0808438341686
 20
201.55107080939419
 30
0.0
 11
382.50969790386858
 21
199.07622262839419
 31
0.0
  0
ARC
  5
F73A
  8
0
 10
376.44752006226861
 20
195.57622210029419
 30
0.0
 40
7.0
 50
0.0
 51
30.000000000000899
  0
ARC
  5
F73B
  8
0
 10
376.44752006226861
 20
195.57622210029419
 30
0.0
 40
3.0
 50
0.0
 51
30.000000000000899
  0
LINE
  5
F73C
  8
0
 10
377.61674225326851
 20
199.55107048159419
 30
0.0
 11
379.04559643936858
 21
197.0762223005942
 31
0.0
  0
ARC
  5
F73D
  8
0
 10
383.67892006226862
 20
203.05106989039419
 30
0.0
 40
7.000000000000056
 50
180.0
 51
210.00000000000091
  0
LINE
  5
F73E
  8
0
 10
376.67891997846868
 20
232.76080228389421
 30
0.0
 11
376.67891997846868
 21
203.05107012399421
 31
0.0
  0
ARC
  5
F73F
  8
0
 10
383.67892006226862
 20
232.76080408729419
 30
0.0
 40
7.0
 50
149.99999999999909
 51
180.0
  0
LINE
  5
F740
  8
0
 10
379.04559643936858
 20
238.73565010729419
 30
0.0
 11
377.61674225326851
 21
236.2608056515941
 31
0.0
  0
ARC
  5
F741
  8
0
 10
376.44752006226861
 20
240.23565187739419
 30
0.0
 40
3.000000000000056
 50
329.99999999999909
 51
0.0
  0
LINE
  5
F742
  8
0
 10
379.44751987236862
 20
260.77945195139421
 30
0.0
 11
379.44751987236862
 21
240.23565314709421
 31
0.0
  0
ARC
  5
F743
  8
0
 10
385.44752006226861
 20
260.77944843429418
 30
0.0
 40
5.9999999999999858
 50
135.00000000000031
 51
180.0
  0
LINE
  5
F744
  8
0
 10
385.86173355576852
 20
269.6789469569942
 30
0.0
 11
381.20487947016858
 21
265.02208821479422
 31
0.0
  0
ARC
  5
F745
  8
0
 10
384.44752006226861
 20
271.09315693329421
 30
0.0
 40
2.0
 50
315.00000000000028
 51
0.0
  0
LINE
  5
F746
  8
0
 10
386.44752008836861
 20
274.81273226439419
 30
0.0
 11
386.44752008836861
 21
271.09315656129422
 31
0.0
  0
LINE
  5
F747
  8
0
 10
379.44751987236862
 20
195.5762220546942
 30
0.0
 11
379.44751987236862
 21
192.3122121021942
 31
0.0
  0
LINE
  5
F748
  8
0
 10
390.44752027836859
 20
207.67526552089419
 30
0.0
 11
390.44752027836859
 21
224.95019473139411
 31
0.0
  0
LINE
  5
F74C
  8
0
 10
390.44752027836859
 20
228.8127209991942
 30
0.0
 11
390.44752027836859
 21
224.95019473139411
 31
0.0
  0
LINE
  5
F74D
  8
0
 10
390.44752027836859
 20
207.67526552089419
 30
0.0
 11
390.44752027836859
 21
205.01589998609421
 31
0.0
  0
LINE
  5
F751
  8
0
 10
397.44752049446862
 20
206.3127294182942
 30
0.0
 11
399.69751946626872
 21
206.3127294182942
 31
0.0
  0
LINE
  5
F754
  8
0
 10
381.19752015916862
 20
206.3127294182942
 30
0.0
 11
383.4475200623686
 21
206.3127294182942
 31
0.0
  0
LINE
  5
F756
  8
0
 10
399.69751946626872
 20
226.31273083389419
 30
0.0
 11
397.44752049446862
 21
226.31273083389419
 31
0.0
  0
LINE
  5
F757
  8
0
 10
383.44752006236848
 20
226.31273083389419
 30
0.0
 11
381.19752015916862
 21
226.31273083389419
 31
0.0
  0
LINE
  5
F759
  8
0
 10
381.19752015916862
 20
226.31273083389419
 30
0.0
 11
381.19752015916862
 21
220.9741663187942
 31
0.0
  0
LINE
  5
F75A
  8
0
 10
381.19752015916862
 20
211.6512920707942
 30
0.0
 11
381.19752015916862
 21
206.3127294182942
 31
0.0
  0
LINE
  5
F75B
  8
0
 10
399.69751946626872
 20
206.3127294182942
 30
0.0
 11
399.69751946626872
 21
211.6512920707942
 31
0.0
  0
LINE
  5
F75C
  8
0
 10
399.69751946626872
 20
220.9741663187942
 30
0.0
 11
399.69751946626872
 21
226.31273083389419
 31
0.0
  0
POLYLINE
  5
F75D
  8
0
 66
     1
 10
0.0
 20
0.0
 30
0.0
 70
   128
  0
VERTEX
  5
1099A
  8
0
 10
397.23683297636859
 20
173.01590032879409
 30
0.0
  0
VERTEX
  5
1099B
  8
0
 10
397.38132581116861
 20
172.99329712989419
 30
0.0
  0
VERTEX
  5
1099C
  8
0
 10
397.43081349876871
 20
172.9704611003942
 30
0.0
  0
VERTEX
  5
1099D
  8
0
 10
397.44752049446862
 20
172.9258777573942
 30
0.0
  0
SEQEND
  5
1099E
  8
0
  0
POLYLINE
  5
F760
  8
0
 66
     1
 10
0.0
 20
0.0
 30
0.0
 70
   128
  0
VERTEX
  5
1099F
  8
0
 10
397.44752049446862
 20
205.09818419819419
 30
0.0
  0
VERTEX
  5
109A0
  8
0
 10
397.44005873796863
 20
205.06763495509421
 30
0.0
  0
VERTEX
  5
109A1
  8
0
 10
397.3740512504686
 20
205.03484494989419
 30
0.0
  0
VERTEX
  5
109A2
  8
0
 10
397.23683297636859
 20
205.01589998609421
 30
0.0
  0
SEQEND
  5
109A3
  8
0
  0
LINE
  5
F761
  8
0
 10
397.4475200623686
 20
167.8130085389503
 30
0.0
 11
397.44752049446862
 21
240.23565314709421
 31
0.0
  0
LINE
  5
F762
  8
0
 10
397.23683297636859
 20
205.01589998609421
 30
0.0
 11
383.65820734756858
 21
205.01589998609421
 31
0.0
  0
LINE
  5
F763
  8
0
 10
383.65820734756858
 20
173.01590032879409
 30
0.0
 11
397.23683297636859
 21
173.01590032879409
 31
0.0
  0
LINE
  5
F764
  8
0
 10
383.44752006226861
 20
240.23565187739419
 30
0.0
 11
383.44752006236848
 21
167.81300849669421
 31
0.0
  0
POLYLINE
  5
F765
  8
0
 66
     1
 10
0.0
 20
0.0
 30
0.0
 70
   128
  0
VERTEX
  5
109A4
  8
0
 10
383.65820734756858
 20
205.01589998609421
 30
0.0
  0
VERTEX
  5
109A5
  8
0
 10
383.5023957675686
 20
205.0397939979942
 30
0.0
  0
VERTEX
  5
109A6
  8
0
 10
383.46134491836858
 20
205.06024956709419
 30
0.0
  0
VERTEX
  5
109A7
  8
0
 10
383.44752006236848
 20
205.09818419819419
 30
0.0
  0
SEQEND
  5
109A8
  8
0
  0
POLYLINE
  5
F766
  8
0
 66
     1
 10
0.0
 20
0.0
 30
0.0
 70
   128
  0
VERTEX
  5
109A9
  8
0
 10
383.44752006236848
 20
172.9258777573942
 30
0.0
  0
VERTEX
  5
109AA
  8
0
 10
383.46146345286871
 20
172.96788226819419
 30
0.0
  0
VERTEX
  5
109AB
  8
0
 10
383.53011237486862
 20
172.99744151539409
 30
0.0
  0
VERTEX
  5
109AC
  8
0
 10
383.65820734756858
 20
173.01590032879409
 30
0.0
  0
SEQEND
  5
109AD
  8
0
  0
ARC
  5
F769
  8
0
 10
386.83511539636862
 20
172.94188377039421
 30
0.0
 40
0.3879256567689247
 50
169.0004734242996
 51
182.36472474930059
  0
LINE
  5
F76A
  8
0
 10
383.44752006236848
 20
172.9258777573942
 30
0.0
 11
386.44752008836861
 21
172.9258777573942
 31
0.0
  0
LINE
  5
F76B
  8
0
 10
383.44752006236848
 20
205.09818419819419
 30
0.0
 11
386.44752008836861
 21
205.09818419819419
 31
0.0
  0
LINE
  5
F76E
  8
0
 10
397.44752049446862
 20
205.09818419819419
 30
0.0
 11
394.44752000266868
 21
205.09818419819419
 31
0.0
  0
LINE
  5
F76F
  8
0
 10
394.44752000266868
 20
172.9258777573942
 30
0.0
 11
397.44752049446862
 21
172.9258777573942
 31
0.0
  0
ARC
  5
F770
  8
0
 10
394.09013357706868
 20
172.9441662277942
 30
0.0
 40
0.3578540559574453
 50
357.07056879749899
 51
11.563643638299951
  0
LINE
  5
F774
  8
0
 10
394.44752000266868
 20
171.01590093229419
 30
0.0
 11
394.44752000266868
 21
172.9258777573942
 31
0.0
  0
LINE
  5
F776
  8
0
 10
386.44752008836861
 20
172.9258777573942
 30
0.0
 11
386.44752008836861
 21
171.01590093229419
 31
0.0
  0
LINE
  5
F778
  8
0
 10
386.44752008836861
 20
259.43363867699418
 30
0.0
 11
386.44752008836861
 21
205.01589998609421
 31
0.0
  0
ARC
  5
F779
  8
0
 10
382.94752157247473
 20
167.81300787118781
 30
0.0
 40
3.499998489894006
 50
269.9999748896085
 51
0.0000102396827219
  0
LINE
  5
F77A
  8
0
 10
382.94752003856871
 20
164.31300938129419
 30
0.0
 11
358.24831724166859
 21
164.31300938129419
 31
0.0
  0
LINE
  5
F77B
  8
0
 10
358.24831724166859
 20
167.31300894179421
 30
0.0
 11
382.94752003856871
 21
167.31300894179421
 31
0.0
  0
ARC
  5
F77C
  8
0
 10
382.9475200623686
 20
167.81300849669421
 30
0.0
 40
0.5
 50
270.0
 51
0.0
  0
LINE
  5
F77E
  8
0
 10
386.44752008836861
 20
171.01590093229419
 30
0.0
 11
386.44752008836861
 21
167.8130080923942
 31
0.0
  0
ARC
  5
F77F
  8
0
 10
397.94752006236848
 20
167.81300849669421
 30
0.0
 40
0.5
 50
180.0
 51
270.0
  0
LINE
  5
F780
  8
0
 10
397.9475196450685
 20
167.31300894179421
 30
0.0
 11
422.64672331506841
 21
167.31300894179421
 31
0.0
  0
LINE
  5
F781
  8
0
 10
422.64672331506841
 20
164.31300938129419
 30
0.0
 11
397.9475196450685
 21
164.31300938129419
 31
0.0
  0
ARC
  5
F782
  8
0
 10
397.94751855226241
 20
167.81300787118781
 30
0.0
 40
3.4999984898939251
 50
179.999989760316
 51
270.0000178894864
  0
LINE
  5
F784
  8
0
 10
394.44752000266868
 20
167.8130080923942
 30
0.0
 11
394.44752000266868
 21
171.01590093229419
 31
0.0
  0
LINE
  5
F785
  8
0
 10
358.24831724166859
 20
167.31300894179421
 30
0.0
 11
358.24831724166859
 21
164.31300938129419
 31
0.0
  0
LINE
  5
F788
  8
0
 10
422.64672331506853
 20
164.31300938129419
 30
0.0
 11
422.64672331506853
 21
167.31300894179421
 31
0.0
  0
LINE
  5
F7B3
  8
0
 10
379.44751987236862
 20
178.01062334329421
 30
0.0
 11
379.36572972686861
 21
178.01062334329421
 31
0.0
  0
LINE
  5
F7B4
  8
0
 10
401.52930989856861
 20
178.01062334329421
 30
0.0
 11
401.44751928746859
 21
178.01062334329421
 31
0.0
  0
LINE
  5
F7B5
  8
0
 10
401.63233838976851
 20
177.5613179430942
 30
0.0
 11
401.44751928746859
 21
177.5613179430942
 31
0.0
  0
LINE
  5
F7B6
  8
0
 10
379.44751987236862
 20
177.5613179430942
 30
0.0
 11
379.26270077006859
 21
177.5613179430942
 31
0.0
  0
ARC
  5
F7DB
  8
0
 10
263.29463113967358
 20
460.27159435432441
 30
0.0
 40
32.713031823137598
 50
246.356098130221
 51
277.94533102474361
  0
ARC
  5
F7DE
  8
0
 10
267.24879612149431
 20
453.50840111614832
 30
0.0
 40
1.000000000000032
 50
36.193012027544967
 51
90.0
  0
ARC
  5
F7DF
  8
0
 10
259.24879612149419
 20
453.50840111614832
 30
0.0
 40
1.0000000000000031
 50
90.0
 51
144.01588696440001
  0
ARC
  5
F7E0
  8
0
 10
259.24879612149419
 20
428.50840111614832
 30
0.0
 40
1.0000000000000171
 50
215.98409719785221
 51
270.0
  0
ARC
  5
F7E1
  8
0
 10
267.24879612149431
 20
428.50840111614832
 30
0.0
 40
1.0000000000000471
 50
270.0
 51
323.80700439649138
  0
ARC
  5
F7E2
  8
0
 10
298.99879612409433
 20
449.00840111614832
 30
0.0
 40
1.0
 50
270.0
 51
0.0
  0
ARC
  5
F7E3
  8
0
 10
290.99879612409433
 20
449.00840111614832
 30
0.0
 40
1.0000000000000271
 50
180.0
 51
270.0
  0
ARC
  5
F7E4
  8
0
 10
290.99879612409433
 20
433.00840111614832
 30
0.0
 40
1.0000000000000271
 50
90.0
 51
180.0
  0
ARC
  5
F7E5
  8
0
 10
298.99879612409433
 20
433.00840111614832
 30
0.0
 40
1.0
 50
0.0
 51
90.0
  0
ARC
  5
F7E6
  8
0
 10
298.99879612409433
 20
449.50840111614832
 30
0.0
 40
1.0
 50
0.0
 51
90.0
  0
ARC
  5
F7E7
  8
0
 10
290.99879612409433
 20
449.50840111614832
 30
0.0
 40
1.0000000000000271
 50
90.0
 51
180.0
  0
ARC
  5
F7E8
  8
0
 10
290.99879612409433
 20
432.50840111614832
 30
0.0
 40
1.0000000000000271
 50
180.0
 51
270.0
  0
ARC
  5
F7E9
  8
0
 10
298.99879612409433
 20
432.50840111614832
 30
0.0
 40
1.0
 50
270.0
 51
0.0
  0
LINE
  5
F7EA
  8
0
 10
289.99879620969432
 20
449.5084008628483
 30
0.0
 11
289.99879620969432
 21
449.00840078084832
 31
0.0
  0
LINE
  5
F7EB
  8
0
 10
299.99879598609431
 20
449.00840078084832
 30
0.0
 11
299.99879598609431
 21
449.5084008628483
 31
0.0
  0
LINE
  5
F7EC
  8
0
 10
299.99879598609431
 20
432.50840110314817
 30
0.0
 11
299.99879598609431
 21
433.00840106864831
 31
0.0
  0
LINE
  5
F7ED
  8
0
 10
289.99879620969432
 20
433.00840106864831
 30
0.0
 11
289.99879620969432
 21
432.50840110314817
 31
0.0
  0
ARC
  5
F7EE
  8
0
 10
295.19129612319421
 20
425.00840111614832
 30
0.0
 40
1.0
 50
270.0
 51
0.0
  0
ARC
  5
F7EF
  8
0
 10
289.19129612319421
 20
425.00840111614832
 30
0.0
 40
1.0
 50
180.0
 51
270.0
  0
ARC
  5
F7F0
  8
0
 10
289.19129612319421
 20
433.00840111614832
 30
0.0
 40
1.0
 50
90.0
 51
180.0
  0
LINE
  5
F7F1
  8
0
 10
288.19129653269431
 20
433.00840106864831
 30
0.0
 11
288.19129653269431
 21
425.00840150354833
 31
0.0
  0
LINE
  5
F7F2
  8
0
 10
296.19129598139421
 20
425.00840150354833
 30
0.0
 11
296.19129598139421
 21
431.5084011720482
 31
0.0
  0
ARC
  5
F7F3
  8
0
 10
294.44129612319421
 20
451.00840111614832
 30
0.0
 40
1.0
 50
0.0
 51
90.0
  0
ARC
  5
F7F4
  8
0
 10
289.94129612319421
 20
451.00840111614832
 30
0.0
 40
1.0
 50
90.0
 51
180.0
  0
LINE
  5
F7F5
  8
0
 10
288.94129618999432
 20
451.00840204004828
 30
0.0
 11
288.94129618999432
 21
448.97664733764827
 31
0.0
  0
LINE
  5
F7F6
  8
0
 10
295.44129632409431
 20
450.50840102674817
 30
0.0
 11
295.44129632409431
 21
451.00840204004828
 31
0.0
  0
ARC
  5
F7F7
  8
0
 10
289.94129612319421
 20
448.97664695264831
 30
0.0
 40
1.0
 50
180.0
 51
255.52248781409699
  0
LINE
  5
F7F8
  8
0
 10
303.76693923019428
 20
437.00840114224832
 30
0.0
 11
303.76693923019428
 21
445.00840105654828
 31
0.0
  0
POLYLINE
  5
F800
  8
0
 66
     1
 10
0.0
 20
0.0
 30
0.0
 70
   128
  0
VERTEX
  5
109AE
  8
0
 10
273.96359145639428
 20
431.75634299014843
 30
0.0
  0
VERTEX
  5
109AF
  8
0
 10
274.00965467089429
 20
431.52978550244831
 30
0.0
  0
VERTEX
  5
109B0
  8
0
 10
273.90587925909432
 20
431.24468694044828
 30
0.0
  0
VERTEX
  5
109B1
  8
0
 10
273.65085706109431
 20
430.92270381354831
 30
0.0
  0
VERTEX
  5
109B2
  8
0
 10
273.30180481069419
 20
430.62821821844818
 30
0.0
  0
VERTEX
  5
109B3
  8
0
 10
272.85899072879431
 20
430.35531229874829
 30
0.0
  0
VERTEX
  5
109B4
  8
0
 10
272.39980027079417
 20
430.15767656804837
 30
0.0
  0
VERTEX
  5
109B5
  8
0
 10
271.99003323909432
 20
430.0533721649482
 30
0.0
  0
VERTEX
  5
109B6
  8
0
 10
271.63162678479421
 20
430.04394066124843
 30
0.0
  0
VERTEX
  5
109B7
  8
0
 10
271.4076213537943
 20
430.14046549404821
 30
0.0
  0
VERTEX
  5
109B8
  8
0
 10
271.36400565499417
 20
430.1915571519483
 30
0.0
  0
VERTEX
  5
109B9
  8
0
 10
271.32022604339431
 20
430.40976323724828
 30
0.0
  0
VERTEX
  5
109BA
  8
0
 10
271.43116891379429
 20
430.6980860380483
 30
0.0
  0
VERTEX
  5
109BB
  8
0
 10
271.66824638839421
 20
431.0082807166483
 30
0.0
  0
VERTEX
  5
109BC
  8
0
 10
272.03573882579428
 20
431.33781523984828
 30
0.0
  0
VERTEX
  5
109BD
  8
0
 10
272.44781553739432
 20
431.6015564797483
 30
0.0
  0
VERTEX
  5
109BE
  8
0
 10
272.88213595749431
 20
431.79888813364829
 30
0.0
  0
VERTEX
  5
109BF
  8
0
 10
273.32343757149431
 20
431.91367038134831
 30
0.0
  0
VERTEX
  5
109C0
  8
0
 10
273.67252707479429
 20
431.91471229844831
 30
0.0
  0
VERTEX
  5
109C1
  8
0
 10
273.92065376039432
 20
431.80647329034832
 30
0.0
  0
VERTEX
  5
109C2
  8
0
 10
273.96359145639428
 20
431.75634299014843
 30
0.0
  0
SEQEND
  5
109C3
  8
0
  0
POLYLINE
  5
F801
  8
0
 66
     1
 10
0.0
 20
0.0
 30
0.0
 70
   128
  0
VERTEX
  5
109C4
  8
0
 10
270.6148721276943
 20
428.60025888844831
 30
0.0
  0
VERTEX
  5
109C5
  8
0
 10
270.5660745500943
 20
428.54013177174818
 30
0.0
  0
VERTEX
  5
109C6
  8
0
 10
270.36201059819427
 20
428.45416976674818
 30
0.0
  0
VERTEX
  5
109C7
  8
0
 10
270.00694945449419
 20
428.34771307724827
 30
0.0
  0
VERTEX
  5
109C8
  8
0
 10
269.57722604269429
 20
428.24051226094821
 30
0.0
  0
VERTEX
  5
109C9
  8
0
 10
269.07012090079439
 20
428.12703339924832
 30
0.0
  0
VERTEX
  5
109CA
  8
0
 10
268.56341809029431
 20
428.02011197974821
 30
0.0
  0
VERTEX
  5
109CB
  8
0
 10
268.1376472114942
 20
427.93338023664819
 30
0.0
  0
VERTEX
  5
109CC
  8
0
 10
267.81649366019428
 20
427.87259420914819
 30
0.0
  0
VERTEX
  5
109CD
  8
0
 10
267.67013818019427
 20
427.8546783568483
 30
0.0
  0
VERTEX
  5
109CE
  8
0
 10
267.65479743479432
 20
427.85741877344822
 30
0.0
  0
VERTEX
  5
109CF
  8
0
 10
267.70493984219428
 20
427.89629450604832
 30
0.0
  0
VERTEX
  5
109D0
  8
0
 10
267.91618615389427
 20
427.98077617374832
 30
0.0
  0
VERTEX
  5
109D1
  8
0
 10
268.23967546219433
 20
428.09329810154833
 30
0.0
  0
VERTEX
  5
109D2
  8
0
 10
268.69014501569433
 20
428.2365159557483
 30
0.0
  0
VERTEX
  5
109D3
  8
0
 10
269.18970271939429
 20
428.3787279816483
 30
0.0
  0
VERTEX
  5
109D4
  8
0
 10
269.68944668769433
 20
428.50194661484829
 30
0.0
  0
VERTEX
  5
109D5
  8
0
 10
270.1259650289943
 20
428.58609533474828
 30
0.0
  0
VERTEX
  5
109D6
  8
0
 10
270.41978985069431
 20
428.6194301636483
 30
0.0
  0
VERTEX
  5
109D7
  8
0
 10
270.59441655869432
 20
428.61172253804841
 30
0.0
  0
VERTEX
  5
109D8
  8
0
 10
270.6148721276943
 20
428.60025888844831
 30
0.0
  0
SEQEND
  5
109D9
  8
0
  0
POLYLINE
  5
F802
  8
0
 66
     1
 10
0.0
 20
0.0
 30
0.0
 70
   128
  0
VERTEX
  5
109DA
  8
0
 10
278.2142110168943
 20
433.6525244540482
 30
0.0
  0
VERTEX
  5
109DB
  8
0
 10
278.22249419979431
 20
433.49833058494818
 30
0.0
  0
VERTEX
  5
109DC
  8
0
 10
278.11015620819421
 20
433.24144213294829
 30
0.0
  0
VERTEX
  5
109DD
  8
0
 10
277.87797190249421
 20
432.90125508394829
 30
0.0
  0
VERTEX
  5
109DE
  8
0
 10
277.57419496769421
 20
432.54727497304827
 30
0.0
  0
VERTEX
  5
109DF
  8
0
 10
277.19592340289432
 20
432.17484629314822
 30
0.0
  0
VERTEX
  5
109E0
  8
0
 10
276.81515961879433
 20
431.85637564934831
 30
0.0
  0
VERTEX
  5
109E1
  8
0
 10
276.48397758599441
 20
431.62560066744828
 30
0.0
  0
VERTEX
  5
109E2
  8
0
 10
276.21048912399431
 20
431.4863430296482
 30
0.0
  0
VERTEX
  5
109E3
  8
0
 10
276.05929449199431
 20
431.47366609964831
 30
0.0
  0
VERTEX
  5
109E4
  8
0
 10
276.03584378959431
 20
431.49286135634821
 30
0.0
  0
VERTEX
  5
109E5
  8
0
 10
276.03559046979422
 20
431.63005169084829
 30
0.0
  0
VERTEX
  5
109E6
  8
0
 10
276.16098374129427
 20
431.8752896466483
 30
0.0
  0
VERTEX
  5
109E7
  8
0
 10
276.38165131209428
 20
432.18518688414821
 30
0.0
  0
VERTEX
  5
109E8
  8
0
 10
276.70184373849429
 20
432.56589013224828
 30
0.0
  0
VERTEX
  5
109E9
  8
0
 10
277.05812305209429
 20
432.9353868921483
 30
0.0
  0
VERTEX
  5
109EA
  8
0
 10
277.42253094909432
 20
433.26750950264829
 30
0.0
  0
VERTEX
  5
109EB
  8
0
 10
277.76327952739427
 20
433.52559307424832
 30
0.0
  0
VERTEX
  5
109EC
  8
0
 10
278.0130378901942
 20
433.6578460894483
 30
0.0
  0
VERTEX
  5
109ED
  8
0
 10
278.18328551949418
 20
433.67604806154827
 30
0.0
  0
VERTEX
  5
109EE
  8
0
 10
278.2142110168943
 20
433.6525244540482
 30
0.0
  0
SEQEND
  5
109EF
  8
0
  0
ARC
  5
F808
  8
0
 10
251.88868699889429
 20
440.69501522784827
 30
0.0
 40
8.1792314649230722
 50
177.80418359699451
 51
215.66690438956141
  0
LINE
  5
F80A
  8
0
 10
267.24879612149431
 20
454.50840111614838
 30
0.0
 11
259.24879612149419
 21
454.50840111614832
 31
0.0
  0
LINE
  5
F80F
  8
0
 10
259.24879612149419
 20
427.50840111614821
 30
0.0
 11
267.24879612149431
 21
427.50840111614821
 31
0.0
  0
LINE
  5
F810
  8
0
 10
298.99879582219432
 20
450.50840102674817
 30
0.0
 11
290.9987963735943
 21
450.50840102674817
 31
0.0
  0
LINE
  5
F811
  8
0
 10
290.9987963735943
 20
431.5084011720482
 30
0.0
 11
298.99879582219432
 21
431.5084011720482
 31
0.0
  0
ARC
  5
F812
  8
0
 10
205.93155799249419
 20
446.01221773734841
 30
0.0
 40
8.2424055764885242
 50
30.050818119101979
 51
57.22848276259672
  0
ARC
  5
F813
  8
0
 10
202.46038889829421
 20
445.28181211054829
 30
0.0
 40
9.2744865645120154
 50
124.3079173734026
 51
148.41278174489989
  0
ARC
  5
F814
  8
0
 10
201.6943575836942
 20
436.00449658474832
 30
0.0
 40
8.2422815391657416
 50
210.05060374039761
 51
237.22868763340011
  0
ARC
  5
F815
  8
0
 10
205.16601511129431
 20
436.73461162964833
 30
0.0
 40
9.2739500757887168
 50
304.30721337170007
 51
328.41349525450102
  0
ARC
  5
F816
  8
0
 10
203.81300364839419
 20
441.00840111614832
 30
0.0
 40
13.00000000000002
 50
315.37920794579628
 51
44.620792054203513
  0
ARC
  5
F817
  8
0
 10
203.81300364839419
 20
441.00840111614832
 30
0.0
 40
13.00000000000002
 50
135.3792079457964
 51
224.62079205420349
  0
ARC
  5
F818
  8
0
 10
203.8130037485943
 20
429.4055728213483
 30
0.0
 40
24.439623683022781
 50
74.381040178301845
 51
105.6189598216981
  0
ARC
  5
F819
  8
0
 10
203.8130037485943
 20
452.6112031254483
 30
0.0
 40
24.439597951997079
 50
254.38102331419839
 51
285.6189766858015
  0
CIRCLE
  5
F82D
  8
0
 10
203.81300364839419
 20
441.00840111614832
 30
0.0
 40
5.0
  0
LINE
  5
F82E
  8
0
 10
289.19129612319421
 20
424.00840111614832
 30
0.0
 11
295.1909661292944
 21
424.00840133964829
 31
0.0
  0
LINE
  5
F82F
  8
0
 10
289.9412966803398
 20
452.00840111614809
 30
0.0
 11
294.4410484283942
 21
452.00840034124838
 31
0.0
  0
LINE
  5
F832
  8
0
 10
271.49879783389429
 20
454.7770007008483
 30
0.0
 11
271.49879783389429
 21
453.2210314707973
 31
0.0
  0
LINE
  5
F833
  8
0
 10
271.49879783389429
 20
454.7770007008483
 30
0.0
 11
254.99879792329429
 21
454.7770007008483
 31
0.0
  0
LINE
  5
F834
  8
0
 10
254.99879792329429
 20
454.7770007008483
 30
0.0
 11
254.9987979232944
 21
453.38887414660798
 31
0.0
  0
LINE
  5
F836
  8
0
 10
254.99879792329429
 20
427.23980103224829
 30
0.0
 11
254.99879792329429
 21
428.62792828498863
 31
0.0
  0
LINE
  5
F837
  8
0
 10
271.49879783389429
 20
428.80367091464819
 30
0.0
 11
271.49879783389429
 21
427.23980103224829
 31
0.0
  0
LINE
  5
F838
  8
0
 10
254.99879792329429
 20
427.23980103224829
 30
0.0
 11
271.49879783389429
 21
427.23980103224829
 31
0.0
  0
ARC
  5
F840
  8
0
 10
173.56300364839419
 20
441.00840111614832
 30
0.0
 40
5.25
 50
90.0
 51
270.0
  0
LINE
  5
F841
  8
0
 10
232.20532983539431
 20
446.25840079574829
 30
0.0
 11
215.70575088259429
 21
446.25840079574829
 31
0.0
  0
LINE
  5
F842
  8
0
 10
191.92025661469421
 20
446.25840079574829
 30
0.0
 11
173.56300950049419
 21
446.25840079574829
 31
0.0
  0
ARC
  5
F843
  8
0
 10
232.20533092529419
 20
436.25840111614832
 30
0.0
 40
10.0
 50
65.000000000000327
 51
90.0
  0
LINE
  5
F844
  8
0
 10
242.35586673019429
 20
442.55890906394831
 30
0.0
 11
236.43151521679431
 21
445.32147910984833
 31
0.0
  0
LINE
  5
F845
  8
0
 10
243.66649836299419
 20
446.36126258014821
 30
0.0
 11
238.12198489899421
 21
448.94670997354831
 31
0.0
  0
ARC
  5
F846
  8
0
 10
232.20533092529419
 20
436.25840111614832
 30
0.0
 40
14.0
 50
65.000000000000327
 51
90.0
  0
LINE
  5
F847
  8
0
 10
232.20532983539431
 20
450.25840052004833
 30
0.0
 11
212.98236250869419
 21
450.25840052004833
 31
0.0
  0
LINE
  5
F848
  8
0
 10
194.6426317094942
 20
450.25840052004833
 30
0.0
 11
173.56300950049419
 21
450.25840052004833
 31
0.0
  0
ARC
  5
F849
  8
0
 10
173.56300364839419
 20
441.00840111614832
 30
0.0
 40
9.2500000000000568
 50
90.0
 51
270.0
  0
LINE
  5
F84A
  8
0
 10
173.56300950049419
 20
431.75840121294829
 30
0.0
 11
194.64364498849429
 21
431.75840121294829
 31
0.0
  0
LINE
  5
F84B
  8
0
 10
212.98337578769431
 20
431.75840121294829
 30
0.0
 11
232.2734728454943
 21
431.75840121294829
 31
0.0
  0
ARC
  5
F84C
  8
0
 10
232.2734739469943
 20
445.75840111614832
 30
0.0
 40
14.0
 50
270.0
 51
294.99999999999972
  0
LINE
  5
F84D
  8
0
 10
238.1901279091943
 20
433.07009210884831
 30
0.0
 11
243.64099502559429
 21
435.61187153284828
 31
0.0
  0
LINE
  5
F84E
  8
0
 10
236.49965822689421
 20
436.69532332174828
 30
0.0
 11
242.3436328767942
 21
439.4204139204482
 31
0.0
  0
ARC
  5
F84F
  8
0
 10
232.2734739469943
 20
445.75840111614832
 30
0.0
 40
10.0
 50
270.0
 51
294.99999999999972
  0
LINE
  5
F850
  8
0
 10
173.56300950049419
 20
435.75840117014832
 30
0.0
 11
191.92025661469421
 21
435.75840117014832
 31
0.0
  0
LINE
  5
F851
  8
0
 10
215.70575088259429
 20
435.75840117014832
 30
0.0
 11
232.2734728454943
 21
435.75840117014832
 31
0.0
  0
LINE
  5
F852
  8
0
 10
303.73004628339419
 20
445.00840105654828
 30
0.0
 11
303.73004628339419
 21
448.00840154824829
 31
0.0
  0
LINE
  5
F855
  8
0
 10
303.73004628339419
 20
434.00840111614832
 30
0.0
 11
303.73004628339419
 21
437.00840114224832
 31
0.0
  0
LINE
  5
F856
  8
0
 10
279.03267793468137
 20
434.00840111618191
 30
0.0
 11
305.31675987874661
 21
434.00840111609369
 31
0.0
  0
LINE
  5
F85B
  8
0
 10
305.3167598786942
 20
445.00840105654828
 30
0.0
 11
280.60766083146171
 21
445.00840105654828
 31
0.0
  0
LINE
  5
F85C
  8
0
 10
279.03267776182872
 20
448.00840154824829
 30
0.0
 11
305.3167598786942
 21
448.00840154824829
 31
0.0
  0
LINE
  5
F85F
  8
0
 10
280.60766075075122
 20
437.00840114224832
 30
0.0
 11
305.3167598786942
 21
437.00840114224832
 31
0.0
  0
ARC
  5
F860
  8
0
 10
305.31676032549422
 20
437.10839991764828
 30
0.0
 40
0.0999987754375843
 50
269.99974401059688
 51
291.24556789199983
  0
ARC
  5
F862
  8
0
 10
305.3167599264944
 20
437.10840091894829
 30
0.0
 40
3.0999998028546658
 50
269.99999911750058
 51
291.2454963575006
  0
ARC
  5
F863
  8
0
 10
305.31675566729427
 20
444.90838222944831
 30
0.0
 40
3.1000193188519529
 50
68.754559418797356
 51
89.999922162200804
  0
ARC
  5
F865
  8
0
 10
305.31675593729432
 20
444.90837249624832
 30
0.0
 40
0.1000285603531694
 50
68.758368240397999
 51
89.997742388699294
  0
LINE
  5
F866
  8
0
 10
308.41675996779418
 20
444.90840122644829
 30
0.0
 11
308.41675996779418
 21
437.10840120514843
 31
0.0
  0
LINE
  5
F867
  8
0
 10
305.41675994169429
 20
437.10840120514843
 30
0.0
 11
305.41675994169429
 21
444.90840122644829
 31
0.0
  0
ARC
  5
F868
  8
0
 10
305.31675996779433
 20
437.10840111614829
 30
0.0
 40
0.0999999999999659
 50
291.24549537690098
 51
0.0
  0
ARC
  5
F869
  8
0
 10
305.31675996779433
 20
444.9084011161483
 30
0.0
 40
0.1000000000000619
 50
0.0
 51
68.75450462309901
  0
ARC
  5
F86A
  8
0
 10
305.31675996779433
 20
444.9084011161483
 30
0.0
 40
3.1000000000000472
 50
0.0
 51
68.75450462309901
  0
ARC
  5
F86B
  8
0
 10
305.31675996779433
 20
437.10840111614829
 30
0.0
 40
3.099999999999965
 50
291.24549537690098
 51
0.0
  0
ARC
  5
F86E
  8
0
 10
261.31129612319432
 20
467.2076047893483
 30
0.0
 40
6.0
 50
90.0
 51
180.0
  0
LINE
  5
F86F
  8
0
 10
297.91004620489429
 20
473.2076043689483
 30
0.0
 11
261.31129488349433
 21
473.2076043689483
 31
0.0
  0
ARC
  5
F870
  8
0
 10
297.9100461205943
 20
467.2076047893483
 30
0.0
 40
6.0000000000004547
 50
0.0
 51
90.0
  0
CIRCLE
  5
F871
  8
0
 10
295.51129612319431
 20
463.60850478934827
 30
0.0
 40
4.1499999999999764
  0
CIRCLE
  5
F872
  8
0
 10
263.7112961231943
 20
463.60850478934827
 30
0.0
 40
4.1499999999999764
  0
LINE
  5
F873
  8
0
 10
303.91004625709451
 20
448.0084015482484
 30
0.0
 11
303.91004625709428
 21
467.20760338544829
 31
0.0
  0
LINE
  5
F874
  8
0
 10
255.3112976252942
 20
467.20760338544829
 30
0.0
 11
255.3112976252942
 21
454.7770007008483
 31
0.0
  0
ARC
  5
F875
  8
0
 10
297.9100461205943
 20
414.80919744294829
 30
0.0
 40
6.0000000000005116
 50
270.0
 51
0.0
  0
LINE
  5
F876
  8
0
 10
261.31129488349433
 20
408.80919829544831
 30
0.0
 11
297.91004620489429
 21
408.80919829544831
 31
0.0
  0
ARC
  5
F877
  8
0
 10
261.31129612319432
 20
414.80919744294829
 30
0.0
 40
6.000000000000056
 50
180.0
 51
270.0
  0
CIRCLE
  5
F878
  8
0
 10
295.51129612319431
 20
418.4082974429482
 30
0.0
 40
4.1499999999999764
  0
CIRCLE
  5
F879
  8
0
 10
263.7112961231943
 20
418.4082974429482
 30
0.0
 40
4.1499999999999764
  0
LINE
  5
F87A
  8
0
 10
303.91004625709428
 20
414.8091974163483
 30
0.0
 11
303.91004625709428
 21
434.00840111614838
 31
0.0
  0
LINE
  5
F87B
  8
0
 10
255.3112976252942
 20
427.23980103224829
 30
0.0
 11
255.3112976252942
 21
414.8091974163483
 31
0.0
  0
ARC
  5
F8A1
  8
0
 10
260.45799460448342
 20
69.78788656166023
 30
0.0
 40
25.30164877442251
 50
102.4603805697415
 51
116.6191828119278
  0
CIRCLE
  5
F8A4
  8
0
 10
203.81300364839419
 20
82.156504291059491
 30
0.0
 40
11.200820751560039
  0
LINE
  5
F8A5
  8
0
 10
294.69129573549429
 20
78.156504350659503
 30
0.0
 11
294.69129573549429
 21
86.156504265059496
 31
0.0
  0
LINE
  5
F8A6
  8
0
 10
289.69129584729421
 20
86.156504265059496
 30
0.0
 11
289.69129584729421
 21
78.156504350659503
 31
0.0
  0
LINE
  5
F8A7
  8
0
 10
303.76693923019428
 20
78.156504350659503
 30
0.0
 11
303.7669392301944
 21
86.15650426512704
 31
0.0
  0
LINE
  5
F8A9
  8
0
 10
252.9300473629942
 20
89.156504291059505
 30
0.0
 11
252.9300473629942
 21
86.156504265059496
 31
0.0
  0
LINE
  5
F8AA
  8
0
 10
252.9300473629942
 20
78.156504350659503
 30
0.0
 11
252.9300473629942
 21
75.156503858959496
 31
0.0
  0
ARC
  5
F8B2
  8
0
 10
259.92337054219428
 20
83.612426563759485
 30
0.0
 40
9.4896567818544355
 50
121.2612471587107
 51
144.25186784819761
  0
ARC
  5
F8B4
  8
0
 10
254.5774241046943
 20
80.727643316259474
 30
0.0
 40
12.89152579302241
 50
115.0385128527966
 51
148.03184442949859
  0
LINE
  5
F8B5
  8
0
 10
242.3436328767942
 20
83.744491486759486
 30
0.0
 11
242.21534990168391
 21
82.156504191459476
 31
0.0
  0
LINE
  5
F8B9
  8
0
 10
244.90713837951679
 20
82.156504191459476
 30
0.0
 11
244.95409124845909
 21
82.710314717019486
 31
0.0
  0
ARC
  5
F8BA
  8
0
 10
254.54477905339419
 20
81.459827372259497
 30
0.0
 40
9.8711219337255098
 50
115.9519813176952
 51
148.97833821658691
  0
ARC
  5
F8BE
  8
0
 10
201.69437501349421
 20
77.152616634459491
 30
0.0
 40
8.2423055260758584
 50
210.05065000510149
 51
237.22865087659849
  0
ARC
  5
F8BF
  8
0
 10
205.16597554009419
 20
77.882752914959454
 30
0.0
 40
9.274004216446567
 50
304.30728110389992
 51
328.41341801440149
  0
ARC
  5
F8C0
  8
0
 10
205.93158247689431
 20
87.16034451435948
 30
0.0
 40
8.2423721145372433
 50
30.05075593469854
 51
57.22853543909941
  0
ARC
  5
F8C1
  8
0
 10
202.4603411584942
 20
86.429961185459504
 30
0.0
 40
9.2744213851783606
 50
124.3078350883011
 51
148.41287353790111
  0
ARC
  5
F8C2
  8
0
 10
203.81300364839419
 20
82.156504291059491
 30
0.0
 40
12.99999999999997
 50
315.37920794579628
 51
44.620792054203513
  0
ARC
  5
F8C3
  8
0
 10
203.81300364839419
 20
82.156504291059491
 30
0.0
 40
13.00000000000003
 50
135.3792079457964
 51
224.62079205420349
  0
ARC
  5
F8C4
  8
0
 10
203.8130037485943
 20
93.759332585859482
 30
0.0
 40
24.439623683022731
 50
254.38104017830179
 51
285.61895982169813
  0
ARC
  5
F8C5
  8
0
 10
203.8130037485943
 20
70.553702281759485
 30
0.0
 40
24.439597951997051
 50
74.381023314198401
 51
105.6189766858016
  0
LINE
  5
F8FA
  8
0
 10
258.44879671929419
 20
86.156504265059496
 30
0.0
 11
258.44879671929419
 21
78.156504350659503
 31
0.0
  0
LINE
  5
F8FB
  8
0
 10
268.04879531259428
 20
78.156504350659503
 30
0.0
 11
268.04879531259428
 21
86.156504265059496
 31
0.0
  0
LINE
  5
F8FD
  8
0
 10
250.45879781239429
 20
75.156503858959496
 30
0.0
 11
250.45879781239429
 21
78.156504350659503
 31
0.0
  0
ARC
  5
F8FE
  8
0
 10
250.4587974534943
 20
78.156505854359494
 30
0.0
 40
3.000001995408816
 50
181.68310631612499
 51
270.00000685589902
  0
LINE
  5
F8FF
  8
0
 10
250.45879781239429
 20
86.156504265059496
 30
0.0
 11
250.45879781239429
 21
89.156504291059505
 31
0.0
  0
ARC
  5
F900
  8
0
 10
250.4587963181942
 20
86.156503430959475
 30
0.0
 40
3.0000008601551631
 50
89.999971462300607
 51
178.13911945762931
  0
LINE
  5
F901
  8
0
 10
250.45879781239429
 20
75.156503858959496
 30
0.0
 11
255.3112976252942
 21
75.156503858959496
 31
0.0
  0
LINE
  5
F902
  8
0
 10
255.3112976252944
 20
89.156504291059505
 30
0.0
 11
250.45879781239429
 21
89.156504291059505
 31
0.0
  0
LINE
  5
F905
  8
0
 10
254.99879792329429
 20
75.156503858959496
 30
0.0
 11
254.99879792329429
 21
68.387904706359478
 31
0.0
  0
LINE
  5
F906
  8
0
 10
254.99879792329429
 20
71.156505065959493
 30
0.0
 11
255.3112976252942
 21
71.156505065959493
 31
0.0
  0
LINE
  5
F909
  8
0
 10
254.99879792329429
 20
68.387904706359478
 30
0.0
 11
255.3112976252942
 21
68.387904706359478
 31
0.0
  0
LINE
  5
F90B
  8
0
 10
254.99879792329429
 20
95.925104374959488
 30
0.0
 11
254.99879792329429
 21
89.156504291059505
 31
0.0
  0
LINE
  5
F90C
  8
0
 10
255.3112976252942
 20
93.1565044810595
 30
0.0
 11
254.99879792329429
 21
93.1565044810595
 31
0.0
  0
LINE
  5
F90F
  8
0
 10
255.3112976252942
 20
95.925104374959488
 30
0.0
 11
254.99879792329429
 21
95.925104374959488
 31
0.0
  0
LINE
  5
F911
  8
0
 10
294.69129573549429
 20
82.156504075059473
 30
0.0
 11
303.76693923019428
 21
82.156504075059473
 31
0.0
  0
LINE
  5
F913
  8
0
 10
289.69129584729421
 20
82.156504075059473
 30
0.0
 11
268.04879531259428
 21
82.156504075059473
 31
0.0
  0
LINE
  5
F914
  8
0
 10
258.44879671929419
 20
82.156504075059473
 30
0.0
 11
248.85280653829429
 21
82.156504075059473
 31
0.0
  0
LINE
  5
F915
  8
0
 10
248.7846635281943
 20
82.156504075059473
 30
0.0
 11
248.85280653829429
 21
82.156504075059473
 31
0.0
  0
ARC
  5
F918
  8
0
 10
173.56300364839419
 20
82.156504291059491
 30
0.0
 40
9.2500000000000089
 50
90.0
 51
270.0
  0
LINE
  5
F919
  8
0
 10
173.56300950049419
 20
72.906504887159485
 30
0.0
 11
194.62994754804291
 21
72.906504887159485
 31
0.0
  0
LINE
  5
F91A
  8
0
 10
212.9918371394636
 20
72.906504887159485
 30
0.0
 11
232.20532983539431
 21
72.906504887159485
 31
0.0
  0
ARC
  5
F91B
  8
0
 10
232.20533092529419
 20
86.906504291059477
 30
0.0
 40
14.000000000000011
 50
270.0
 51
294.99999999999972
  0
LINE
  5
F91C
  8
0
 10
238.12198489899421
 20
74.21819543375949
 30
0.0
 11
244.55848187209421
 21
77.219581733459478
 31
0.0
  0
ARC
  5
F91D
  8
0
 10
248.78466416139429
 20
68.156504291059491
 30
0.0
 40
9.9999999999999911
 50
90.0
 51
114.9999999999996
  0
ARC
  5
F91E
  8
0
 10
248.78575896772369
 20
68.153279095614593
 30
0.0
 40
14.003385709803419
 50
89.725666740715241
 51
114.99848286775109
  0
LINE
  5
F91F
  8
0
 10
236.43151521679431
 20
77.843426297359485
 30
0.0
 11
242.86801218979431
 21
80.844813528459497
 31
0.0
  0
ARC
  5
F920
  8
0
 10
232.20533092529419
 20
86.906504291059477
 30
0.0
 40
10.00000000000021
 50
270.0
 51
294.99999999999972
  0
LINE
  5
F921
  8
0
 10
173.56300950049419
 20
76.906504611459496
 30
0.0
 11
191.92025661469421
 21
76.906504611459496
 31
0.0
  0
LINE
  5
F922
  8
0
 10
215.70575088259429
 20
76.906504611459496
 30
0.0
 11
232.20532983539431
 21
76.906504611459496
 31
0.0
  0
ARC
  5
F923
  8
0
 10
173.56300364839419
 20
82.156504291059491
 30
0.0
 40
5.2500000000000062
 50
90.0
 51
270.0
  0
LINE
  5
F924
  8
0
 10
232.2734728454943
 20
87.406504237059465
 30
0.0
 11
215.70575088259429
 21
87.406504237059465
 31
0.0
  0
LINE
  5
F925
  8
0
 10
191.92025661469421
 20
87.406504237059465
 30
0.0
 11
173.56300950049419
 21
87.406504237059465
 31
0.0
  0
ARC
  5
F926
  8
0
 10
232.2734739469943
 20
77.406504291059491
 30
0.0
 40
9.9999999999999911
 50
65.000000000000327
 51
90.0
  0
LINE
  5
F927
  8
0
 10
242.9361551999942
 20
83.468195087259474
 30
0.0
 11
236.49965822689421
 21
86.469582085459479
 31
0.0
  0
ARC
  5
F928
  8
0
 10
248.8528071830942
 20
96.156504291059491
 30
0.0
 40
13.999999999999989
 50
245.00000000000031
 51
270.0
  0
ARC
  5
F929
  8
0
 10
248.8528071830942
 20
96.156504291059491
 30
0.0
 40
9.9999999999999911
 50
245.00000000000031
 51
270.0
  0
LINE
  5
F92A
  8
0
 10
244.62662488219431
 20
87.093426416659455
 30
0.0
 11
238.1901279091943
 21
90.094813298459485
 31
0.0
  0
ARC
  5
F92B
  8
0
 10
232.2734739469943
 20
77.406504291059491
 30
0.0
 40
13.999999999999989
 50
65.000000000000327
 51
90.0
  0
LINE
  5
F92C
  8
0
 10
232.2734728454943
 20
91.406504194259497
 30
0.0
 11
212.9960588231844
 21
91.406504194259497
 31
0.0
  0
LINE
  5
F92D
  8
0
 10
194.63417276576089
 20
91.406504194259497
 30
0.0
 11
173.56300950049419
 21
91.406504194259497
 31
0.0
  0
CIRCLE
  5
F92E
  8
0
 10
295.51129612319431
 20
59.556400617859481
 30
0.0
 40
4.1500000000000057
  0
CIRCLE
  5
F92F
  8
0
 10
263.7112961231943
 20
59.556400617859481
 30
0.0
 40
4.1500000000000057
  0
ARC
  5
F930
  8
0
 10
261.31129612319432
 20
55.957300617859488
 30
0.0
 40
6.0000000000001696
 50
180.0
 51
270.0
  0
LINE
  5
F931
  8
0
 10
255.3112976252942
 20
74.656504708359478
 30
0.0
 11
255.3112976252942
 21
55.957302021759489
 31
0.0
  0
LINE
  5
F932
  8
0
 10
303.91004625709428
 20
55.957302021759489
 30
0.0
 11
303.91004625709428
 21
74.656504708359478
 31
0.0
  0
ARC
  5
F933
  8
0
 10
297.9100461205943
 20
55.957300617859488
 30
0.0
 40
6.0000000000004547
 50
270.0
 51
0.0
  0
LINE
  5
F934
  8
0
 10
261.31129488349433
 20
49.95730103825948
 30
0.0
 11
297.91004620489429
 21
49.95730103825948
 31
0.0
  0
LINE
  5
F935
  8
0
 10
248.78466416139429
 20
78.156504291059491
 30
0.0
 11
305.31675987871751
 21
78.156504350699663
 31
0.0
  0
LINE
  5
F936
  8
0
 10
255.3112976252942
 20
78.156504350659503
 30
0.0
 11
255.3112976252942
 21
74.656504708359478
 31
0.0
  0
LINE
  5
F937
  8
0
 10
303.91004625709428
 20
74.656504708359478
 30
0.0
 11
303.91004625709428
 21
78.156504350659503
 31
0.0
  0
LINE
  5
F938
  8
0
 10
303.91004625709428
 20
86.156504265059496
 30
0.0
 11
303.91004625709428
 21
89.65650431485949
 31
0.0
  0
LINE
  5
F939
  8
0
 10
305.31675987874308
 20
86.156504265015585
 30
0.0
 11
248.8528071830942
 21
86.156504291059491
 31
0.0
  0
CIRCLE
  5
F93B
  8
0
 10
295.51129612319431
 20
104.7566079642594
 30
0.0
 40
4.1500000000000341
  0
CIRCLE
  5
F93C
  8
0
 10
263.7112961231943
 20
104.7566079642594
 30
0.0
 40
4.1499999999999764
  0
ARC
  5
F93D
  8
0
 10
297.9100461205943
 20
108.35570796425949
 30
0.0
 40
6.0000000000005116
 50
0.0
 51
90.0
  0
ARC
  5
F93E
  8
0
 10
261.31129612319432
 20
108.35570796425949
 30
0.0
 40
6.0000000000001696
 50
90.0
 51
180.0
  0
LINE
  5
F93F
  8
0
 10
297.91004620489429
 20
114.3557071117594
 30
0.0
 11
261.31129488349433
 21
114.3557071117594
 31
0.0
  0
LINE
  5
F940
  8
0
 10
255.3112976252942
 20
108.3557079909595
 30
0.0
 11
255.3112976252944
 21
86.156504265059496
 31
0.0
  0
LINE
  5
F941
  8
0
 10
303.91004625709428
 20
89.65650431485949
 30
0.0
 11
303.91004625709428
 21
108.3557079909595
 31
0.0
  0
LINE
  5
F944
  8
0
 10
305.3167598786942
 20
75.156503858959496
 30
0.0
 11
303.91004625709428
 21
75.156503858959496
 31
0.0
  0
LINE
  5
F946
  8
0
 10
303.91004625709428
 20
89.156504291059505
 30
0.0
 11
305.3167598786942
 21
89.156504291059505
 31
0.0
  0
ARC
  5
F948
  8
0
 10
305.31675876799432
 20
78.25651781735948
 30
0.0
 40
0.1000134666659919
 50
270.0006363118016
 51
291.24325305909741
  0
ARC
  5
F94A
  8
0
 10
305.31675426079443
 20
78.25653067665948
 30
0.0
 40
3.1000268177112118
 50
270.00010383229898
 51
291.24541458679721
  0
ARC
  5
F94C
  8
0
 10
305.31675913389432
 20
86.056499136059486
 30
0.0
 40
0.1000051289588582
 50
68.755114842599184
 51
89.999573254897101
  0
ARC
  5
F94D
  8
0
 10
305.31676001349427
 20
86.056504952159486
 30
0.0
 40
3.0999993389575762
 50
68.754502034400346
 51
90.000002490600821
  0
LINE
  5
F94E
  8
0
 10
308.41675996779418
 20
86.056504202059472
 30
0.0
 11
308.41675996779418
 21
78.25650418085948
 31
0.0
  0
LINE
  5
F94F
  8
0
 10
305.41675994169429
 20
78.25650418085948
 30
0.0
 11
305.41675994169429
 21
86.056504202059472
 31
0.0
  0
ARC
  5
F950
  8
0
 10
305.31675996779433
 20
86.056504291059497
 30
0.0
 40
0.099999999999989
 50
0.0
 51
68.75450462309901
  0
ARC
  5
F951
  8
0
 10
305.31675996779433
 20
78.256504291059485
 30
0.0
 40
0.0999999999999957
 50
291.24549537690098
 51
0.0
  0
ARC
  5
F952
  8
0
 10
305.31675996779433
 20
86.056504291059497
 30
0.0
 40
3.1000000000000081
 50
0.0
 51
68.75450462309901
  0
ARC
  5
F953
  8
0
 10
305.31675996779433
 20
78.256504291059485
 30
0.0
 40
3.1000000000000059
 50
291.24549537690098
 51
0.0
  0
ARC
  5
F962
  8
0
 10
259.67806971729419
 20
82.080741694159485
 30
0.0
 40
11.278479179416941
 50
114.51207436989939
 51
141.1437588077988
  0
LINE
  5
F964
  8
0
 10
243.3932375366137
 20
82.156504191459476
 30
0.0
 11
243.4944381323705
 21
83.222522649034246
 31
0.0
  0
CIRCLE
  5
F977
  8
0
 10
203.81300364839419
 20
82.156504291059491
 30
0.0
 40
7.8470974979354464
  0
ARC
  5
FAC0
  8
0
 10
247.43239875696639
 20
325.50025965244492
 30
0.0
 40
0.4018265715054686
 50
112.4851859978511
 51
185.1314593303141
  0
LINE
  5
FB10
  8
0
 10
276.73558369279431
 20
275.0932913273943
 30
0.0
 11
277.11753025649432
 21
280.97466044129419
 31
0.0
  0
LINE
  5
FB16
  8
0
 10
277.93403007089432
 20
293.54754500099421
 30
0.0
 11
281.23079091309432
 21
344.33546327059429
 31
0.0
  0
ARC
  5
FB17
  8
0
 10
263.18655980794392
 20
345.2713446987193
 30
0.0
 40
18.068485000784829
 50
357.03095961276188
 51
17.7453947557416
  0
ARC
  5
FB1A
  8
0
 10
263.21804535317699
 20
345.27550127932221
 30
0.0
 40
18.037231534516089
 50
17.763302742357041
 51
90.002170638744815
  0
ARC
  5
FB1C
  8
0
 10
261.97685673243922
 20
345.31771464704678
 30
0.0
 40
18.037725236759162
 50
86.056494724118664
 51
134.65067504490349
  0
ARC
  5
FB1D
  8
0
 10
266.44365019683909
 20
341.512618476456
 30
0.0
 40
23.889180630356329
 50
135.85846133607171
 51
155.35826419012091
  0
LINE
  5
FB1E
  8
0
 10
244.72999423739421
 20
351.47304497659428
 30
0.0
 11
244.2015171050943
 21
350.28667412699428
 31
0.0
  0
ARC
  5
FB20
  8
0
 10
261.73845566636919
 20
341.56798341305489
 30
0.0
 40
19.528475127784901
 50
181.5102686692079
 51
200.04544398755939
  0
ARC
  5
FB21
  8
0
 10
8.8009164874461874
 20
237.7491272000297
 30
0.0
 40
255.37814762863661
 50
20.303339674922089
 51
22.269878645431291
  0
ARC
  5
FB22
  8
0
 10
173.8132109597469
 20
305.61788202955091
 30
0.0
 40
77.443626475325942
 50
3.762835482778295
 51
11.08766042699045
  0
ARC
  5
FB23
  8
0
 10
16.33523381085374
 20
297.76460379784641
 30
0.0
 40
235.16514236609879
 50
359.41062504265233
 51
2.0390133351657811
  0
LINE
  5
FB24
  8
0
 10
249.9831117688943
 20
294.83475200839428
 30
0.0
 11
249.71750229589429
 21
275.11300556369429
 31
0.0
  0
ARC
  5
FB28
  8
0
 10
265.27919188656028
 20
446.7968498884768
 30
0.0
 40
19.04527082245307
 50
284.37326320617672
 51
303.07531959844778
  0
ARC
  5
FB29
  8
0
 10
268.4248839610724
 20
441.88348858056298
 30
0.0
 40
13.211445627113889
 50
303.27255091546112
 51
324.66618303124312
  0
ARC
  5
FB2A
  8
0
 10
269.82276423689638
 20
440.74746283982222
 30
0.0
 40
11.41466491811393
 50
325.2600829955876
 51
1.309891285788666
  0
LINE
  5
FB2B
  8
0
 10
82.199203252799975
 20
341.35719962347798
 30
0.0
 11
79.965937819399983
 21
341.3225825875943
 31
0.0
  0
LINE
  5
FB2C
  8
0
 10
71.012332972199943
 20
291.9849198311943
 30
0.0
 11
68.801348965699944
 21
346.71158753339421
 31
0.0
  0
ARC
  5
FB30
  8
0
 10
82.064007314677838
 20
349.95999107458869
 30
0.0
 40
13.35342606459082
 50
89.419902505471327
 51
166.84041631498641
  0
ARC
  5
FB32
  8
0
 10
89.199034098278148
 20
349.01819355902961
 30
0.0
 40
20.527688377537778
 50
168.8150503494445
 51
186.45170009893951
  0
LINE
  5
FB33
  8
0
 10
71.350464534099956
 20
284.28403697909431
 30
0.0
 11
71.528855647899945
 21
279.48306165639423
 31
0.0
  0
LINE
  5
FB34
  8
0
 10
76.199188765200006
 20
274.8127322643943
 30
0.0
 11
71.528855647899945
 21
279.48306165639423
 31
0.0
  0
ARC
  5
FB8D
  8
0
 10
257.46673383082879
 20
441.0346333780742
 30
0.0
 40
13.265150905616281
 50
180.113303887472
 51
196.47029460894299
  0
ARC
  5
FB8E
  8
0
 10
255.76479241180559
 20
440.57782654559168
 30
0.0
 40
11.503618393829861
 50
196.6917795603579
 51
215.32660003648201
  0
ARC
  5
FB8F
  8
0
 10
256.3854415728099
 20
441.0272721443983
 30
0.0
 40
12.26987526097445
 50
215.3630551835538
 51
231.8126736943864
  0
ARC
  5
FB90
  8
0
 10
264.27099322795658
 20
451.1789184700902
 30
0.0
 40
25.124246844068502
 50
231.9907919139801
 51
235.2818215565338
  0
LINE
  5
FB91
  8
0
 10
249.96172115199431
 20
430.5277075579483
 30
0.0
 11
250.20946785799421
 21
430.32192485014832
 31
0.0
  0
LINE
  5
FB92
  8
0
 10
250.20946785799421
 20
430.32192485014832
 30
0.0
 11
250.17503499979421
 21
430.30463507934832
 31
0.0
  0
ARC
  5
FB93
  8
0
 10
253.98219358152619
 20
440.99757193645729
 30
0.0
 40
11.350478188013749
 50
234.56484631273949
 51
250.40202085610929
  0
ARC
  5
FB95
  8
0
 10
254.58105728879249
 20
442.63727602448517
 30
0.0
 40
13.04188500400307
 50
220.75541389071779
 51
236.59815360379119
  0
ARC
  5
FB97
  8
0
 10
252.6972944782373
 20
440.899665991436
 30
0.0
 40
10.480918854574441
 50
179.4055691784792
 51
220.28272725016529
  0
LINE
  5
FB98
  8
0
 10
401.13739073276849
 20
279.46836166089417
 30
0.0
 11
396.44752778106857
 21
274.81273226439419
 31
0.0
  0
ARC
  5
FB9A
  8
0
 10
391.34607163259091
 20
325.33960493105889
 30
0.0
 40
44.374056901673633
 50
268.83977619326589
 51
277.00311960989859
  0
ARC
  5
FB9B
  8
0
 10
394.78153233453122
 20
296.66796110972211
 30
0.0
 40
15.4976925979851
 50
277.32074744084542
 51
285.51070619996932
  0
ARC
  5
FB9C
  8
0
 10
397.59174032607592
 20
286.2176873289452
 30
0.0
 40
4.6773153876155913
 50
286.57323661770459
 51
319.51985619487829
  0
LINE
  5
FB9D
  8
0
 10
401.1494513600685
 20
283.18124674269421
 30
0.0
 11
401.29625201216862
 21
284.28403697909408
 31
0.0
  0
LINE
  5
FB9E
  8
0
 10
399.8235590755686
 20
284.16235409679422
 30
0.0
 11
400.13839080926863
 21
291.91050343219422
 31
0.0
  0
LINE
  5
FBA4
  8
0
 10
401.63438357406852
 20
291.9849198311943
 30
0.0
 11
403.95408831536849
 21
350.08273683489421
 31
0.0
  0
ARC
  5
FBA6
  8
0
 10
390.27009774895077
 20
349.84302803137689
 30
0.0
 40
13.68608995046781
 50
1.003574074579529
 51
31.40446913302489
  0
ARC
  5
FBAA
  8
0
 10
390.58910629371911
 20
349.96096233533461
 30
0.0
 40
13.35252115387695
 50
31.685830121544178
 51
90.607558157268969
  0
LINE
  5
FBF9
  8
0
 10
399.8235590755686
 20
284.16235409679422
 30
0.0
 11
399.80022199446847
 21
283.97017382089422
 31
0.0
  0
ARC
  5
FBFA
  8
0
 10
397.38328918003373
 20
284.71519567702569
 30
0.0
 40
2.5291543637361622
 50
303.16442883776909
 51
342.86803559088361
  0
ARC
  5
FBFC
  8
0
 10
392.83409797362481
 20
296.89631580280991
 30
0.0
 40
15.48026103799644
 50
270.86001932707478
 51
292.53489632522889
  0
LINE
  5
FBFD
  8
0
 10
393.06645058096871
 20
281.41779862349432
 30
0.0
 11
390.44752027836859
 21
281.37123994529418
 31
0.0
  0
LINE
  5
FBFF
  8
0
 10
401.63438357406852
 20
291.9849198311943
 30
0.0
 11
401.44143961366848
 21
292.6050540059943
 31
0.0
  0
LINE
  5
FC00
  8
0
 10
401.44143961366848
 20
292.6050540059943
 30
0.0
 11
400.58186613016852
 21
293.00146214669422
 31
0.0
  0
ARC
  5
FC01
  8
0
 10
396.56812712880651
 20
273.34127054411528
 30
0.0
 40
20.065722878111529
 50
78.461308635084094
 51
89.288781687982265
  0
ARC
  5
FC02
  8
0
 10
389.05812262431601
 20
88.420469155981735
 30
0.0
 40
205.13177378896961
 50
87.832279355713226
 51
89.611921113422582
  0
ARC
  5
FC06
  8
0
 10
254.19534633218109
 20
81.899667530950126
 30
0.0
 40
10.824361105011331
 50
124.6529900138774
 51
151.4861286754807
  0
ARC
  5
FC08
  8
0
 10
256.9637171248005
 20
78.263588104445432
 30
0.0
 40
15.390978336311109
 50
104.9130147751253
 51
125.43403260112331
  0
LINE
  5
FC0A
  8
0
 10
253.0028134583942
 20
93.1361620677595
 30
0.0
 11
253.2577313481942
 21
93.173629174959459
 31
0.0
  0
LINE
  5
FC0B
  8
0
 10
253.2577313481942
 20
93.173629174959459
 30
0.0
 11
253.40577065939419
 21
93.160529191559476
 31
0.0
  0
LINE
  5
FC0C
  8
0
 10
253.40577065939419
 20
93.160529191559476
 30
0.0
 11
253.4333974122942
 21
93.094777352159468
 31
0.0
  0
LINE
  5
FC0F
  8
0
 10
253.4333974122942
 20
93.094777352159468
 30
0.0
 11
253.33340689539429
 21
92.975307990759475
 31
0.0
  0
LINE
  5
FC10
  8
0
 10
253.33340689539429
 20
92.975307990759475
 30
0.0
 11
252.27007493369419
 21
92.167263188359499
 31
0.0
  0
ARC
  5
FC11
  8
0
 10
260.5783232429518
 20
80.833724328903557
 30
0.0
 40
14.052618725599849
 50
126.243929582154
 51
141.21775426890321
  0
LINE
  5
FC12
  8
0
 10
249.62385594839429
 20
89.635754738959477
 30
0.0
 11
249.07154193873771
 21
88.816490357169869
 31
0.0
  0
ARC
  5
FC13
  8
0
 10
260.26214753263412
 20
83.094409072461318
 30
0.0
 40
9.8004600881781876
 50
122.4831312234142
 51
141.78952155935531
  0
ARC
  5
FC14
  8
0
 10
264.31362881464042
 20
78.014620296079315
 30
0.0
 40
15.933892376915979
 50
125.7741935342833
 51
135.63258562630219
  0
ARC
  5
FC15
  8
0
 10
257.80098290805319
 20
84.858476216000895
 30
0.0
 40
6.2985702291238512
 50
116.4164441812663
 51
136.96997326615309
  0
LINE
  5
FD58
  8
0
 10
403.44440745807901
 20
337.31760140627682
 30
0.0
 11
403.43194231386849
 21
337.48441599309422
 31
0.0
  0
LINE
  5
FD59
  8
0
 10
403.43194231386849
 20
337.48441599309422
 30
0.0
 11
403.43194231386849
 21
337.48441599309422
 31
0.0
  0
LINE
  5
FE31
  8
1
 10
390.44752027836859
 20
368.31273273017388
 30
0.0
 11
390.44752027836859
 21
159.31300938129419
 31
0.0
  0
LINE
  5
FE32
  8
1
 10
82.199203252799975
 20
368.31273273017388
 30
0.0
 11
82.199203252799975
 21
159.31300938129419
 31
0.0
  0
ARC
  5
FE33
  8
0
 10
82.334399190922099
 20
349.95999107458869
 30
0.0
 40
13.35342606459082
 50
13.15958368501472
 51
90.580097494535167
  0
ARC
  5
FE34
  8
0
 10
75.199372407321789
 20
349.01819355902961
 30
0.0
 40
20.527688377537778
 50
353.54829990106089
 51
11.18494965055589
  0
POLYLINE
  5
FE35
  8
0
 66
     1
 10
0.0
 20
0.0
 30
0.0
 70
   128
  0
VERTEX
  5
109F0
  8
0
 10
93.047941971499995
 20
284.28403697909431
 30
0.0
  0
VERTEX
  5
109F1
  8
0
 10
92.89938111969991
 20
284.97961573309419
 30
0.0
  0
VERTEX
  5
109F2
  8
0
 10
92.624082166699964
 20
285.84590218969419
 30
0.0
  0
VERTEX
  5
109F3
  8
0
 10
92.286867026199957
 20
286.9918312877943
 30
0.0
  0
VERTEX
  5
109F4
  8
0
 10
92.158229026899903
 20
287.73173354569423
 30
0.0
  0
VERTEX
  5
109F5
  8
0
 10
92.130192492099923
 20
288.14775906509419
 30
0.0
  0
VERTEX
  5
109F6
  8
0
 10
92.138887319699961
 20
288.57697956269419
 30
0.0
  0
VERTEX
  5
109F7
  8
0
 10
92.185310024699902
 20
288.99687938399433
 30
0.0
  0
VERTEX
  5
109F8
  8
0
 10
92.263991881099969
 20
289.38392959539419
 30
0.0
  0
VERTEX
  5
109F9
  8
0
 10
92.474087078099956
 20
290.03019295639422
 30
0.0
  0
VERTEX
  5
109FA
  8
0
 10
92.909342545999934
 20
290.9275408834942
 30
0.0
  0
VERTEX
  5
109FB
  8
0
 10
93.227430183399974
 20
291.53343699879429
 30
0.0
  0
VERTEX
  5
109FC
  8
0
 10
93.386073533399994
 20
291.9849198311943
 30
0.0
  0
SEQEND
  5
109FD
  8
0
  0
LINE
  5
FE36
  8
0
 10
82.199203252799975
 20
341.35719962347798
 30
0.0
 11
84.432468686199968
 21
341.3225825875943
 31
0.0
  0
POLYLINE
  5
FE37
  8
0
 66
     1
 10
0.0
 20
0.0
 30
0.0
 70
   128
  0
VERTEX
  5
109FE
  8
0
 10
82.199203252799975
 20
349.4418977769069
 30
0.0
  0
VERTEX
  5
109FF
  8
0
 10
84.835517156799924
 20
349.33609925219417
 30
0.0
  0
VERTEX
  5
10A00
  8
0
 10
87.304618146199914
 20
348.98939393469419
 30
0.0
  0
VERTEX
  5
10A01
  8
0
 10
88.575321186300016
 20
348.6569043248943
 30
0.0
  0
VERTEX
  5
10A02
  8
0
 10
89.715045813399897
 20
348.18794988099421
 30
0.0
  0
VERTEX
  5
10A03
  8
0
 10
90.661626245799994
 20
347.6031985133942
 30
0.0
  0
VERTEX
  5
10A04
  8
0
 10
91.443671781499916
 20
346.80503271519422
 30
0.0
  0
VERTEX
  5
10A05
  8
0
 10
91.958169761999898
 20
345.75834535069419
 30
0.0
  0
VERTEX
  5
10A06
  8
0
 10
92.055081326499945
 20
345.3034725040942
 30
0.0
  0
VERTEX
  5
10A07
  8
0
 10
92.082225654199988
 20
344.80575881899432
 30
0.0
  0
VERTEX
  5
10A08
  8
0
 10
92.04306540259995
 20
344.35274861759422
 30
0.0
  0
VERTEX
  5
10A09
  8
0
 10
91.921226058099933
 20
343.89386735859421
 30
0.0
  0
VERTEX
  5
10A0A
  8
0
 10
91.528599087099906
 20
343.17709170289419
 30
0.0
  0
VERTEX
  5
10A0B
  8
0
 10
90.947142738799926
 20
342.61025153109432
 30
0.0
  0
VERTEX
  5
10A0C
  8
0
 10
90.226976137600005
 20
342.18968115749419
 30
0.0
  0
VERTEX
  5
10A0D
  8
0
 10
89.263618860399887
 20
341.84440635149429
 30
0.0
  0
VERTEX
  5
10A0E
  8
0
 10
88.100368093699885
 20
341.59220419829421
 30
0.0
  0
VERTEX
  5
10A0F
  8
0
 10
86.939562980000005
 20
341.44061468549421
 30
0.0
  0
VERTEX
  5
10A10
  8
0
 10
85.617810424399977
 20
341.34666286409418
 30
0.0
  0
VERTEX
  5
10A11
  8
0
 10
84.432468686199968
 20
341.3225825875943
 30
0.0
  0
SEQEND
  5
10A12
  8
0
  0
ARC
  5
FE38
  8
0
 10
82.104200494037968
 20
296.5718084693591
 30
0.0
 40
38.116761459720429
 50
78.380300220645054
 51
89.857195035818464
  0
POLYLINE
  5
FE39
  8
0
 66
     1
 10
0.0
 20
0.0
 30
0.0
 70
   128
  0
VERTEX
  5
10A13
  8
0
 10
89.781477052699984
 20
333.90740714969422
 30
0.0
  0
VERTEX
  5
10A14
  8
0
 10
90.583670820999941
 20
333.45919512219427
 30
0.0
  0
VERTEX
  5
10A15
  8
0
 10
91.299929592699982
 20
332.75733552879421
 30
0.0
  0
VERTEX
  5
10A16
  8
0
 10
91.711721319700004
 20
331.93096183239419
 30
0.0
  0
VERTEX
  5
10A17
  8
0
 10
91.817612696399905
 20
331.4132060855942
 30
0.0
  0
VERTEX
  5
10A18
  8
0
 10
91.84363943709991
 20
330.89008592069422
 30
0.0
  0
VERTEX
  5
10A19
  8
0
 10
91.781548160999932
 20
330.3066309541943
 30
0.0
  0
VERTEX
  5
10A1A
  8
0
 10
91.664452973700008
 20
329.82732020319418
 30
0.0
  0
VERTEX
  5
10A1B
  8
0
 10
91.407661262899978
 20
329.22175191349419
 30
0.0
  0
VERTEX
  5
10A1C
  8
0
 10
90.690229955999925
 20
328.28086279339419
 30
0.0
  0
VERTEX
  5
10A1D
  8
0
 10
89.775250229899925
 20
327.59181819859418
 30
0.0
  0
VERTEX
  5
10A1E
  8
0
 10
88.662843156599934
 20
327.05071233219428
 30
0.0
  0
VERTEX
  5
10A1F
  8
0
 10
87.358955230499987
 20
326.6509439796942
 30
0.0
  0
VERTEX
  5
10A20
  8
0
 10
85.859891895200008
 20
326.37792490429422
 30
0.0
  0
VERTEX
  5
10A21
  8
0
 10
84.350134182700003
 20
326.23605094849432
 30
0.0
  0
VERTEX
  5
10A22
  8
0
 10
82.73719570779997
 20
326.20072029539432
 30
0.0
  0
VERTEX
  5
10A23
  8
0
 10
82.199203252799975
 20
326.21006344469879
 30
0.0
  0
SEQEND
  5
10A24
  8
0
  0
ARC
  5
FE3A
  8
0
 10
81.904763469858835
 20
268.22538918741242
 30
0.0
 40
52.430452361910753
 50
82.937773758187376
 51
89.678235742814351
  0
POLYLINE
  5
FE3B
  8
0
 66
     1
 10
0.0
 20
0.0
 30
0.0
 70
   128
  0
VERTEX
  5
10A25
  8
0
 10
88.350942294999996
 20
320.2580627053942
 30
0.0
  0
VERTEX
  5
10A26
  8
0
 10
89.966403257099955
 20
319.79976259179421
 30
0.0
  0
VERTEX
  5
10A27
  8
0
 10
90.885826323099977
 20
319.28278170529433
 30
0.0
  0
VERTEX
  5
10A28
  8
0
 10
91.600128386099996
 20
318.53493712849422
 30
0.0
  0
VERTEX
  5
10A29
  8
0
 10
92.030518624899969
 20
317.4853440374942
 30
0.0
  0
VERTEX
  5
10A2A
  8
0
 10
92.120359588399992
 20
316.88357554379422
 30
0.0
  0
VERTEX
  5
10A2B
  8
0
 10
92.135974142699965
 20
316.18229709569431
 30
0.0
  0
VERTEX
  5
10A2C
  8
0
 10
92.081512261099988
 20
315.55798314519433
 30
0.0
  0
VERTEX
  5
10A2D
  8
0
 10
91.926005605599926
 20
314.78531323379423
 30
0.0
  0
VERTEX
  5
10A2E
  8
0
 10
91.490036744599934
 20
313.69122527539417
 30
0.0
  0
VERTEX
  5
10A2F
  8
0
 10
90.915930393999929
 20
312.87616156049421
 30
0.0
  0
VERTEX
  5
10A30
  8
0
 10
90.174027655200007
 20
312.20563910909419
 30
0.0
  0
VERTEX
  5
10A31
  8
0
 10
88.088709797699948
 20
311.18276380009422
 30
0.0
  0
VERTEX
  5
10A32
  8
0
 10
86.638441245999957
 20
310.7989396899942
 30
0.0
  0
VERTEX
  5
10A33
  8
0
 10
84.959859896399948
 20
310.53673885769422
 30
0.0
  0
VERTEX
  5
10A34
  8
0
 10
82.199203252799975
 20
310.39286778227751
 30
0.0
  0
SEQEND
  5
10A35
  8
0
  0
LINE
  5
FE3C
  8
0
 10
88.199217740399945
 20
274.8127322643943
 30
0.0
 11
76.199188765200006
 21
274.8127322643943
 31
0.0
  0
LINE
  5
FE3D
  8
0
 10
82.199203252799975
 20
295.13219391796019
 30
0.0
 11
83.750290732799954
 21
295.16973011199423
 31
0.0
  0
ARC
  5
FE3E
  8
0
 10
83.064755909524919
 20
225.75950352281399
 30
0.0
 40
80.493357229037684
 50
86.976923194599578
 51
90.616118791121096
  0
POLYLINE
  5
FE3F
  8
0
 66
     1
 10
0.0
 20
0.0
 30
0.0
 70
   128
  0
VERTEX
  5
10A36
  8
0
 10
87.309827964699934
 20
306.14084415139428
 30
0.0
  0
VERTEX
  5
10A37
  8
0
 10
87.824749697000016
 20
306.10426925129423
 30
0.0
  0
VERTEX
  5
10A38
  8
0
 10
88.973051804999955
 20
305.97678236669418
 30
0.0
  0
VERTEX
  5
10A39
  8
0
 10
89.978204045399934
 20
305.80374263229419
 30
0.0
  0
VERTEX
  5
10A3A
  8
0
 10
90.889769542900027
 20
305.55183850229429
 30
0.0
  0
VERTEX
  5
10A3B
  8
0
 10
91.586894292299917
 20
305.20449988549422
 30
0.0
  0
VERTEX
  5
10A3C
  8
0
 10
92.011486116799915
 20
304.78863082829417
 30
0.0
  0
VERTEX
  5
10A3D
  8
0
 10
92.264550674699976
 20
304.20105569069432
 30
0.0
  0
VERTEX
  5
10A3E
  8
0
 10
92.344141501899912
 20
303.33269797269429
 30
0.0
  0
VERTEX
  5
10A3F
  8
0
 10
92.333375412899954
 20
302.79583893719428
 30
0.0
  0
VERTEX
  5
10A40
  8
0
 10
92.306268338099926
 20
302.13325880469432
 30
0.0
  0
VERTEX
  5
10A41
  8
0
 10
92.27960457279994
 20
301.47870294749418
 30
0.0
  0
VERTEX
  5
10A42
  8
0
 10
92.251426476899951
 20
300.77071897689427
 30
0.0
  0
VERTEX
  5
10A43
  8
0
 10
92.188405740999997
 20
299.7933443635942
 30
0.0
  0
VERTEX
  5
10A44
  8
0
 10
92.066670704599915
 20
298.97553138439429
 30
0.0
  0
VERTEX
  5
10A45
  8
0
 10
91.858905676699905
 20
298.28294776379431
 30
0.0
  0
VERTEX
  5
10A46
  8
0
 10
91.294511157999978
 20
297.35266827049418
 30
0.0
  0
VERTEX
  5
10A47
  8
0
 10
90.396988142199916
 20
296.60617224879422
 30
0.0
  0
VERTEX
  5
10A48
  8
0
 10
89.198907773899919
 20
296.05001620949412
 30
0.0
  0
VERTEX
  5
10A49
  8
0
 10
87.609196949699935
 20
295.61395607889432
 30
0.0
  0
VERTEX
  5
10A4A
  8
0
 10
86.409939389599927
 20
295.40489278739432
 30
0.0
  0
VERTEX
  5
10A4B
  8
0
 10
85.053199838799969
 20
295.24927996099427
 30
0.0
  0
VERTEX
  5
10A4C
  8
0
 10
83.750290732799954
 20
295.16973011199423
 30
0.0
  0
SEQEND
  5
10A4D
  8
0
  0
LINE
  5
FE40
  8
0
 10
93.386073533399994
 20
291.9849198311943
 30
0.0
 11
95.597057539900007
 21
346.71158753339421
 31
0.0
  0
LINE
  5
FE41
  8
0
 10
93.047941971499995
 20
284.28403697909431
 30
0.0
 11
92.869550857700006
 21
279.48306165639423
 31
0.0
  0
LINE
  5
FE42
  8
0
 10
88.199217740399945
 20
274.8127322643943
 30
0.0
 11
92.869550857700006
 21
279.48306165639423
 31
0.0
  0
LINE
  5
FE43
  8
0
 10
379.26065698266848
 20
291.9849198311943
 30
0.0
 11
376.94095224136851
 21
350.08273683489421
 31
0.0
  0
ARC
  5
FE44
  8
0
 10
390.62494280778628
 20
349.84302803137689
 30
0.0
 40
13.68608995046781
 50
148.59553086697031
 51
178.99642592542051
  0
ARC
  5
FE45
  8
0
 10
390.305934263018
 20
349.96096233533461
 30
0.0
 40
13.35252115387695
 50
89.392441842731003
 51
148.31416987845751
  0
LINE
  5
FE46
  8
0
 10
379.75764982396839
 20
279.46836166089417
 30
0.0
 11
379.59878854456849
 21
284.28403697909408
 31
0.0
  0
LINE
  5
FE47
  8
0
 10
381.07148148116852
 20
284.16235409679422
 30
0.0
 11
380.75664974746849
 21
291.91050343219422
 31
0.0
  0
POLYLINE
  5
FE48
  8
0
 66
     1
 10
0.0
 20
0.0
 30
0.0
 70
   128
  0
VERTEX
  5
10A4E
  8
0
 10
377.27791778736849
 20
345.02525292339419
 30
0.0
  0
VERTEX
  5
10A4F
  8
0
 10
377.2933144122685
 20
344.52199600639409
 30
0.0
  0
VERTEX
  5
10A50
  8
0
 10
377.29058563706849
 20
344.07353065909422
 30
0.0
  0
VERTEX
  5
10A51
  8
0
 10
377.2744383662685
 20
343.74299310149422
 30
0.0
  0
VERTEX
  5
10A52
  8
0
 10
377.24864445626849
 20
343.5336168855942
 30
0.0
  0
VERTEX
  5
10A53
  8
0
 10
377.22062282266847
 20
343.50299499929417
 30
0.0
  0
VERTEX
  5
10A54
  8
0
 10
377.1994089427219
 20
343.60959830511831
 30
0.0
  0
SEQEND
  5
10A55
  8
0
  0
POLYLINE
  5
FE49
  8
0
 66
     1
 10
0.0
 20
0.0
 30
0.0
 70
   128
  0
VERTEX
  5
10A56
  8
0
 10
377.08703574307242
 20
346.42402441423491
 30
0.0
  0
VERTEX
  5
10A57
  8
0
 10
377.1064352243684
 20
346.46127782769418
 30
0.0
  0
VERTEX
  5
10A58
  8
0
 10
377.14411281046841
 20
346.32660113279422
 30
0.0
  0
VERTEX
  5
10A59
  8
0
 10
377.19014994796839
 20
346.04058824479421
 30
0.0
  0
VERTEX
  5
10A5A
  8
0
 10
377.23760269576837
 20
345.6171270459941
 30
0.0
  0
VERTEX
  5
10A5B
  8
0
 10
377.27079130706852
 20
345.1625969260943
 30
0.0
  0
VERTEX
  5
10A5C
  8
0
 10
377.27791778736849
 20
345.02525292339419
 30
0.0
  0
SEQEND
  5
10A5D
  8
0
  0
POLYLINE
  5
FE4A
  8
0
 66
     1
 10
0.0
 20
0.0
 30
0.0
 70
   128
  0
VERTEX
  5
10A5E
  8
0
 10
380.22764921186848
 20
336.07795499269417
 30
0.0
  0
VERTEX
  5
10A5F
  8
0
 10
380.20125180476839
 20
335.49995385109418
 30
0.0
  0
VERTEX
  5
10A60
  8
0
 10
380.08853197096852
 20
335.0640203803942
 30
0.0
  0
VERTEX
  5
10A61
  8
0
 10
379.92462851106848
 20
334.75710116329418
 30
0.0
  0
VERTEX
  5
10A62
  8
0
 10
379.71310466526847
 20
334.5806267112942
 30
0.0
  0
VERTEX
  5
10A63
  8
0
 10
379.50679995116838
 20
334.5840986818942
 30
0.0
  0
VERTEX
  5
10A64
  8
0
 10
379.3133959173685
 20
334.74620841449422
 30
0.0
  0
VERTEX
  5
10A65
  8
0
 10
379.14785891766849
 20
335.06954871119422
 30
0.0
  0
VERTEX
  5
10A66
  8
0
 10
379.0391512214685
 20
335.48038862649418
 30
0.0
  0
VERTEX
  5
10A67
  8
0
 10
378.97708602246848
 20
335.97600124779422
 30
0.0
  0
VERTEX
  5
10A68
  8
0
 10
378.9724815636684
 20
336.0617872327943
 30
0.0
  0
VERTEX
  5
10A69
  8
0
 10
378.98761369286848
 20
336.6385217755942
 30
0.0
  0
VERTEX
  5
10A6A
  8
0
 10
379.06377352776849
 20
337.0707448571942
 30
0.0
  0
VERTEX
  5
10A6B
  8
0
 10
379.20097596936853
 20
337.39453218879419
 30
0.0
  0
VERTEX
  5
10A6C
  8
0
 10
379.37637381256837
 20
337.55597136919408
 30
0.0
  0
VERTEX
  5
10A6D
  8
0
 10
379.59347441786849
 20
337.55716346209419
 30
0.0
  0
VERTEX
  5
10A6E
  8
0
 10
379.80555705726852
 20
337.38584481179419
 30
0.0
  0
VERTEX
  5
10A6F
  8
0
 10
379.98936288056848
 20
337.08898387849422
 30
0.0
  0
VERTEX
  5
10A70
  8
0
 10
380.14432936906849
 20
336.65175400679408
 30
0.0
  0
VERTEX
  5
10A71
  8
0
 10
380.22256419056851
 20
336.15913651889412
 30
0.0
  0
VERTEX
  5
10A72
  8
0
 10
380.22764921186848
 20
336.07795499269417
 30
0.0
  0
SEQEND
  5
10A73
  8
0
  0
POLYLINE
  5
FE4B
  8
0
 66
     1
 10
0.0
 20
0.0
 30
0.0
 70
   128
  0
VERTEX
  5
10A74
  8
0
 10
378.69540192186849
 20
331.54399357739419
 30
0.0
  0
VERTEX
  5
10A75
  8
0
 10
378.69224660096847
 20
331.03800974789419
 30
0.0
  0
VERTEX
  5
10A76
  8
0
 10
378.64059731366842
 20
330.59088550509421
 30
0.0
  0
VERTEX
  5
10A77
  8
0
 10
378.55612076816851
 20
330.26657663289421
 30
0.0
  0
VERTEX
  5
10A78
  8
0
 10
378.44398580486848
 20
330.07022403189421
 30
0.0
  0
VERTEX
  5
10A79
  8
0
 10
378.33206877106852
 20
330.05539737649423
 30
0.0
  0
VERTEX
  5
10A7A
  8
0
 10
378.2286994158685
 20
330.20083270969423
 30
0.0
  0
VERTEX
  5
10A7B
  8
0
 10
378.13854739066852
 20
330.51003180449408
 30
0.0
  0
VERTEX
  5
10A7C
  8
0
 10
378.07722724976838
 20
330.91018758719417
 30
0.0
  0
VERTEX
  5
10A7D
  8
0
 10
378.03752124306862
 20
331.39337264009419
 30
0.0
  0
VERTEX
  5
10A7E
  8
0
 10
378.03101502356839
 20
331.54034279289419
 30
0.0
  0
VERTEX
  5
10A7F
  8
0
 10
378.02745364606858
 20
332.0377584546942
 30
0.0
  0
VERTEX
  5
10A80
  8
0
 10
378.05289551616852
 20
332.47762583199409
 30
0.0
  0
VERTEX
  5
10A81
  8
0
 10
378.11180911956848
 20
332.8244950622942
 30
0.0
  0
VERTEX
  5
10A82
  8
0
 10
378.19637879726849
 20
333.00722800199418
 30
0.0
  0
VERTEX
  5
10A83
  8
0
 10
378.30824740226848
 20
333.02980326119422
 30
0.0
  0
VERTEX
  5
10A84
  8
0
 10
378.42789627606851
 20
332.87471197549422
 30
0.0
  0
VERTEX
  5
10A85
  8
0
 10
378.53618673976848
 20
332.59005509319422
 30
0.0
  0
VERTEX
  5
10A86
  8
0
 10
378.63244824106852
 20
332.16729424899421
 30
0.0
  0
VERTEX
  5
10A87
  8
0
 10
378.68760675186837
 20
331.68804310269422
 30
0.0
  0
VERTEX
  5
10A88
  8
0
 10
378.69540192186849
 20
331.54399357739419
 30
0.0
  0
SEQEND
  5
10A89
  8
0
  0
POLYLINE
  5
FE4C
  8
0
 66
     1
 10
0.0
 20
0.0
 30
0.0
 70
   128
  0
VERTEX
  5
10A8A
  8
0
 10
377.6636678725684
 20
336.03731952609422
 30
0.0
  0
VERTEX
  5
10A8B
  8
0
 10
377.67360135906853
 20
335.53300462669421
 30
0.0
  0
VERTEX
  5
10A8C
  8
0
 10
377.6647295802685
 20
335.08845828479423
 30
0.0
  0
VERTEX
  5
10A8D
  8
0
 10
377.64303535216851
 20
334.76441763349419
 30
0.0
  0
VERTEX
  5
10A8E
  8
0
 10
377.61270031326848
 20
334.56900380559421
 30
0.0
  0
VERTEX
  5
10A8F
  8
0
 10
377.5823261588684
 20
334.55435596409421
 30
0.0
  0
VERTEX
  5
10A90
  8
0
 10
377.55517407848902
 20
334.6993359833225
 30
0.0
  0
SEQEND
  5
10A91
  8
0
  0
LINE
  5
FE4D
  8
0
 10
377.45063309865799
 20
337.31760140627682
 30
0.0
 11
377.46309824286851
 21
337.48441599309422
 31
0.0
  0
LINE
  5
FE4E
  8
0
 10
377.46309824286851
 20
337.48441599309422
 30
0.0
 11
377.46309824286851
 21
337.48441599309422
 31
0.0
  0
POLYLINE
  5
FE4F
  8
0
 66
     1
 10
0.0
 20
0.0
 30
0.0
 70
   128
  0
VERTEX
  5
10A92
  8
0
 10
377.46309824286851
 20
337.48441599309422
 30
0.0
  0
VERTEX
  5
10A93
  8
0
 10
377.49349102376851
 20
337.5078555196942
 30
0.0
  0
VERTEX
  5
10A94
  8
0
 10
377.53608971836837
 20
337.35288344329422
 30
0.0
  0
VERTEX
  5
10A95
  8
0
 10
377.58200205856849
 20
337.06301115459422
 30
0.0
  0
VERTEX
  5
10A96
  8
0
 10
377.62762755156848
 20
336.63630150259422
 30
0.0
  0
VERTEX
  5
10A97
  8
0
 10
377.65793651336838
 20
336.17208562799419
 30
0.0
  0
VERTEX
  5
10A98
  8
0
 10
377.6636678725684
 20
336.03731952609422
 30
0.0
  0
SEQEND
  5
10A99
  8
0
  0
POLYLINE
  5
FE50
  8
0
 66
     1
 10
0.0
 20
0.0
 30
0.0
 70
   128
  0
VERTEX
  5
10A9A
  8
0
 10
378.03748026486841
 20
349.65105019509417
 30
0.0
  0
VERTEX
  5
10A9B
  8
0
 10
377.96028852456863
 20
349.06592629849422
 30
0.0
  0
VERTEX
  5
10A9C
  8
0
 10
377.86494903266839
 20
348.62950108949423
 30
0.0
  0
VERTEX
  5
10A9D
  8
0
 10
377.76200249786848
 20
348.3187373727942
 30
0.0
  0
VERTEX
  5
10A9E
  8
0
 10
377.64573618766849
 20
348.12877736989418
 30
0.0
  0
VERTEX
  5
10A9F
  8
0
 10
377.5356240570685
 20
348.11654351659422
 30
0.0
  0
VERTEX
  5
10AA0
  8
0
 10
377.43391804396839
 20
348.27336333699418
 30
0.0
  0
VERTEX
  5
10AA1
  8
0
 10
377.35086828466842
 20
348.5974635928942
 30
0.0
  0
VERTEX
  5
10AA2
  8
0
 10
377.30384394526851
 20
349.0101661533941
 30
0.0
  0
VERTEX
  5
10AA3
  8
0
 10
377.29661688206852
 20
349.5571281760943
 30
0.0
  0
VERTEX
  5
10AA4
  8
0
 10
377.33930498356858
 20
350.04576705399421
 30
0.0
  0
VERTEX
  5
10AA5
  8
0
 10
377.42395661766841
 20
350.48386119309419
 30
0.0
  0
VERTEX
  5
10AA6
  8
0
 10
377.55029797556853
 20
350.84664486349419
 30
0.0
  0
VERTEX
  5
10AA7
  8
0
 10
377.68883779646848
 20
351.05129741139422
 30
0.0
  0
VERTEX
  5
10AA8
  8
0
 10
377.83144004636853
 20
351.09920464459418
 30
0.0
  0
VERTEX
  5
10AA9
  8
0
 10
377.9502470045685
 20
350.96867047249418
 30
0.0
  0
VERTEX
  5
10AAA
  8
0
 10
378.02959196266852
 20
350.68823061889418
 30
0.0
  0
VERTEX
  5
10AAB
  8
0
 10
378.06466184556848
 20
350.26715360589412
 30
0.0
  0
VERTEX
  5
10AAC
  8
0
 10
378.05009223516851
 20
349.80462156239417
 30
0.0
  0
VERTEX
  5
10AAD
  8
0
 10
378.03748026486841
 20
349.65105019509417
 30
0.0
  0
SEQEND
  5
10AAE
  8
0
  0
POLYLINE
  5
FE51
  8
0
 66
     1
 10
0.0
 20
0.0
 30
0.0
 70
   128
  0
VERTEX
  5
10AAF
  8
0
 10
382.86275472486841
 20
340.61096273369418
 30
0.0
  0
VERTEX
  5
10AB0
  8
0
 10
382.81379602846852
 20
340.07046781479409
 30
0.0
  0
VERTEX
  5
10AB1
  8
0
 10
382.63618070626848
 20
339.6287079900942
 30
0.0
  0
VERTEX
  5
10AB2
  8
0
 10
382.38070122896852
 20
339.31538127369419
 30
0.0
  0
VERTEX
  5
10AB3
  8
0
 10
382.0464542135685
 20
339.12445269529422
 30
0.0
  0
VERTEX
  5
10AB4
  8
0
 10
381.71668313446838
 20
339.11412619059422
 30
0.0
  0
VERTEX
  5
10AB5
  8
0
 10
381.41008242966842
 20
339.25889097159421
 30
0.0
  0
VERTEX
  5
10AB6
  8
0
 10
381.13660141826853
 20
339.56737481059417
 30
0.0
  0
VERTEX
  5
10AB7
  8
0
 10
380.95319606366837
 20
339.9797495454942
 30
0.0
  0
VERTEX
  5
10AB8
  8
0
 10
380.85457459086842
 20
340.4756005853942
 30
0.0
  0
VERTEX
  5
10AB9
  8
0
 10
380.84556870156848
 20
340.6104113906942
 30
0.0
  0
VERTEX
  5
10ABA
  8
0
 10
380.8826167136686
 20
341.14989303059423
 30
0.0
  0
VERTEX
  5
10ABB
  8
0
 10
381.01863078766849
 20
341.59448407589429
 30
0.0
  0
VERTEX
  5
10ABC
  8
0
 10
381.25140182676847
 20
341.92485772079419
 30
0.0
  0
VERTEX
  5
10ABD
  8
0
 10
381.52509517966843
 20
342.08440445369422
 30
0.0
  0
VERTEX
  5
10ABE
  8
0
 10
381.85909353196848
 20
342.10265837609421
 30
0.0
  0
VERTEX
  5
10ABF
  8
0
 10
382.20470175146852
 20
341.94938503209431
 30
0.0
  0
VERTEX
  5
10AC0
  8
0
 10
382.4996395036685
 20
341.65849946439431
 30
0.0
  0
VERTEX
  5
10AC1
  8
0
 10
382.73635562506843
 20
341.23056791729408
 30
0.0
  0
VERTEX
  5
10AC2
  8
0
 10
382.85300098356862
 20
340.73950015009422
 30
0.0
  0
VERTEX
  5
10AC3
  8
0
 10
382.86275472486841
 20
340.61096273369418
 30
0.0
  0
SEQEND
  5
10AC4
  8
0
  0
POLYLINE
  5
FE52
  8
0
 66
     1
 10
0.0
 20
0.0
 30
0.0
 70
   128
  0
VERTEX
  5
10AC5
  8
0
 10
379.85115088516841
 20
345.19454501569419
 30
0.0
  0
VERTEX
  5
10AC6
  8
0
 10
379.83125038446849
 20
344.6833904832942
 30
0.0
  0
VERTEX
  5
10AC7
  8
0
 10
379.72735203796839
 20
344.2285027354942
 30
0.0
  0
VERTEX
  5
10AC8
  8
0
 10
379.56896759566848
 20
343.89949999749422
 30
0.0
  0
VERTEX
  5
10AC9
  8
0
 10
379.35915552076852
 20
343.68978105489418
 30
0.0
  0
VERTEX
  5
10ACA
  8
0
 10
379.14454527196852
 20
343.66045556969408
 30
0.0
  0
VERTEX
  5
10ACB
  8
0
 10
378.94515469666851
 20
343.79773996769421
 30
0.0
  0
VERTEX
  5
10ACC
  8
0
 10
378.7732940166685
 20
344.10227499909422
 30
0.0
  0
VERTEX
  5
10ACD
  8
0
 10
378.66032272576842
 20
344.49661932889421
 30
0.0
  0
VERTEX
  5
10ACE
  8
0
 10
378.5911291837686
 20
344.9784781783942
 30
0.0
  0
VERTEX
  5
10ACF
  8
0
 10
378.5801377147684
 20
345.15164457269418
 30
0.0
  0
VERTEX
  5
10AD0
  8
0
 10
378.58877293766841
 20
345.66366337239418
 30
0.0
  0
VERTEX
  5
10AD1
  8
0
 10
378.65844704206847
 20
346.11875973649421
 30
0.0
  0
VERTEX
  5
10AD2
  8
0
 10
378.79292443396849
 20
346.47220037879418
 30
0.0
  0
VERTEX
  5
10AD3
  8
0
 10
378.96867617966842
 20
346.66013382379418
 30
0.0
  0
VERTEX
  5
10AD4
  8
0
 10
379.18849252166842
 20
346.68941460549422
 30
0.0
  0
VERTEX
  5
10AD5
  8
0
 10
379.40912470216853
 20
346.5380784124942
 30
0.0
  0
VERTEX
  5
10AD6
  8
0
 10
379.59746234116852
 20
346.2553139775942
 30
0.0
  0
VERTEX
  5
10AD7
  8
0
 10
379.75702770056841
 20
345.83106301729413
 30
0.0
  0
VERTEX
  5
10AD8
  8
0
 10
379.8418432473685
 20
345.3385051339942
 30
0.0
  0
VERTEX
  5
10AD9
  8
0
 10
379.85115088516841
 20
345.19454501569419
 30
0.0
  0
SEQEND
  5
10ADA
  8
0
  0
POLYLINE
  5
FE53
  8
0
 66
     1
 10
0.0
 20
0.0
 30
0.0
 70
   128
  0
VERTEX
  5
10ADB
  8
0
 10
378.31551358106839
 20
340.58944545689423
 30
0.0
  0
VERTEX
  5
10ADC
  8
0
 10
378.31391543146839
 20
340.07447622719422
 30
0.0
  0
VERTEX
  5
10ADD
  8
0
 10
378.26561518016842
 20
339.61933515969417
 30
0.0
  0
VERTEX
  5
10ADE
  8
0
 10
378.18493098016847
 20
339.28647302099421
 30
0.0
  0
VERTEX
  5
10ADF
  8
0
 10
378.07844541966853
 20
339.08977769319421
 30
0.0
  0
VERTEX
  5
10AE0
  8
0
 10
377.9726788401685
 20
339.0773948281942
 30
0.0
  0
VERTEX
  5
10AE1
  8
0
 10
377.87329182026849
 20
339.22622762629419
 30
0.0
  0
VERTEX
  5
10AE2
  8
0
 10
377.78566554186841
 20
339.5399566739942
 30
0.0
  0
VERTEX
  5
10AE3
  8
0
 10
377.72510163486851
 20
339.9400826543943
 30
0.0
  0
VERTEX
  5
10AE4
  8
0
 10
377.68381424246849
 20
340.42438529439431
 30
0.0
  0
VERTEX
  5
10AE5
  8
0
 10
377.67733968796853
 20
340.55246077479421
 30
0.0
  0
VERTEX
  5
10AE6
  8
0
 10
377.66915336246848
 20
341.05614982549412
 30
0.0
  0
VERTEX
  5
10AE7
  8
0
 10
377.68969461316851
 20
341.50258861489419
 30
0.0
  0
VERTEX
  5
10AE8
  8
0
 10
377.74340584876848
 20
341.8509181588941
 30
0.0
  0
VERTEX
  5
10AE9
  8
0
 10
377.8230078518684
 20
342.03408323229422
 30
0.0
  0
VERTEX
  5
10AEA
  8
0
 10
377.93076187366842
 20
342.06007085749422
 30
0.0
  0
VERTEX
  5
10AEB
  8
0
 10
378.04967872796851
 20
341.90840683879418
 30
0.0
  0
VERTEX
  5
10AEC
  8
0
 10
378.15991379316853
 20
341.61948822439422
 30
0.0
  0
VERTEX
  5
10AED
  8
0
 10
378.25565189116838
 20
341.19291268289419
 30
0.0
  0
VERTEX
  5
10AEE
  8
0
 10
378.30799035726841
 20
340.72737060489419
 30
0.0
  0
VERTEX
  5
10AEF
  8
0
 10
378.31551358106839
 20
340.58944545689423
 30
0.0
  0
SEQEND
  5
10AF0
  8
0
  0
POLYLINE
  5
FE54
  8
0
 66
     1
 10
0.0
 20
0.0
 30
0.0
 70
   128
  0
VERTEX
  5
10AF1
  8
0
 10
379.88333739336849
 20
304.53338883819413
 30
0.0
  0
VERTEX
  5
10AF2
  8
0
 10
379.87689636646837
 20
304.03477363289409
 30
0.0
  0
VERTEX
  5
10AF3
  8
0
 10
379.81237620116849
 20
303.59355024999422
 30
0.0
  0
VERTEX
  5
10AF4
  8
0
 10
379.71037030216849
 20
303.27554456889419
 30
0.0
  0
VERTEX
  5
10AF5
  8
0
 10
379.57455366846852
 20
303.0752878636942
 30
0.0
  0
VERTEX
  5
10AF6
  8
0
 10
379.4378522783685
 20
303.05409841239418
 30
0.0
  0
VERTEX
  5
10AF7
  8
0
 10
379.31316681206852
 20
303.19483242929408
 30
0.0
  0
VERTEX
  5
10AF8
  8
0
 10
379.20494340356851
 20
303.49967293449407
 30
0.0
  0
VERTEX
  5
10AF9
  8
0
 10
379.13055494426851
 20
303.90385948129421
 30
0.0
  0
VERTEX
  5
10AFA
  8
0
 10
379.08304445446862
 20
304.39186505979421
 30
0.0
  0
VERTEX
  5
10AFB
  8
0
 10
379.07504439356859
 20
304.54710535709421
 30
0.0
  0
VERTEX
  5
10AFC
  8
0
 10
379.07146438956852
 20
305.03904484219419
 30
0.0
  0
VERTEX
  5
10AFD
  8
0
 10
379.10165041686838
 20
305.4742928594942
 30
0.0
  0
VERTEX
  5
10AFE
  8
0
 10
379.17194850736848
 20
305.8188598602942
 30
0.0
  0
VERTEX
  5
10AFF
  8
0
 10
379.27256673576852
 20
305.99847100679409
 30
0.0
  0
VERTEX
  5
10B00
  8
0
 10
379.4067125767686
 20
306.02413080639423
 30
0.0
  0
VERTEX
  5
10B01
  8
0
 10
379.55486178396848
 20
305.8738972991942
 30
0.0
  0
VERTEX
  5
10B02
  8
0
 10
379.6905200928685
 20
305.58719150729422
 30
0.0
  0
VERTEX
  5
10B03
  8
0
 10
379.80839386576849
 20
305.16290329399419
 30
0.0
  0
VERTEX
  5
10B04
  8
0
 10
379.87411171196851
 20
304.6839054673942
 30
0.0
  0
VERTEX
  5
10B05
  8
0
 10
379.88333739336849
 20
304.53338883819413
 30
0.0
  0
SEQEND
  5
10B06
  8
0
  0
POLYLINE
  5
FE55
  8
0
 66
     1
 10
0.0
 20
0.0
 30
0.0
 70
   128
  0
VERTEX
  5
10B07
  8
0
 10
381.75140283996848
 20
309.05982516709417
 30
0.0
  0
VERTEX
  5
10B08
  8
0
 10
381.71565681696848
 20
308.47085677089422
 30
0.0
  0
VERTEX
  5
10B09
  8
0
 10
381.58001899716851
 20
308.04098807279422
 30
0.0
  0
VERTEX
  5
10B0A
  8
0
 10
381.38474859296838
 20
307.73844979709418
 30
0.0
  0
VERTEX
  5
10B0B
  8
0
 10
381.13253526386848
 20
307.56508968779423
 30
0.0
  0
VERTEX
  5
10B0C
  8
0
 10
380.8846414088685
 20
307.57021568719409
 30
0.0
  0
VERTEX
  5
10B0D
  8
0
 10
380.65062053496848
 20
307.73624442519417
 30
0.0
  0
VERTEX
  5
10B0E
  8
0
 10
380.45270331206848
 20
308.06350372739422
 30
0.0
  0
VERTEX
  5
10B0F
  8
0
 10
380.32415471966851
 20
308.47774110739419
 30
0.0
  0
VERTEX
  5
10B10
  8
0
 10
380.2508503198685
 20
309.03413556519422
 30
0.0
  0
VERTEX
  5
10B11
  8
0
 10
380.26374913746849
 20
309.53123830259409
 30
0.0
  0
VERTEX
  5
10B12
  8
0
 10
380.34662753346851
 20
309.97322164479419
 30
0.0
  0
VERTEX
  5
10B13
  8
0
 10
380.50402104856857
 20
310.31961403789421
 30
0.0
  0
VERTEX
  5
10B14
  8
0
 10
380.70521466436838
 20
310.50051413479412
 30
0.0
  0
VERTEX
  5
10B15
  8
0
 10
380.95537163316851
 20
310.53140424199421
 30
0.0
  0
VERTEX
  5
10B16
  8
0
 10
381.21763952076839
 20
310.3875633329942
 30
0.0
  0
VERTEX
  5
10B17
  8
0
 10
381.44742660226848
 20
310.10597608989423
 30
0.0
  0
VERTEX
  5
10B18
  8
0
 10
381.63872212166848
 20
309.68634448949422
 30
0.0
  0
VERTEX
  5
10B19
  8
0
 10
381.73897899686841
 20
309.21055041259422
 30
0.0
  0
VERTEX
  5
10B1A
  8
0
 10
381.75140283996848
 20
309.05982516709417
 30
0.0
  0
SEQEND
  5
10B1B
  8
0
  0
POLYLINE
  5
FE56
  8
0
 66
     1
 10
0.0
 20
0.0
 30
0.0
 70
   128
  0
VERTEX
  5
10B1C
  8
0
 10
378.31524722276839
 20
318.05060468619422
 30
0.0
  0
VERTEX
  5
10B1D
  8
0
 10
378.32558490336851
 20
317.54934452479409
 30
0.0
  0
VERTEX
  5
10B1E
  8
0
 10
378.31830568606853
 20
317.10807643839422
 30
0.0
  0
VERTEX
  5
10B1F
  8
0
 10
378.30078564586847
 20
316.7901899665942
 30
0.0
  0
VERTEX
  5
10B20
  8
0
 10
378.27900014816851
 20
316.59797988839421
 30
0.0
  0
VERTEX
  5
10B21
  8
0
 10
378.27794583208151
 20
316.59726448773949
 30
0.0
  0
SEQEND
  5
10B22
  8
0
  0
POLYLINE
  5
FE57
  8
0
 66
     1
 10
0.0
 20
0.0
 30
0.0
 70
   128
  0
VERTEX
  5
10B23
  8
0
 10
378.16011930546028
 20
319.54827107920141
 30
0.0
  0
VERTEX
  5
10B24
  8
0
 10
378.1930483877685
 20
319.39309500159408
 30
0.0
  0
VERTEX
  5
10B25
  8
0
 10
378.2340750097685
 20
319.10195611419419
 30
0.0
  0
VERTEX
  5
10B26
  8
0
 10
378.27782668166861
 20
318.67430768909412
 30
0.0
  0
VERTEX
  5
10B27
  8
0
 10
378.3090315758684
 20
318.1955482810942
 30
0.0
  0
VERTEX
  5
10B28
  8
0
 10
378.31524722276839
 20
318.05060468619422
 30
0.0
  0
SEQEND
  5
10B29
  8
0
  0
POLYLINE
  5
FE58
  8
0
 66
     1
 10
0.0
 20
0.0
 30
0.0
 70
   128
  0
VERTEX
  5
10B2A
  8
0
 10
379.47701998056851
 20
313.52719329299418
 30
0.0
  0
VERTEX
  5
10B2B
  8
0
 10
379.47161085906851
 20
313.0259182304942
 30
0.0
  0
VERTEX
  5
10B2C
  8
0
 10
379.41046208136839
 20
312.58280239999419
 30
0.0
  0
VERTEX
  5
10B2D
  8
0
 10
379.31264713406853
 20
312.26271055639421
 30
0.0
  0
VERTEX
  5
10B2E
  8
0
 10
379.18285243206861
 20
312.06518076359419
 30
0.0
  0
VERTEX
  5
10B2F
  8
0
 10
379.05338928106858
 20
312.0481636375942
 30
0.0
  0
VERTEX
  5
10B30
  8
0
 10
378.93494553866839
 20
312.19137869779422
 30
0.0
  0
VERTEX
  5
10B31
  8
0
 10
378.83192636066849
 20
312.49785088009418
 30
0.0
  0
VERTEX
  5
10B32
  8
0
 10
378.76141220326849
 20
312.90049515669421
 30
0.0
  0
VERTEX
  5
10B33
  8
0
 10
378.71614433826852
 20
313.38619850579408
 30
0.0
  0
VERTEX
  5
10B34
  8
0
 10
378.70842926206842
 20
313.54114077989431
 30
0.0
  0
VERTEX
  5
10B35
  8
0
 10
378.70468907056852
 20
314.03761766859418
 30
0.0
  0
VERTEX
  5
10B36
  8
0
 10
378.73380221426851
 20
314.47653137149422
 30
0.0
  0
VERTEX
  5
10B37
  8
0
 10
378.80128771066848
 20
314.81913886969409
 30
0.0
  0
VERTEX
  5
10B38
  8
0
 10
378.89714315536838
 20
314.99549411239423
 30
0.0
  0
VERTEX
  5
10B39
  8
0
 10
379.02491129936851
 20
315.0178756564942
 30
0.0
  0
VERTEX
  5
10B3A
  8
0
 10
379.16500642896852
 20
314.86500464379418
 30
0.0
  0
VERTEX
  5
10B3B
  8
0
 10
379.29319739336847
 20
314.57785926759419
 30
0.0
  0
VERTEX
  5
10B3C
  8
0
 10
379.40529137846852
 20
314.15336988869421
 30
0.0
  0
VERTEX
  5
10B3D
  8
0
 10
379.46824319656838
 20
313.67419324819417
 30
0.0
  0
VERTEX
  5
10B3E
  8
0
 10
379.47701998056851
 20
313.52719329299418
 30
0.0
  0
SEQEND
  5
10B3F
  8
0
  0
POLYLINE
  5
FE59
  8
0
 66
     1
 10
0.0
 20
0.0
 30
0.0
 70
   128
  0
VERTEX
  5
10B40
  8
0
 10
380.71303404866848
 20
327.04086266459421
 30
0.0
  0
VERTEX
  5
10B41
  8
0
 10
380.68603314456851
 20
326.45192407079418
 30
0.0
  0
VERTEX
  5
10B42
  8
0
 10
380.56731931866852
 20
326.02244280279422
 30
0.0
  0
VERTEX
  5
10B43
  8
0
 10
380.39385490116842
 20
325.72076879449418
 30
0.0
  0
VERTEX
  5
10B44
  8
0
 10
380.16915284096848
 20
325.55009089409418
 30
0.0
  0
VERTEX
  5
10B45
  8
0
 10
379.94933463626847
 20
325.55853985249422
 30
0.0
  0
VERTEX
  5
10B46
  8
0
 10
379.74234446876852
 20
325.72567127649421
 30
0.0
  0
VERTEX
  5
10B47
  8
0
 10
379.56561855966839
 20
326.05349682279422
 30
0.0
  0
VERTEX
  5
10B48
  8
0
 10
379.44979742166862
 20
326.46867297589409
 30
0.0
  0
VERTEX
  5
10B49
  8
0
 10
379.38532195986841
 20
326.96741484109418
 30
0.0
  0
VERTEX
  5
10B4A
  8
0
 10
379.38188910486849
 20
327.03020833439422
 30
0.0
  0
VERTEX
  5
10B4B
  8
0
 10
379.39080558716842
 20
327.52924822279419
 30
0.0
  0
VERTEX
  5
10B4C
  8
0
 10
379.46171462536859
 20
327.9721554368943
 30
0.0
  0
VERTEX
  5
10B4D
  8
0
 10
379.59859482946848
 20
328.31714712089422
 30
0.0
  0
VERTEX
  5
10B4E
  8
0
 10
379.77544181046841
 20
328.4959759563942
 30
0.0
  0
VERTEX
  5
10B4F
  8
0
 10
379.9967762082685
 20
328.52254472679419
 30
0.0
  0
VERTEX
  5
10B50
  8
0
 10
380.22769577796839
 20
328.37454639379411
 30
0.0
  0
VERTEX
  5
10B51
  8
0
 10
380.43072596186852
 20
328.09351049369423
 30
0.0
  0
VERTEX
  5
10B52
  8
0
 10
380.60454986986849
 20
327.67432592809422
 30
0.0
  0
VERTEX
  5
10B53
  8
0
 10
380.7004462927685
 20
327.1920349448942
 30
0.0
  0
VERTEX
  5
10B54
  8
0
 10
380.71303404866848
 20
327.04086266459421
 30
0.0
  0
SEQEND
  5
10B55
  8
0
  0
POLYLINE
  5
FE5A
  8
0
 66
     1
 10
0.0
 20
0.0
 30
0.0
 70
   128
  0
VERTEX
  5
10B56
  8
0
 10
379.07611727716852
 20
322.52691350879422
 30
0.0
  0
VERTEX
  5
10B57
  8
0
 10
379.07212935386849
 20
322.02535532419421
 30
0.0
  0
VERTEX
  5
10B58
  8
0
 10
379.01575826106853
 20
321.58204577869418
 30
0.0
  0
VERTEX
  5
10B59
  8
0
 10
378.92457433046837
 20
321.26170061529422
 30
0.0
  0
VERTEX
  5
10B5A
  8
0
 10
378.80296967926847
 20
321.06412611909423
 30
0.0
  0
VERTEX
  5
10B5B
  8
0
 10
378.6812681704684
 20
321.04722820229421
 30
0.0
  0
VERTEX
  5
10B5C
  8
0
 10
378.56969013806849
 20
321.19071148339413
 30
0.0
  0
VERTEX
  5
10B5D
  8
0
 10
378.47264260056841
 20
321.49727307259423
 30
0.0
  0
VERTEX
  5
10B5E
  8
0
 10
378.40631753206839
 20
321.8987997621943
 30
0.0
  0
VERTEX
  5
10B5F
  8
0
 10
378.3637225627686
 20
322.38328121609408
 30
0.0
  0
VERTEX
  5
10B60
  8
0
 10
378.35644893346853
 20
322.53895364709422
 30
0.0
  0
VERTEX
  5
10B61
  8
0
 10
378.35317812856852
 20
323.03532622759423
 30
0.0
  0
VERTEX
  5
10B62
  8
0
 10
378.3808887004684
 20
323.47398661079421
 30
0.0
  0
VERTEX
  5
10B63
  8
0
 10
378.44452597196852
 20
323.81789050999419
 30
0.0
  0
VERTEX
  5
10B64
  8
0
 10
378.53508964176859
 20
323.9965852349942
 30
0.0
  0
VERTEX
  5
10B65
  8
0
 10
378.6551930009685
 20
324.01832602919421
 30
0.0
  0
VERTEX
  5
10B66
  8
0
 10
378.78511808806837
 20
323.86369667949418
 30
0.0
  0
VERTEX
  5
10B67
  8
0
 10
378.90326194466837
 20
323.5777731984943
 30
0.0
  0
VERTEX
  5
10B68
  8
0
 10
379.0078010409685
 20
323.15420769159408
 30
0.0
  0
VERTEX
  5
10B69
  8
0
 10
379.06768135726838
 20
322.67290018499421
 30
0.0
  0
VERTEX
  5
10B6A
  8
0
 10
379.07611727716852
 20
322.52691350879422
 30
0.0
  0
SEQEND
  5
10B6B
  8
0
  0
ARC
  5
FE5B
  8
0
 10
373.96625588957318
 20
326.50054014028302
 30
0.0
 40
4.056277397111077
 50
347.02107402828779
 51
7.7541139373490582
  0
POLYLINE
  5
FE5C
  8
0
 66
     1
 10
0.0
 20
0.0
 30
0.0
 70
   128
  0
VERTEX
  5
10B6C
  8
0
 10
377.8020315268455
 20
328.51670480390351
 30
0.0
  0
VERTEX
  5
10B6D
  8
0
 10
377.80211456116848
 20
328.51883433759423
 30
0.0
  0
VERTEX
  5
10B6E
  8
0
 10
377.8264220803685
 20
328.53799723089418
 30
0.0
  0
VERTEX
  5
10B6F
  8
0
 10
377.86459513006838
 20
328.3803131431942
 30
0.0
  0
VERTEX
  5
10B70
  8
0
 10
377.90728881956852
 20
328.08917425579421
 30
0.0
  0
VERTEX
  5
10B71
  8
0
 10
377.95056365426859
 20
327.66180895269417
 30
0.0
  0
VERTEX
  5
10B72
  8
0
 10
377.97987237566849
 20
327.18872688719421
 30
0.0
  0
VERTEX
  5
10B73
  8
0
 10
377.9854435473685
 20
327.04782150689419
 30
0.0
  0
VERTEX
  5
10B74
  8
0
 10
377.9854435473685
 20
327.04782150689419
 30
0.0
  0
SEQEND
  5
10B75
  8
0
  0
POLYLINE
  5
FE5D
  8
0
 66
     1
 10
0.0
 20
0.0
 30
0.0
 70
   128
  0
VERTEX
  5
10B76
  8
0
 10
381.2418706714684
 20
318.04445050659422
 30
0.0
  0
VERTEX
  5
10B77
  8
0
 10
381.2242072075685
 20
317.54351817079419
 30
0.0
  0
VERTEX
  5
10B78
  8
0
 10
381.11243918536849
 20
317.0982863753942
 30
0.0
  0
VERTEX
  5
10B79
  8
0
 10
380.93824647366841
 20
316.77624247969408
 30
0.0
  0
VERTEX
  5
10B7A
  8
0
 10
380.7036407291684
 20
316.57193265859422
 30
0.0
  0
VERTEX
  5
10B7B
  8
0
 10
380.46301305296839
 20
316.54679439969408
 30
0.0
  0
VERTEX
  5
10B7C
  8
0
 10
380.23780435326847
 20
316.68322943159421
 30
0.0
  0
VERTEX
  5
10B7D
  8
0
 10
380.03961704666852
 20
316.98387525979422
 30
0.0
  0
VERTEX
  5
10B7E
  8
0
 10
379.90638390186848
 20
317.38119982189431
 30
0.0
  0
VERTEX
  5
10B7F
  8
0
 10
379.82706874606862
 20
317.8625818341942
 30
0.0
  0
VERTEX
  5
10B80
  8
0
 10
379.81541976326838
 20
318.02774630489421
 30
0.0
  0
VERTEX
  5
10B81
  8
0
 10
379.82622124256841
 20
318.52861903609409
 30
0.0
  0
VERTEX
  5
10B82
  8
0
 10
379.90423068406852
 20
318.97334419199422
 30
0.0
  0
VERTEX
  5
10B83
  8
0
 10
380.05275614556848
 20
319.31665204469408
 30
0.0
  0
VERTEX
  5
10B84
  8
0
 10
380.24188168346842
 20
319.49297748509417
 30
0.0
  0
VERTEX
  5
10B85
  8
0
 10
380.4787319153686
 20
319.52047012749421
 30
0.0
  0
VERTEX
  5
10B86
  8
0
 10
380.72755523026848
 20
319.37443874779422
 30
0.0
  0
VERTEX
  5
10B87
  8
0
 10
380.94754293556838
 20
319.09060142939421
 30
0.0
  0
VERTEX
  5
10B88
  8
0
 10
381.1315722763685
 20
318.66964362569422
 30
0.0
  0
VERTEX
  5
10B89
  8
0
 10
381.22959211466838
 20
318.19177828729408
 30
0.0
  0
VERTEX
  5
10B8A
  8
0
 10
381.2418706714684
 20
318.04445050659422
 30
0.0
  0
SEQEND
  5
10B8B
  8
0
  0
POLYLINE
  5
FE5E
  8
0
 66
     1
 10
0.0
 20
0.0
 30
0.0
 70
   128
  0
VERTEX
  5
10B8C
  8
0
 10
379.64728251096852
 20
354.09806333489411
 30
0.0
  0
VERTEX
  5
10B8D
  8
0
 10
379.86985370516851
 20
354.56539355219422
 30
0.0
  0
VERTEX
  5
10B8E
  8
0
 10
380.16272857786851
 20
354.97933290899408
 30
0.0
  0
VERTEX
  5
10B8F
  8
0
 10
380.4743081330684
 20
355.2782353013942
 30
0.0
  0
VERTEX
  5
10B90
  8
0
 10
380.80285824836841
 20
355.46035729349421
 30
0.0
  0
VERTEX
  5
10B91
  8
0
 10
381.06804862616838
 20
355.47636114069422
 30
0.0
  0
VERTEX
  5
10B92
  8
0
 10
381.26178421076838
 20
355.35111688079422
 30
0.0
  0
VERTEX
  5
10B93
  8
0
 10
381.37392476196851
 20
355.07496856159412
 30
0.0
  0
VERTEX
  5
10B94
  8
0
 10
381.37078247966838
 20
354.7004874795943
 30
0.0
  0
VERTEX
  5
10B95
  8
0
 10
381.25895857806847
 20
354.2494889348942
 30
0.0
  0
VERTEX
  5
10B96
  8
0
 10
381.21053166686852
 20
354.12248633809418
 30
0.0
  0
VERTEX
  5
10B97
  8
0
 10
380.98071664566851
 20
353.66925261919408
 30
0.0
  0
VERTEX
  5
10B98
  8
0
 10
380.69315031166838
 20
353.26338969179409
 30
0.0
  0
VERTEX
  5
10B99
  8
0
 10
380.36647588016848
 20
352.94054113329418
 30
0.0
  0
VERTEX
  5
10B9A
  8
0
 10
380.07232137026858
 20
352.76843272149421
 30
0.0
  0
VERTEX
  5
10B9B
  8
0
 10
379.80267554516848
 20
352.73378752179423
 30
0.0
  0
VERTEX
  5
10B9C
  8
0
 10
379.60515692826851
 20
352.86238454289418
 30
0.0
  0
VERTEX
  5
10B9D
  8
0
 10
379.50364090496851
 20
353.12038324779422
 30
0.0
  0
VERTEX
  5
10B9E
  8
0
 10
379.4969409703686
 20
353.50925885149422
 30
0.0
  0
VERTEX
  5
10B9F
  8
0
 10
379.59725372486849
 20
353.95574234429421
 30
0.0
  0
VERTEX
  5
10BA0
  8
0
 10
379.64728251096852
 20
354.09806333489411
 30
0.0
  0
SEQEND
  5
10BA1
  8
0
  0
POLYLINE
  5
FE5F
  8
0
 66
     1
 10
0.0
 20
0.0
 30
0.0
 70
   128
  0
VERTEX
  5
10BA2
  8
0
 10
385.23793742056841
 20
304.6839054673942
 30
0.0
  0
VERTEX
  5
10BA3
  8
0
 10
385.18974333996857
 20
304.13311384619419
 30
0.0
  0
VERTEX
  5
10BA4
  8
0
 10
384.9978797137685
 20
303.6928664892942
 30
0.0
  0
VERTEX
  5
10BA5
  8
0
 10
384.71715860066843
 20
303.37643288079408
 30
0.0
  0
VERTEX
  5
10BA6
  8
0
 10
384.34192687266841
 20
303.1759601086942
 30
0.0
  0
VERTEX
  5
10BA7
  8
0
 10
383.96035470066852
 20
303.15456204119431
 30
0.0
  0
VERTEX
  5
10BA8
  8
0
 10
383.60049724576851
 20
303.29482667149421
 30
0.0
  0
VERTEX
  5
10BA9
  8
0
 10
383.28712303186848
 20
303.5991754382942
 30
0.0
  0
VERTEX
  5
10BAA
  8
0
 10
383.07965695856859
 20
303.99955473839418
 30
0.0
  0
VERTEX
  5
10BAB
  8
0
 10
382.96516202386852
 20
304.48833517729418
 30
0.0
  0
VERTEX
  5
10BAC
  8
0
 10
382.95604530716838
 20
304.59701679649419
 30
0.0
  0
VERTEX
  5
10BAD
  8
0
 10
382.99721069636848
 20
305.14656417079431
 30
0.0
  0
VERTEX
  5
10BAE
  8
0
 10
383.1472057848685
 20
305.57661168279429
 30
0.0
  0
VERTEX
  5
10BAF
  8
0
 10
383.40959660706858
 20
305.91529272499417
 30
0.0
  0
VERTEX
  5
10BB0
  8
0
 10
383.73258393256839
 20
306.09329454609423
 30
0.0
  0
VERTEX
  5
10BB1
  8
0
 10
384.12032332266853
 20
306.11949823799421
 30
0.0
  0
VERTEX
  5
10BB2
  8
0
 10
384.5054056495685
 20
305.97236417239418
 30
0.0
  0
VERTEX
  5
10BB3
  8
0
 10
384.8345695063685
 20
305.68952523179422
 30
0.0
  0
VERTEX
  5
10BB4
  8
0
 10
385.09943857786863
 20
305.26736788459419
 30
0.0
  0
VERTEX
  5
10BB5
  8
0
 10
385.22735945876838
 20
304.79324273769419
 30
0.0
  0
VERTEX
  5
10BB6
  8
0
 10
385.23793742056841
 20
304.6839054673942
 30
0.0
  0
SEQEND
  5
10BB7
  8
0
  0
POLYLINE
  5
FE60
  8
0
 66
     1
 10
0.0
 20
0.0
 30
0.0
 70
   128
  0
VERTEX
  5
10BB8
  8
0
 10
382.24480729546849
 20
300.07900707429422
 30
0.0
  0
VERTEX
  5
10BB9
  8
0
 10
382.20581468196849
 20
299.4911115616942
 30
0.0
  0
VERTEX
  5
10BBA
  8
0
 10
382.06389881666848
 20
299.06255416579421
 30
0.0
  0
VERTEX
  5
10BBB
  8
0
 10
381.86126351356847
 20
298.76103661959422
 30
0.0
  0
VERTEX
  5
10BBC
  8
0
 10
381.59852437676852
 20
298.58514331289422
 30
0.0
  0
VERTEX
  5
10BBD
  8
0
 10
381.3387505709685
 20
298.58760200449422
 30
0.0
  0
VERTEX
  5
10BBE
  8
0
 10
381.09473846846839
 20
298.75227473679422
 30
0.0
  0
VERTEX
  5
10BBF
  8
0
 10
380.88952340186847
 20
299.0780215710941
 30
0.0
  0
VERTEX
  5
10BC0
  8
0
 10
380.75650446116839
 20
299.49129037559419
 30
0.0
  0
VERTEX
  5
10BC1
  8
0
 10
380.68140633406853
 20
300.04731230439421
 30
0.0
  0
VERTEX
  5
10BC2
  8
0
 10
380.69621436296848
 20
300.54215751589419
 30
0.0
  0
VERTEX
  5
10BC3
  8
0
 10
380.78336752946842
 20
300.98251663149421
 30
0.0
  0
VERTEX
  5
10BC4
  8
0
 10
380.9481296687685
 20
301.3303842395942
 30
0.0
  0
VERTEX
  5
10BC5
  8
0
 10
381.15877248346851
 20
301.51357911529419
 30
0.0
  0
VERTEX
  5
10BC6
  8
0
 10
381.41943104566849
 20
301.54648087919418
 30
0.0
  0
VERTEX
  5
10BC7
  8
0
 10
381.6924855112685
 20
301.40477828689433
 30
0.0
  0
VERTEX
  5
10BC8
  8
0
 10
381.93175718186859
 20
301.12408511349417
 30
0.0
  0
VERTEX
  5
10BC9
  8
0
 10
382.12979920206851
 20
300.70490054789423
 30
0.0
  0
VERTEX
  5
10BCA
  8
0
 10
382.2323517873686
 20
300.23045502609421
 30
0.0
  0
VERTEX
  5
10BCB
  8
0
 10
382.24480729546849
 20
300.07900707429422
 30
0.0
  0
SEQEND
  5
10BCC
  8
0
  0
POLYLINE
  5
FE61
  8
0
 66
     1
 10
0.0
 20
0.0
 30
0.0
 70
   128
  0
VERTEX
  5
10BCD
  8
0
 10
383.35968330496848
 20
331.59508965909413
 30
0.0
  0
VERTEX
  5
10BCE
  8
0
 10
383.31818543376852
 20
331.04693554349421
 30
0.0
  0
VERTEX
  5
10BCF
  8
0
 10
383.1432867794685
 20
330.60867749159422
 30
0.0
  0
VERTEX
  5
10BD0
  8
0
 10
382.88857936856863
 20
330.2976604551942
 30
0.0
  0
VERTEX
  5
10BD1
  8
0
 10
382.54880122836852
 20
330.10260425509421
 30
0.0
  0
VERTEX
  5
10BD2
  8
0
 10
382.20506496726853
 20
330.08585534989419
 30
0.0
  0
VERTEX
  5
10BD3
  8
0
 10
381.88174795356849
 20
330.22880218929419
 30
0.0
  0
VERTEX
  5
10BD4
  8
0
 10
381.59810900686853
 20
330.53545318549408
 30
0.0
  0
VERTEX
  5
10BD5
  8
0
 10
381.40916228296851
 20
330.93955777589417
 30
0.0
  0
VERTEX
  5
10BD6
  8
0
 10
381.30301944906842
 20
331.42898641529422
 30
0.0
  0
VERTEX
  5
10BD7
  8
0
 10
381.29236698146838
 20
331.55762813989418
 30
0.0
  0
VERTEX
  5
10BD8
  8
0
 10
381.32362216706849
 20
332.10420273249417
 30
0.0
  0
VERTEX
  5
10BD9
  8
0
 10
381.45684227346851
 20
332.54547081889422
 30
0.0
  0
VERTEX
  5
10BDA
  8
0
 10
381.68972879646839
 20
332.8756656497942
 30
0.0
  0
VERTEX
  5
10BDB
  8
0
 10
381.97001777586843
 20
333.03945921369422
 30
0.0
  0
VERTEX
  5
10BDC
  8
0
 10
382.31530003246849
 20
333.06014202539421
 30
0.0
  0
VERTEX
  5
10BDD
  8
0
 10
382.6691662892685
 20
332.90967009969421
 30
0.0
  0
VERTEX
  5
10BDE
  8
0
 10
382.97523427756852
 20
332.62198828169409
 30
0.0
  0
VERTEX
  5
10BDF
  8
0
 10
383.22353046386843
 20
332.19656012959422
 30
0.0
  0
VERTEX
  5
10BE0
  8
0
 10
383.34845528006849
 20
331.7125108092942
 30
0.0
  0
VERTEX
  5
10BE1
  8
0
 10
383.35968330496848
 20
331.59508965909413
 30
0.0
  0
SEQEND
  5
10BE2
  8
0
  0
POLYLINE
  5
FE62
  8
0
 66
     1
 10
0.0
 20
0.0
 30
0.0
 70
   128
  0
VERTEX
  5
10BE3
  8
0
 10
383.99467952546843
 20
322.62105904519422
 30
0.0
  0
VERTEX
  5
10BE4
  8
0
 10
383.95279049866849
 20
322.0697011798942
 30
0.0
  0
VERTEX
  5
10BE5
  8
0
 10
383.77358727156837
 20
321.6297294944942
 30
0.0
  0
VERTEX
  5
10BE6
  8
0
 10
383.50965045386852
 20
321.3148381560942
 30
0.0
  0
VERTEX
  5
10BE7
  8
0
 10
383.15800074486862
 20
321.11882828179421
 30
0.0
  0
VERTEX
  5
10BE8
  8
0
 10
382.80265461656842
 20
321.10163234179407
 30
0.0
  0
VERTEX
  5
10BE9
  8
0
 10
382.46514052146853
 20
321.24477289619409
 30
0.0
  0
VERTEX
  5
10BEA
  8
0
 10
382.16948471966839
 20
321.55206464239421
 30
0.0
  0
VERTEX
  5
10BEB
  8
0
 10
381.97218775746848
 20
321.95654176179409
 30
0.0
  0
VERTEX
  5
10BEC
  8
0
 10
381.86176735906849
 20
322.44668565699419
 30
0.0
  0
VERTEX
  5
10BED
  8
0
 10
381.85208626086842
 20
322.55801223219419
 30
0.0
  0
VERTEX
  5
10BEE
  8
0
 10
381.88437335186848
 20
323.10802899309419
 30
0.0
  0
VERTEX
  5
10BEF
  8
0
 10
382.02080093326839
 20
323.5423084348941
 30
0.0
  0
VERTEX
  5
10BF0
  8
0
 10
382.26154875006841
 20
323.87484274809418
 30
0.0
  0
VERTEX
  5
10BF1
  8
0
 10
382.55553282796848
 20
324.04413484039418
 30
0.0
  0
VERTEX
  5
10BF2
  8
0
 10
382.91604593396852
 20
324.06745515769421
 30
0.0
  0
VERTEX
  5
10BF3
  8
0
 10
383.28362312166848
 20
323.91889058059422
 30
0.0
  0
VERTEX
  5
10BF4
  8
0
 10
383.60206279906851
 20
323.63184951249423
 30
0.0
  0
VERTEX
  5
10BF5
  8
0
 10
383.85800514366838
 20
323.20731543009418
 30
0.0
  0
VERTEX
  5
10BF6
  8
0
 10
383.9836331084685
 20
322.73205779499409
 30
0.0
  0
VERTEX
  5
10BF7
  8
0
 10
383.99467952546843
 20
322.62105904519422
 30
0.0
  0
SEQEND
  5
10BF8
  8
0
  0
POLYLINE
  5
FE63
  8
0
 66
     1
 10
0.0
 20
0.0
 30
0.0
 70
   128
  0
VERTEX
  5
10BF9
  8
0
 10
384.62558817116849
 20
313.65391276779422
 30
0.0
  0
VERTEX
  5
10BFA
  8
0
 10
384.58087537436847
 20
313.10718916359423
 30
0.0
  0
VERTEX
  5
10BFB
  8
0
 10
384.39588584006839
 20
312.6635070890942
 30
0.0
  0
VERTEX
  5
10BFC
  8
0
 10
384.1217277571684
 20
312.34314702459432
 30
0.0
  0
VERTEX
  5
10BFD
  8
0
 10
383.75835362816849
 20
312.14494667949418
 30
0.0
  0
VERTEX
  5
10BFE
  8
0
 10
383.3942642435685
 20
312.12673746049421
 30
0.0
  0
VERTEX
  5
10BFF
  8
0
 10
383.0476511269685
 20
312.26732991639409
 30
0.0
  0
VERTEX
  5
10C00
  8
0
 10
382.74203110486849
 20
312.57205866279418
 30
0.0
  0
VERTEX
  5
10C01
  8
0
 10
382.53714479506851
 20
312.97650597989423
 30
0.0
  0
VERTEX
  5
10C02
  8
0
 10
382.42399841546847
 20
313.46711181109413
 30
0.0
  0
VERTEX
  5
10C03
  8
0
 10
382.41468053306841
 20
313.57657574119418
 30
0.0
  0
VERTEX
  5
10C04
  8
0
 10
382.45134204626862
 20
314.12221156069421
 30
0.0
  0
VERTEX
  5
10C05
  8
0
 10
382.59358853096842
 20
314.55261670059423
 30
0.0
  0
VERTEX
  5
10C06
  8
0
 10
382.84505680206848
 20
314.89111147829419
 30
0.0
  0
VERTEX
  5
10C07
  8
0
 10
383.15554577856852
 20
315.06840549409412
 30
0.0
  0
VERTEX
  5
10C08
  8
0
 10
383.53085760026852
 20
315.0949593633942
 30
0.0
  0
VERTEX
  5
10C09
  8
0
 10
383.90660993756842
 20
314.94773589079421
 30
0.0
  0
VERTEX
  5
10C0A
  8
0
 10
384.22753065826851
 20
314.66528438039421
 30
0.0
  0
VERTEX
  5
10C0B
  8
0
 10
384.48719363656852
 20
314.24393914639421
 30
0.0
  0
VERTEX
  5
10C0C
  8
0
 10
384.61433313786853
 20
313.76951597639408
 30
0.0
  0
VERTEX
  5
10C0D
  8
0
 10
384.62558817116849
 20
313.65391276779422
 30
0.0
  0
SEQEND
  5
10C0E
  8
0
  0
POLYLINE
  5
FE64
  8
0
 66
     1
 10
0.0
 20
0.0
 30
0.0
 70
   128
  0
VERTEX
  5
10C0F
  8
0
 10
383.0885194241684
 20
349.65176545089417
 30
0.0
  0
VERTEX
  5
10C10
  8
0
 10
382.93692059816851
 20
349.16068278259422
 30
0.0
  0
VERTEX
  5
10C11
  8
0
 10
382.67584107816862
 20
348.73211048549422
 30
0.0
  0
VERTEX
  5
10C12
  8
0
 10
382.36000258476849
 20
348.42887185519419
 30
0.0
  0
VERTEX
  5
10C13
  8
0
 10
381.98212683196851
 20
348.24287556119418
 30
0.0
  0
VERTEX
  5
10C14
  8
0
 10
381.61973059176847
 20
348.23247455069418
 30
0.0
  0
VERTEX
  5
10C15
  8
0
 10
381.30535893136857
 20
348.38392995299421
 30
0.0
  0
VERTEX
  5
10C16
  8
0
 10
381.05771839616841
 20
348.69907461109409
 30
0.0
  0
VERTEX
  5
10C17
  8
0
 10
380.9285029768684
 20
349.10955689849419
 30
0.0
  0
VERTEX
  5
10C18
  8
0
 10
380.90965300796847
 20
349.60110150279422
 30
0.0
  0
VERTEX
  5
10C19
  8
0
 10
380.92982359226852
 20
349.76192973559421
 30
0.0
  0
VERTEX
  5
10C1A
  8
0
 10
381.07311874626851
 20
350.25566481059423
 30
0.0
  0
VERTEX
  5
10C1B
  8
0
 10
381.31894320246852
 20
350.6879772990942
 30
0.0
  0
VERTEX
  5
10C1C
  8
0
 10
381.65765590966839
 20
351.01936422289418
 30
0.0
  0
VERTEX
  5
10C1D
  8
0
 10
382.01238270846852
 20
351.18126533929421
 30
0.0
  0
VERTEX
  5
10C1E
  8
0
 10
382.38793108606848
 20
351.1895354837942
 30
0.0
  0
VERTEX
  5
10C1F
  8
0
 10
382.7236803248685
 20
351.02100335069417
 30
0.0
  0
VERTEX
  5
10C20
  8
0
 10
382.96425864096841
 20
350.71514211599418
 30
0.0
  0
VERTEX
  5
10C21
  8
0
 10
383.10535121706857
 20
350.27886591859419
 30
0.0
  0
VERTEX
  5
10C22
  8
0
 10
383.1104567274686
 20
349.79638122029422
 30
0.0
  0
VERTEX
  5
10C23
  8
0
 10
383.0885194241684
 20
349.65176545089417
 30
0.0
  0
SEQEND
  5
10C24
  8
0
  0
POLYLINE
  5
FE65
  8
0
 66
     1
 10
0.0
 20
0.0
 30
0.0
 70
   128
  0
VERTEX
  5
10C25
  8
0
 10
379.59878854456849
 20
284.28403697909408
 30
0.0
  0
VERTEX
  5
10C26
  8
0
 10
379.74734939636852
 20
284.97961573309419
 30
0.0
  0
VERTEX
  5
10C27
  8
0
 10
380.02264834936841
 20
285.84590218969419
 30
0.0
  0
VERTEX
  5
10C28
  8
0
 10
380.35986348986847
 20
286.99183128779418
 30
0.0
  0
VERTEX
  5
10C29
  8
0
 10
380.48850148916853
 20
287.73173354569423
 30
0.0
  0
VERTEX
  5
10C2A
  8
0
 10
380.51653802396851
 20
288.14775906509419
 30
0.0
  0
VERTEX
  5
10C2B
  8
0
 10
380.50784319636853
 20
288.57697956269419
 30
0.0
  0
VERTEX
  5
10C2C
  8
0
 10
380.46142049136847
 20
288.9968793839941
 30
0.0
  0
VERTEX
  5
10C2D
  8
0
 10
380.38273863496852
 20
289.38392959539419
 30
0.0
  0
VERTEX
  5
10C2E
  8
0
 10
380.17264343796842
 20
290.03019295639422
 30
0.0
  0
VERTEX
  5
10C2F
  8
0
 10
379.73738797006848
 20
290.9275408834942
 30
0.0
  0
VERTEX
  5
10C30
  8
0
 10
379.4193003326684
 20
291.53343699879417
 30
0.0
  0
VERTEX
  5
10C31
  8
0
 10
379.26065698266848
 20
291.9849198311943
 30
0.0
  0
VERTEX
  5
10C32
  8
0
 10
379.26065698266848
 20
291.9849198311943
 30
0.0
  0
SEQEND
  5
10C33
  8
0
  0
ARC
  5
FE66
  8
0
 10
392.58770538067017
 20
45.544847860482179
 30
0.0
 40
247.73201620078339
 50
90.494990922028791
 51
91.919518805921925
  0
POLYLINE
  5
FE67
  8
0
 66
     1
 10
0.0
 20
0.0
 30
0.0
 70
   128
  0
VERTEX
  5
10C34
  8
0
 10
384.28975883866838
 20
293.13785247509418
 30
0.0
  0
VERTEX
  5
10C35
  8
0
 10
383.39319229126841
 20
293.0619459599942
 30
0.0
  0
VERTEX
  5
10C36
  8
0
 10
382.23980050536852
 20
292.89421848959421
 30
0.0
  0
VERTEX
  5
10C37
  8
0
 10
381.40307143326839
 20
292.65590421859417
 30
0.0
  0
VERTEX
  5
10C38
  8
0
 10
380.91278411446842
 20
292.33075343079418
 30
0.0
  0
VERTEX
  5
10C39
  8
0
 10
380.75664974746849
 20
291.91050343219422
 30
0.0
  0
SEQEND
  5
10C3A
  8
0
  0
LINE
  5
FE68
  8
0
 10
381.07148148116852
 20
284.16235409679422
 30
0.0
 11
381.09481856226847
 21
283.97017382089422
 31
0.0
  0
ARC
  5
FE69
  8
0
 10
383.51175137670339
 20
284.71519567702569
 30
0.0
 40
2.5291543637361622
 50
197.1319644091156
 51
236.83557116222391
  0
ARC
  5
FE6A
  8
0
 10
388.06094258311231
 20
296.89631580280991
 30
0.0
 40
15.48026103799644
 50
247.465103674771
 51
269.13998067292511
  0
LINE
  5
FE6B
  8
0
 10
387.82858997576841
 20
281.41779862349432
 30
0.0
 11
390.44752027836859
 21
281.37123994529418
 31
0.0
  0
LINE
  5
FE6C
  8
0
 10
390.44752027836859
 20
274.81273226439419
 30
0.0
 11
384.44751277566837
 21
274.81273226439419
 31
0.0
  0
ARC
  5
FE6D
  8
0
 10
389.54896892414621
 20
325.33960493105889
 30
0.0
 40
44.374056901673633
 50
262.99688039009487
 51
271.16022380673411
  0
ARC
  5
FE6E
  8
0
 10
386.11350822220589
 20
296.66796110972211
 30
0.0
 40
15.4976925979851
 50
254.48929380003079
 51
262.6792525591481
  0
ARC
  5
FE6F
  8
0
 10
383.30330023066119
 20
286.2176873289452
 30
0.0
 40
4.6773153876155913
 50
220.4801438051278
 51
253.42676338229541
  0
LINE
  5
FE70
  8
0
 10
379.74558919666862
 20
283.18124674269421
 30
0.0
 11
379.59878854456849
 21
284.28403697909408
 31
0.0
  0
LINE
  5
FE71
  8
0
 10
379.26065698266848
 20
291.9849198311943
 30
0.0
 11
379.45360094306852
 21
292.6050540059943
 31
0.0
  0
LINE
  5
FE72
  8
0
 10
379.45360094306852
 20
292.6050540059943
 30
0.0
 11
380.31317442656848
 21
293.00146214669422
 31
0.0
  0
ARC
  5
FE73
  8
0
 10
384.32691342793061
 20
273.34127054411528
 30
0.0
 40
20.065722878111529
 50
90.711218312011212
 51
101.53869136491591
  0
ARC
  5
FE74
  8
0
 10
391.8369179324211
 20
88.420469155981735
 30
0.0
 40
205.13177378896961
 50
90.388078886583926
 51
92.167720644286774
  0
LINE
  5
FE75
  8
0
 10
379.75764982396839
 20
279.46836166089417
 30
0.0
 11
384.44751277566837
 21
274.81273226439419
 31
0.0
  0
LINE
  5
FEBA
  8
1
 10
159.31300364839419
 20
441.0084012157983
 30
0.0
 11
313.41675996779418
 21
441.0084012157983
 31
0.0
  0
ARC
  5
FEBB
  8
0
 10
265.27919188656028
 20
435.21995254311992
 30
0.0
 40
19.04527082245307
 50
56.924680401552457
 51
75.626736793823227
  0
ARC
  5
FEBC
  8
0
 10
268.4248839610724
 20
440.13331385103362
 30
0.0
 40
13.211445627113889
 50
35.333816968757112
 51
56.727449084538947
  0
ARC
  5
FEBD
  8
0
 10
269.82276423689638
 20
441.26933959177438
 30
0.0
 40
11.41466491811393
 50
358.69010871421051
 51
34.739917004407403
  0
ARC
  5
FEBE
  8
0
 10
263.29463113967358
 20
421.74520807727231
 30
0.0
 40
32.713031823137598
 50
82.054668975256376
 51
113.6439018697791
  0
POLYLINE
  5
FEBF
  8
0
 66
     1
 10
0.0
 20
0.0
 30
0.0
 70
   128
  0
VERTEX
  5
10C3B
  8
0
 10
273.96359145639428
 20
450.26045944144829
 30
0.0
  0
VERTEX
  5
10C3C
  8
0
 10
274.00965467089429
 20
450.48701692914841
 30
0.0
  0
VERTEX
  5
10C3D
  8
0
 10
273.90587925909432
 20
450.77211549114833
 30
0.0
  0
VERTEX
  5
10C3E
  8
0
 10
273.65085706109431
 20
451.09409861804841
 30
0.0
  0
VERTEX
  5
10C3F
  8
0
 10
273.30180481069419
 20
451.38858421314842
 30
0.0
  0
VERTEX
  5
10C40
  8
0
 10
272.85899072879431
 20
451.66149013284831
 30
0.0
  0
VERTEX
  5
10C41
  8
0
 10
272.39980027079417
 20
451.85912586354829
 30
0.0
  0
VERTEX
  5
10C42
  8
0
 10
271.99003323909432
 20
451.96343026664829
 30
0.0
  0
VERTEX
  5
10C43
  8
0
 10
271.63162678479421
 20
451.97286177034829
 30
0.0
  0
VERTEX
  5
10C44
  8
0
 10
271.4076213537943
 20
451.87633693754827
 30
0.0
  0
VERTEX
  5
10C45
  8
0
 10
271.36400565499417
 20
451.8252452796483
 30
0.0
  0
VERTEX
  5
10C46
  8
0
 10
271.32022604339431
 20
451.60703919434832
 30
0.0
  0
VERTEX
  5
10C47
  8
0
 10
271.43116891379429
 20
451.3187163935483
 30
0.0
  0
VERTEX
  5
10C48
  8
0
 10
271.66824638839421
 20
451.00852171494842
 30
0.0
  0
VERTEX
  5
10C49
  8
0
 10
272.03573882579428
 20
450.67898719174832
 30
0.0
  0
VERTEX
  5
10C4A
  8
0
 10
272.44781553739432
 20
450.41524595184842
 30
0.0
  0
VERTEX
  5
10C4B
  8
0
 10
272.88213595749431
 20
450.21791429794843
 30
0.0
  0
VERTEX
  5
10C4C
  8
0
 10
273.32343757149431
 20
450.1031320502484
 30
0.0
  0
VERTEX
  5
10C4D
  8
0
 10
273.67252707479429
 20
450.10209013314841
 30
0.0
  0
VERTEX
  5
10C4E
  8
0
 10
273.92065376039432
 20
450.21032914124839
 30
0.0
  0
VERTEX
  5
10C4F
  8
0
 10
273.96359145639428
 20
450.26045944144829
 30
0.0
  0
SEQEND
  5
10C50
  8
0
  0
POLYLINE
  5
FEC0
  8
0
 66
     1
 10
0.0
 20
0.0
 30
0.0
 70
   128
  0
VERTEX
  5
10C51
  8
0
 10
270.6148721276943
 20
453.41654354314841
 30
0.0
  0
VERTEX
  5
10C52
  8
0
 10
270.5660745500943
 20
453.47667065984842
 30
0.0
  0
VERTEX
  5
10C53
  8
0
 10
270.36201059819427
 20
453.56263266484831
 30
0.0
  0
VERTEX
  5
10C54
  8
0
 10
270.00694945449419
 20
453.66908935434827
 30
0.0
  0
VERTEX
  5
10C55
  8
0
 10
269.57722604269429
 20
453.77629017064839
 30
0.0
  0
VERTEX
  5
10C56
  8
0
 10
269.07012090079439
 20
453.8897690323484
 30
0.0
  0
VERTEX
  5
10C57
  8
0
 10
268.56341809029431
 20
453.99669045184828
 30
0.0
  0
VERTEX
  5
10C58
  8
0
 10
268.1376472114942
 20
454.0834221949483
 30
0.0
  0
VERTEX
  5
10C59
  8
0
 10
267.81649366019428
 20
454.14420822244841
 30
0.0
  0
VERTEX
  5
10C5A
  8
0
 10
267.67013818019427
 20
454.16212407474831
 30
0.0
  0
VERTEX
  5
10C5B
  8
0
 10
267.65479743479432
 20
454.15938365814839
 30
0.0
  0
VERTEX
  5
10C5C
  8
0
 10
267.70493984219428
 20
454.12050792554828
 30
0.0
  0
VERTEX
  5
10C5D
  8
0
 10
267.91618615389427
 20
454.03602625784828
 30
0.0
  0
VERTEX
  5
10C5E
  8
0
 10
268.23967546219433
 20
453.92350433004827
 30
0.0
  0
VERTEX
  5
10C5F
  8
0
 10
268.69014501569433
 20
453.78028647584841
 30
0.0
  0
VERTEX
  5
10C60
  8
0
 10
269.18970271939429
 20
453.63807444994842
 30
0.0
  0
VERTEX
  5
10C61
  8
0
 10
269.68944668769433
 20
453.51485581674842
 30
0.0
  0
VERTEX
  5
10C62
  8
0
 10
270.1259650289943
 20
453.43070709684832
 30
0.0
  0
VERTEX
  5
10C63
  8
0
 10
270.41978985069431
 20
453.3973722679483
 30
0.0
  0
VERTEX
  5
10C64
  8
0
 10
270.59441655869432
 20
453.4050798935483
 30
0.0
  0
VERTEX
  5
10C65
  8
0
 10
270.6148721276943
 20
453.41654354314841
 30
0.0
  0
SEQEND
  5
10C66
  8
0
  0
POLYLINE
  5
FEC1
  8
0
 66
     1
 10
0.0
 20
0.0
 30
0.0
 70
   128
  0
VERTEX
  5
10C67
  8
0
 10
278.2142110168943
 20
448.36427797754828
 30
0.0
  0
VERTEX
  5
10C68
  8
0
 10
278.22249419979431
 20
448.51847184664831
 30
0.0
  0
VERTEX
  5
10C69
  8
0
 10
278.11015620819421
 20
448.77536029864831
 30
0.0
  0
VERTEX
  5
10C6A
  8
0
 10
277.87797190249421
 20
449.11554734764832
 30
0.0
  0
VERTEX
  5
10C6B
  8
0
 10
277.57419496769421
 20
449.46952745854838
 30
0.0
  0
VERTEX
  5
10C6C
  8
0
 10
277.19592340289432
 20
449.84195613844838
 30
0.0
  0
VERTEX
  5
10C6D
  8
0
 10
276.81515961879433
 20
450.16042678224841
 30
0.0
  0
VERTEX
  5
10C6E
  8
0
 10
276.48397758599441
 20
450.39120176414838
 30
0.0
  0
VERTEX
  5
10C6F
  8
0
 10
276.21048912399431
 20
450.53045940194841
 30
0.0
  0
VERTEX
  5
10C70
  8
0
 10
276.05929449199431
 20
450.5431363319484
 30
0.0
  0
VERTEX
  5
10C71
  8
0
 10
276.03584378959431
 20
450.52394107524839
 30
0.0
  0
VERTEX
  5
10C72
  8
0
 10
276.03559046979422
 20
450.38675074074831
 30
0.0
  0
VERTEX
  5
10C73
  8
0
 10
276.16098374129427
 20
450.14151278494842
 30
0.0
  0
VERTEX
  5
10C74
  8
0
 10
276.38165131209428
 20
449.83161554744839
 30
0.0
  0
VERTEX
  5
10C75
  8
0
 10
276.70184373849429
 20
449.45091229934832
 30
0.0
  0
VERTEX
  5
10C76
  8
0
 10
277.05812305209429
 20
449.08141553944841
 30
0.0
  0
VERTEX
  5
10C77
  8
0
 10
277.42253094909432
 20
448.74929292894842
 30
0.0
  0
VERTEX
  5
10C78
  8
0
 10
277.76327952739427
 20
448.49120935734828
 30
0.0
  0
VERTEX
  5
10C79
  8
0
 10
278.0130378901942
 20
448.3589563421483
 30
0.0
  0
VERTEX
  5
10C7A
  8
0
 10
278.18328551949418
 20
448.34075437004839
 30
0.0
  0
VERTEX
  5
10C7B
  8
0
 10
278.2142110168943
 20
448.36427797754828
 30
0.0
  0
SEQEND
  5
10C7C
  8
0
  0
ARC
  5
FEC2
  8
0
 10
257.46673383082879
 20
440.98216905352251
 30
0.0
 40
13.265150905616281
 50
163.52970539105689
 51
179.886696112528
  0
ARC
  5
FEC3
  8
0
 10
255.76479241180559
 20
441.43897588600498
 30
0.0
 40
11.503618393829861
 50
144.673399963517
 51
163.3082204396421
  0
ARC
  5
FEC4
  8
0
 10
256.3854415728099
 20
440.98953028719842
 30
0.0
 40
12.26987526097445
 50
128.187326305619
 51
144.63694481645109
  0
ARC
  5
FEC5
  8
0
 10
264.27099322795658
 20
430.83788396150629
 30
0.0
 40
25.124246844068502
 50
124.7181784434666
 51
128.00920808601981
  0
LINE
  5
FEC6
  8
0
 10
249.96172115199431
 20
451.4890948736483
 30
0.0
 11
250.20946785799421
 21
451.69487758144828
 31
0.0
  0
LINE
  5
FEC7
  8
0
 10
250.20946785799421
 20
451.69487758144828
 30
0.0
 11
250.17503499979421
 21
451.7121673522484
 31
0.0
  0
ARC
  5
FEC8
  8
0
 10
253.98219358152619
 20
441.01923049513942
 30
0.0
 40
11.350478188013749
 50
109.5979791438906
 51
125.43515368726089
  0
ARC
  5
FEC9
  8
0
 10
254.58105728879249
 20
439.37952640711143
 30
0.0
 40
13.04188500400307
 50
123.4018463962086
 51
139.24458610928241
  0
ARC
  5
FECA
  8
0
 10
252.6972944782373
 20
441.11713644016072
 30
0.0
 40
10.480918854574441
 50
139.7172727498355
 51
180.59443082152001
  0
ARC
  5
FECB
  8
0
 10
251.88868699889429
 20
441.32178720374839
 30
0.0
 40
8.1792314649230722
 50
144.33309561043691
 51
182.19581640300419
  0
LINE
  5
FECC
  8
1
 10
159.31300364839419
 20
82.156504191459476
 30
0.0
 11
313.41675996779418
 21
82.156504191459476
 31
0.0
  0
ARC
  5
FECD
  8
0
 10
260.45799460448342
 20
94.525121821258722
 30
0.0
 40
25.30164877442251
 50
243.38081718807209
 51
257.53961943025843
  0
ARC
  5
FECE
  8
0
 10
259.92337054219428
 20
80.700581819159439
 30
0.0
 40
9.4896567818544355
 50
215.7481321518016
 51
238.7387528412892
  0
LINE
  5
FECF
  8
0
 10
253.4333974122942
 20
71.218231030759483
 30
0.0
 11
253.33340689539429
 21
71.337700392159462
 31
0.0
  0
LINE
  5
FED0
  8
0
 10
253.33340689539429
 20
71.337700392159462
 30
0.0
 11
252.27007493369419
 21
72.145745194559453
 31
0.0
  0
ARC
  5
FED1
  8
0
 10
260.5783232429518
 20
83.479284054015409
 30
0.0
 40
14.052618725599849
 50
218.78224573109611
 51
233.7560704178459
  0
LINE
  5
FED2
  8
0
 10
249.62385594839429
 20
74.67725364395946
 30
0.0
 11
249.07154193873771
 21
75.496518025749083
 31
0.0
  0
ARC
  5
FED3
  8
0
 10
254.5774241046943
 20
83.585365066659463
 30
0.0
 40
12.89152579302241
 50
211.96815557050161
 51
244.96148714720329
  0
LINE
  5
FED4
  8
0
 10
242.3436328767942
 20
80.56851689615948
 30
0.0
 11
242.21534990168391
 21
82.156504191459476
 31
0.0
  0
LINE
  5
FED5
  8
0
 10
244.90713837951679
 20
82.156504191459476
 30
0.0
 11
244.95409124845909
 21
81.602693665899466
 31
0.0
  0
ARC
  5
FED6
  8
0
 10
254.54477905339419
 20
82.853181010659455
 30
0.0
 40
9.8711219337255098
 50
211.02166178340929
 51
244.04801868230479
  0
ARC
  5
FED7
  8
0
 10
259.67806971729419
 20
82.232266688759466
 30
0.0
 40
11.278479179416941
 50
218.85624119220091
 51
245.48792563010051
  0
LINE
  5
FED8
  8
0
 10
243.3932375366137
 20
82.156504191459476
 30
0.0
 11
243.4944381323705
 21
81.090485733884719
 31
0.0
  0
ARC
  5
FED9
  8
0
 10
254.19534633218109
 20
82.413340851968826
 30
0.0
 40
10.824361105011331
 50
208.51387132451831
 51
235.34700998612229
  0
ARC
  5
FEDA
  8
0
 10
256.9637171248005
 20
86.049420278473519
 30
0.0
 40
15.390978336311109
 50
234.56596739887661
 51
255.08698522487461
  0
LINE
  5
FEDB
  8
0
 10
253.0028134583942
 20
71.176846315159452
 30
0.0
 11
253.2577313481942
 21
71.139379207959465
 31
0.0
  0
LINE
  5
FEDC
  8
0
 10
253.2577313481942
 20
71.139379207959465
 30
0.0
 11
253.40577065939419
 21
71.152479191359475
 31
0.0
  0
LINE
  5
FEDD
  8
0
 10
253.40577065939419
 20
71.152479191359475
 30
0.0
 11
253.4333974122942
 21
71.218231030759483
 31
0.0
  0
ARC
  5
FEDE
  8
0
 10
260.26214753263412
 20
81.218599310457606
 30
0.0
 40
9.8004600881781876
 50
218.21047844064489
 51
237.51686877658551
  0
ARC
  5
FEDF
  8
0
 10
264.31362881464042
 20
86.298388086839608
 30
0.0
 40
15.933892376915979
 50
224.3674143736975
 51
234.22580646571129
  0
ARC
  5
FEE0
  8
0
 10
257.80098290805319
 20
79.454532166918057
 30
0.0
 40
6.2985702291238512
 50
223.03002673384691
 51
243.58355581873371
  0
LINE
  5
FFCC
  8
0
 10
281.23444624949929
 20
441.0084012157983
 30
0.0
 11
303.76693923019428
 21
441.0084012157983
 31
0.0
  0
LINE
  5
FFCE
  8
0
 10
91.968465782661269
 20
206.68103024362631
 30
0.0
 11
92.862610192899979
 21
208.2297340035943
 31
0.0
  0
LINE
  5
FFCF
  8
0
 10
94.133529066988089
 20
205.43102957312439
 30
0.0
 11
95.027673710099975
 21
206.9797333329943
 31
0.0
  0
LINE
  5
FFD0
  8
0
 10
70.264877006387337
 20
205.43102957310089
 30
0.0
 11
69.370732828900032
 21
206.9797333329943
 31
0.0
  0
LINE
  5
FFD1
  8
0
 10
72.429941222018442
 20
206.68103024367841
 30
0.0
 11
71.535797044600031
 21
208.2297340035943
 31
0.0
  0
LINE
  5
1001E
  8
0
 10
208.8130027054942
 20
236.4127304404899
 30
0.0
 11
208.8130026119463
 21
249.31272777329431
 31
0.0
  0
LINE
  5
1001F
  8
0
 10
70.264877006411083
 20
227.1944288164878
 30
0.0
 11
69.370732828900032
 21
225.64572505659419
 31
0.0
  0
LINE
  5
10020
  8
0
 10
72.429941222074945
 20
225.94443000860201
 30
0.0
 11
71.535797044600031
 21
224.3957262486943
 31
0.0
  0
LINE
  5
10021
  8
0
 10
91.968465782645808
 20
225.9444300086009
 30
0.0
 11
92.862610192899979
 21
224.3957262486943
 31
0.0
  0
LINE
  5
10022
  8
0
 10
94.133529066995266
 20
227.19442881646819
 30
0.0
 11
95.027673710099975
 21
225.64572505659419
 31
0.0
  0
CIRCLE
  5
1006F
  8
0
 10
203.81300364839419
 20
82.156504291059491
 30
0.0
 40
7.3630977687455177
  0
LINE
  5
101A1
  8
0
 10
195.3130036483943
 20
445.91587840426013
 30
0.0
 11
195.31300364839419
 21
436.1009238280364
 31
0.0
  0
LINE
  5
101A2
  8
0
 10
195.31300364839419
 20
436.1009238280364
 30
0.0
 11
203.8130036483943
 21
431.19344653992459
 31
0.0
  0
LINE
  5
101A3
  8
0
 10
203.8130036483943
 20
431.19344653992459
 30
0.0
 11
212.31300364839419
 21
436.1009238280364
 31
0.0
  0
LINE
  5
101A4
  8
0
 10
212.31300364839419
 20
436.1009238280364
 30
0.0
 11
212.31300364839419
 21
445.91587840426013
 31
0.0
  0
LINE
  5
101A5
  8
0
 10
212.31300364839419
 20
445.91587840426013
 30
0.0
 11
203.81300364839419
 21
450.82335569237188
 31
0.0
  0
LINE
  5
101A6
  8
0
 10
203.81300364839419
 20
450.82335569237188
 30
0.0
 11
195.3130036483943
 21
445.91587840426013
 31
0.0
  0
CIRCLE
  5
101A9
  8
3
 10
203.8130049001021
 20
441.0084009000808
 30
0.0
 40
4.1880012517079024
  0
LINE
  5
101AC
  8
3
 10
199.6250035548463
 20
250.1247266299942
 30
0.0
 11
199.62500364839411
 21
236.4127304404899
 31
0.0
  0
LINE
  5
101AD
  8
3
 10
208.00100605826199
 20
250.12472432705979
 30
0.0
 11
208.00100615181
 21
236.4127304404899
 31
0.0
  0
ARC
  5
101AE
  8
0
 10
208.0630074739347
 20
223.9928862347754
 30
0.0
 40
12.275506638416489
 50
69.743841999604101
 51
110.2561580003958
  0
LINE
  5
101AF
  8
0
 10
212.31300747393479
 20
236.26839287319191
 30
0.0
 11
212.06300747393371
 21
236.4127304404899
 31
0.0
  0
LINE
  5
101B0
  8
0
 10
212.31300747393479
 20
228.95706601699229
 30
0.0
 11
212.06300747393371
 21
228.8127284496943
 31
0.0
  0
ARC
  5
101B1
  8
0
 10
208.0630074739347
 20
241.23257265540869
 30
0.0
 40
12.275506638416489
 50
249.74384199960409
 51
290.25615800039589
  0
LINE
  5
101B2
  8
0
 10
212.31300747393479
 20
236.26839287319191
 30
0.0
 11
212.3130074739347
 21
228.95706601699229
 31
0.0
  0
LINE
  5
101B3
  8
0
 10
203.8130074739347
 20
235.5092034946376
 30
0.0
 11
203.8130074739347
 21
229.71625539554631
 31
0.0
  0
LINE
  5
101B4
  8
0
 10
195.31300747393459
 20
236.26839287319191
 30
0.0
 11
195.31300747393459
 21
228.95706601699229
 31
0.0
  0
LINE
  5
101B5
  8
0
 10
195.31300747393459
 20
228.95706601699229
 30
0.0
 11
195.5630074739357
 21
228.8127284496943
 31
0.0
  0
ARC
  5
101B6
  8
0
 10
199.5630074739347
 20
241.23257265540869
 30
0.0
 40
12.275506638416489
 50
249.74384199960409
 51
290.25615800039589
  0
LINE
  5
101B7
  8
0
 10
195.31300747393459
 20
236.26839287319191
 30
0.0
 11
195.5630074739357
 21
236.4127304404899
 31
0.0
  0
ARC
  5
101B8
  8
0
 10
199.5630074739347
 20
223.9928862347754
 30
0.0
 40
12.275506638416489
 50
69.743841999604101
 51
110.2561580003958
  0
LINE
  5
101B9
  8
0
 10
212.06300747393371
 20
236.4127304404899
 30
0.0
 11
195.5630074739357
 21
236.4127304404899
 31
0.0
  0
ARC
  5
101BB
  8
0
 10
208.0630074739347
 20
208.63257401741311
 30
0.0
 40
12.275506638416489
 50
249.74384199960389
 51
290.25615800039611
  0
LINE
  5
101BC
  8
0
 10
212.31300747393479
 20
196.35706737899659
 30
0.0
 11
212.06300747393371
 21
196.21272981169861
 31
0.0
  0
LINE
  5
101BD
  8
0
 10
212.31300747393479
 20
203.6683942351963
 30
0.0
 11
212.06300747393371
 21
203.81273180249431
 31
0.0
  0
ARC
  5
101BE
  8
0
 10
208.0630074739347
 20
191.39288759677979
 30
0.0
 40
12.275506638416489
 50
69.743841999603944
 51
110.256158000396
  0
LINE
  5
101BF
  8
0
 10
212.31300747393479
 20
196.35706737899659
 30
0.0
 11
212.3130074739347
 21
203.6683942351963
 31
0.0
  0
LINE
  5
101C0
  8
0
 10
203.8130074739347
 20
197.1162567575509
 30
0.0
 11
203.8130074739347
 21
202.90920485664219
 31
0.0
  0
LINE
  5
101C1
  8
0
 10
195.31300747393459
 20
196.35706737899659
 30
0.0
 11
195.31300747393459
 21
203.6683942351963
 31
0.0
  0
LINE
  5
101C2
  8
0
 10
195.31300747393459
 20
203.6683942351963
 30
0.0
 11
195.5630074739357
 21
203.81273180249431
 31
0.0
  0
ARC
  5
101C3
  8
0
 10
199.5630074739347
 20
191.39288759677979
 30
0.0
 40
12.275506638416489
 50
69.743841999603944
 51
110.256158000396
  0
LINE
  5
101C4
  8
0
 10
195.31300747393459
 20
196.35706737899659
 30
0.0
 11
195.5630074739357
 21
196.21272981169861
 31
0.0
  0
ARC
  5
101C5
  8
0
 10
199.5630074739347
 20
208.63257401741311
 30
0.0
 40
12.275506638416489
 50
249.74384199960389
 51
290.25615800039611
  0
LINE
  5
101C6
  8
0
 10
212.06300747393371
 20
196.21272981169861
 30
0.0
 11
195.5630074739357
 21
196.21272981169861
 31
0.0
  0
LINE
  5
10213
  8
3
 10
199.62500383672361
 20
196.21272981169849
 30
0.0
 11
199.62500383672349
 21
182.81272977854951
 31
0.0
  0
LINE
  5
10214
  8
3
 10
208.00100634013921
 20
196.21272981169849
 30
0.0
 11
208.0010063401395
 21
182.81272977854951
 31
0.0
  0
ARC
  5
10261
  8
0
 10
74.837986871682347
 20
231.92349420086791
 30
0.0
 40
4.3448986723233833
 50
55.61575253199338
 51
115.6157525321088
  0
ARC
  5
10262
  8
0
 10
82.19920280384963
 20
220.02758225172471
 30
0.0
 40
16.24081062146659
 50
72.412046226029517
 51
107.5879537739705
  0
LINE
  5
10263
  8
0
 10
72.384248227626586
 20
235.50920349463729
 30
0.0
 11
73.949202803850085
 21
236.4127304404895
 31
0.0
  0
LINE
  5
10264
  8
0
 10
72.384248227626586
 20
229.7162553955462
 30
0.0
 11
73.949202803850085
 21
228.81272844969399
 31
0.0
  0
ARC
  5
10265
  8
0
 10
74.837986871682347
 20
233.30196468931561
 30
0.0
 40
4.3448986723233833
 50
244.3842474678911
 51
304.38424746800661
  0
ARC
  5
10266
  8
0
 10
82.19920280384963
 20
245.19787663845881
 30
0.0
 40
16.24081062146659
 50
252.4120462260295
 51
287.58795377397041
  0
LINE
  5
10267
  8
0
 10
72.384248227626586
 20
235.50920349463729
 30
0.0
 11
72.384248227626586
 21
229.7162553955462
 31
0.0
  0
LINE
  5
10268
  8
0
 10
77.291725515737198
 20
235.50920349463729
 30
0.0
 11
77.29172551573788
 21
229.716255395546
 31
0.0
  0
LINE
  5
10269
  8
0
 10
87.106680091962971
 20
235.50920349463729
 30
0.0
 11
87.106680091962289
 21
229.716255395546
 31
0.0
  0
LINE
  5
1026A
  8
0
 10
92.014157380073584
 20
235.50920349463729
 30
0.0
 11
92.014157380073584
 21
229.7162553955462
 31
0.0
  0
ARC
  5
1026B
  8
0
 10
89.560418736017809
 20
233.30196468931561
 30
0.0
 40
4.3448986723233833
 50
235.61575253199339
 51
295.61575253210879
  0
LINE
  5
1026C
  8
0
 10
92.014157380073584
 20
229.7162553955462
 30
0.0
 11
90.449202803850085
 21
228.81272844969399
 31
0.0
  0
LINE
  5
1026D
  8
0
 10
92.014157380073584
 20
235.50920349463729
 30
0.0
 11
90.449202803850085
 21
236.4127304404895
 31
0.0
  0
ARC
  5
1026E
  8
0
 10
89.560418736017809
 20
231.92349420086791
 30
0.0
 40
4.3448986723233833
 50
64.384247467891115
 51
124.38424746800661
  0
LINE
  5
1026F
  8
0
 10
73.949202803850085
 20
236.4127304404895
 30
0.0
 11
90.449202803850312
 21
236.4127304404893
 31
0.0
  0
ARC
  5
10270
  8
0
 10
74.837986871682233
 20
199.32349370027271
 30
0.0
 40
4.3448986723233833
 50
55.61575253199338
 51
115.6157525321088
  0
ARC
  5
10271
  8
0
 10
82.199202803849403
 20
187.42758175112951
 30
0.0
 40
16.24081062146659
 50
72.412046226029517
 51
107.5879537739705
  0
LINE
  5
10272
  8
0
 10
72.384248227626344
 20
202.9092029940422
 30
0.0
 11
73.949202803849971
 21
203.81272993989441
 31
0.0
  0
LINE
  5
10273
  8
0
 10
72.384248227626344
 20
197.116254894951
 30
0.0
 11
73.949202803849971
 21
196.21272794909879
 31
0.0
  0
ARC
  5
10274
  8
0
 10
74.837986871682233
 20
200.70196418872041
 30
0.0
 40
4.3448986723233833
 50
244.3842474678911
 51
304.38424746800661
  0
ARC
  5
10275
  8
0
 10
82.199202803849403
 20
212.59787613786361
 30
0.0
 40
16.24081062146659
 50
252.4120462260295
 51
287.58795377397041
  0
LINE
  5
10276
  8
0
 10
72.384248227626344
 20
202.90920299404209
 30
0.0
 11
72.384248227626344
 21
197.11625489495111
 31
0.0
  0
LINE
  5
10277
  8
0
 10
77.291725515737085
 20
202.9092029940422
 30
0.0
 11
77.291725515737767
 21
197.1162548949508
 31
0.0
  0
LINE
  5
10278
  8
0
 10
87.106680091962744
 20
202.9092029940422
 30
0.0
 11
87.106680091962176
 21
197.1162548949508
 31
0.0
  0
LINE
  5
10279
  8
0
 10
92.014157380073456
 20
202.90920299404209
 30
0.0
 11
92.014157380073456
 21
197.11625489495111
 31
0.0
  0
ARC
  5
1027A
  8
0
 10
89.560418736017709
 20
200.70196418872041
 30
0.0
 40
4.3448986723233833
 50
235.61575253199339
 51
295.61575253210879
  0
LINE
  5
1027B
  8
0
 10
92.014157380073456
 20
197.116254894951
 30
0.0
 11
90.449202803849985
 21
196.21272794909879
 31
0.0
  0
LINE
  5
1027C
  8
0
 10
92.014157380073456
 20
202.9092029940422
 30
0.0
 11
90.449202803849985
 21
203.81272993989441
 31
0.0
  0
ARC
  5
1027D
  8
0
 10
89.560418736017709
 20
199.32349370027271
 30
0.0
 40
4.3448986723233833
 50
64.384247467891115
 51
124.38424746800661
  0
LINE
  5
1027E
  8
0
 10
90.449202803850312
 20
196.21272794909899
 30
0.0
 11
73.94920280384963
 21
196.21272794909899
 31
0.0
  0
LINE
  5
10289
  8
1
 10
263.24879612679428
 20
184.5627298077942
 30
0.0
 11
263.24879612679428
 21
368.35543988380601
 31
0.0
  0
ARC
  5
1028B
  8
0
 10
383.0863043462009
 20
231.92349420086779
 30
0.0
 40
4.3448986723233833
 50
85.231177443532616
 51
101.9668394295641
  0
LINE
  5
1028D
  8
0
 10
380.67892016846861
 20
229.68949263193619
 30
0.0
 11
382.19752027836859
 21
228.81272844969399
 31
0.0
  0
ARC
  5
1028E
  8
0
 10
383.0863043462009
 20
233.30196468931561
 30
0.0
 40
4.3448986723233833
 50
244.3842474678911
 51
274.7688225565982
  0
ARC
  5
10291
  8
0
 10
397.80873621053638
 20
233.30196468931561
 30
0.0
 40
4.3448986723233833
 50
265.23117655433981
 51
295.61575253210879
  0
LINE
  5
10292
  8
0
 10
400.21612085396839
 20
229.68949290080809
 30
0.0
 11
398.69752027836859
 21
228.81272844969399
 31
0.0
  0
ARC
  5
10294
  8
0
 10
397.80873621053638
 20
231.92349420086779
 30
0.0
 40
4.3448986723233833
 50
78.033174304088973
 51
94.768822870796527
  0
LINE
  5
10295
  8
0
 10
382.3232582110528
 20
236.4127304404895
 30
0.0
 11
383.44752006227378
 21
236.4127304404895
 31
0.0
  0
LINE
  5
10296
  8
0
 10
397.44752047165969
 20
236.41273044048921
 30
0.0
 11
398.57178148522053
 21
236.41273044048921
 31
0.0
  0
ARC
  5
10297
  8
0
 10
383.08630434620079
 20
199.32349370027271
 30
0.0
 40
4.3448986723233833
 50
85.231177442937792
 51
115.6157525321088
  0
LINE
  5
10298
  8
0
 10
380.68108138568982
 20
202.93721353699669
 30
0.0
 11
382.19752027836847
 21
203.8127299398943
 31
0.0
  0
ARC
  5
1029A
  8
0
 10
383.08630434620079
 20
200.70196418872041
 30
0.0
 40
4.3448986723233833
 50
274.17372179292948
 51
274.768822557193
  0
ARC
  5
1029D
  8
0
 10
397.80873621053632
 20
200.70196418872041
 30
0.0
 40
4.3448986723233833
 50
265.23117398052642
 51
265.82627253965251
  0
LINE
  5
1029F
  8
0
 10
400.21395874812089
 20
202.93721378117331
 30
0.0
 11
398.69752027836859
 21
203.8127299398943
 31
0.0
  0
ARC
  5
102A0
  8
0
 10
397.80873621053632
 20
199.32349370027271
 30
0.0
 40
4.3448986723233833
 50
64.384247467891115
 51
94.768825444609959
  0
LINE
  5
102A1
  8
0
 10
77.199204295849995
 20
249.31272777329431
 30
0.0
 11
77.199200121609806
 21
236.41273044049379
 31
0.0
  0
LINE
  5
102A2
  8
0
 10
87.199198035409736
 20
236.41273044048941
 30
0.0
 11
87.199202209649926
 21
249.31272777329431
 31
0.0
  0
LINE
  5
102A3
  8
0
 10
87.199202209649926
 20
249.31272777329431
 30
0.0
 11
86.199200183149969
 21
250.31272979989421
 31
0.0
  0
LINE
  5
102A4
  8
0
 10
78.199206322449982
 20
250.31272979989421
 30
0.0
 11
77.199204295849995
 21
249.31272777329431
 31
0.0
  0
LINE
  5
102A5
  8
0
 10
87.199202209649926
 20
249.31272777329431
 30
0.0
 11
77.199204295849995
 21
249.31272777329431
 31
0.0
  0
LINE
  5
102A6
  8
0
 10
86.199200183149969
 20
250.31272979989421
 30
0.0
 11
78.199206322449982
 21
250.31272979989421
 31
0.0
  0
LINE
  5
102A7
  8
3
 10
78.011203152549911
 20
250.1247266299942
 30
0.0
 11
78.011198978309608
 21
236.41273044048941
 31
0.0
  0
LINE
  5
102A8
  8
3
 10
86.387205655965658
 20
250.12472432705971
 30
0.0
 11
86.387201481725569
 21
236.41273044048941
 31
0.0
  0
LINE
  5
102A9
  8
3
 10
78.011198978309721
 20
196.21272794909899
 30
0.0
 11
78.011198978309494
 21
182.81272979327821
 31
0.0
  0
LINE
  5
102AA
  8
3
 10
86.387201481725469
 20
196.21272794909899
 30
0.0
 11
86.387201481725569
 21
182.8127297639096
 31
0.0
  0
LINE
  5
10343
  8
1
 10
263.71129612319442
 20
469.75850478934831
 30
0.0
 11
263.71129612319442
 21
457.45850478934818
 31
0.0
  0
LINE
  5
10344
  8
1
 10
257.56129612319432
 20
463.60850478934827
 30
0.0
 11
269.86129612319428
 21
463.60850478934827
 31
0.0
  0
LINE
  5
10345
  8
1
 10
295.51129612319431
 20
469.75850478934831
 30
0.0
 11
295.51129612319431
 21
457.45850478934818
 31
0.0
  0
LINE
  5
10346
  8
1
 10
289.36129612319428
 20
463.60850478934827
 30
0.0
 11
301.6612961231944
 21
463.60850478934827
 31
0.0
  0
LINE
  5
10347
  8
1
 10
295.51129612319431
 20
424.5582974429484
 30
0.0
 11
295.51129612319431
 21
412.25829744294822
 31
0.0
  0
LINE
  5
10348
  8
1
 10
289.36129612319428
 20
418.4082974429482
 30
0.0
 11
301.6612961231944
 21
418.4082974429482
 31
0.0
  0
LINE
  5
10349
  8
1
 10
263.71129612319442
 20
424.5582974429484
 30
0.0
 11
263.71129612319442
 21
412.25829744294822
 31
0.0
  0
LINE
  5
1034A
  8
1
 10
257.56129612319432
 20
418.4082974429482
 30
0.0
 11
269.86129612319428
 21
418.4082974429482
 31
0.0
  0
LINE
  5
1034B
  8
1
 10
263.7112961231943
 20
110.90660796425951
 30
0.0
 11
263.7112961231943
 21
98.606607964259396
 31
0.0
  0
LINE
  5
1034C
  8
1
 10
257.56129612319421
 20
104.7566079642594
 30
0.0
 11
269.86129612319422
 21
104.7566079642594
 31
0.0
  0
LINE
  5
1034D
  8
1
 10
295.51129612319431
 20
110.90660796425951
 30
0.0
 11
295.51129612319431
 21
98.606607964259396
 31
0.0
  0
LINE
  5
1034E
  8
1
 10
289.36129612319422
 20
104.7566079642594
 30
0.0
 11
301.66129612319412
 21
104.7566079642594
 31
0.0
  0
LINE
  5
1034F
  8
1
 10
295.51129612319431
 20
65.7064006178596
 30
0.0
 11
295.51129612319431
 21
53.406400617859418
 31
0.0
  0
LINE
  5
10350
  8
1
 10
289.36129612319422
 20
59.556400617859509
 30
0.0
 11
301.66129612319412
 21
59.556400617859509
 31
0.0
  0
LINE
  5
10351
  8
1
 10
263.7112961231943
 20
65.7064006178596
 30
0.0
 11
263.7112961231943
 21
53.406400617859418
 31
0.0
  0
LINE
  5
10352
  8
1
 10
257.56129612319421
 20
59.556400617859509
 30
0.0
 11
269.86129612319422
 21
59.556400617859509
 31
0.0
  0
LINE
  5
103A5
  8
1
 10
203.8130049001021
 20
428.193445603393
 30
0.0
 11
203.8130049001021
 21
453.82335619676849
 31
0.0
  0
LINE
  5
103A6
  8
1
 10
59.602698617718829
 20
162.69598785042751
 30
0.0
 11
59.602698617718829
 21
169.69598834216589
 31
0.0
  0
LINE
  5
103A7
  8
1
 10
104.79570780073161
 20
162.6959878504276
 30
0.0
 11
104.79570780073161
 21
169.69598834216589
 31
0.0
  0
LINE
  5
103A8
  8
1
 10
367.85101564328738
 20
162.6959878504274
 30
0.0
 11
367.85101564328738
 21
169.6959883421658
 31
0.0
  0
LINE
  5
103A9
  8
1
 10
413.04402482630002
 20
162.69598785042751
 30
0.0
 11
413.04402482630002
 21
169.6959883421658
 31
0.0
  0
LINE
  5
103AA
  8
1
 10
263.71067112080851
 20
162.31300938129419
 30
0.0
 11
263.71067112080851
 21
169.31300987303251
 31
0.0
  0
LINE
  5
103AB
  8
1
 10
295.51067112080841
 20
162.31300938129431
 30
0.0
 11
295.51067112080841
 21
169.31300987303251
 31
0.0
  0
LINE
  5
103B6
  8
1
 10
203.81300374864429
 20
251.8127317279943
 30
0.0
 11
203.81300365188901
 21
161.3127297998943
 31
0.0
  0
LINE
  5
103B7
  8
1
 10
203.8130023966863
 20
69.341549210439211
 30
0.0
 11
203.8130023966863
 21
94.971459803814795
 31
0.0
  0
LINE
  5
104AD
  8
0
 10
82.199203252799975
 20
271.09315693189421
 30
0.0
 11
82.199203252799975
 21
274.8127322643943
 31
0.0
  0
ENDSEC
  0
EOF
