  0
SECTION
  2
HEADER
  9
$ACADVER
  1
AC1009
  9
$INSBASE
 10
0.0
 20
0.0
 30
0.0
  9
$EXTMIN
 10
0.0
 20
-2.960436562073669
 30
0.0
  9
$EXTMAX
 10
601.50686218169426
 20
348.00499148666859
 30
0.0
  9
$LIMMIN
 10
0.0
 20
0.0
  9
$LIMMAX
 10
420.0
 20
297.0
  9
$ORTHOMODE
 70
     1
  9
$REGENMODE
 70
     1
  9
$FILLMODE
 70
     1
  9
$QTEXTMODE
 70
     0
  9
$MIRRTEXT
 70
     0
  9
$DRAGMODE
 70
     2
  9
$LTSCALE
 40
10.0
  9
$OSMODE
 70
    37
  9
$ATTMODE
 70
     1
  9
$TEXTSIZE
 40
2.5
  9
$TRACEWID
 40
1.0
  9
$TEXTSTYLE
  7
STANDARD
  9
$CLAYER
  8
0
  9
$CELTYPE
  6
BYLAYER
  9
$CECOLOR
 62
   256
  9
$DIMSCALE
 40
1.0
  9
$DIMASZ
 40
2.5
  9
$DIMEXO
 40
0.625
  9
$DIMDLI
 40
3.75
  9
$DIMRND
 40
0.0
  9
$DIMDLE
 40
0.0
  9
$DIMEXE
 40
1.25
  9
$DIMTP
 40
0.0
  9
$DIMTM
 40
0.0
  9
$DIMTXT
 40
2.5
  9
$DIMCEN
 40
2.5
  9
$DIMTSZ
 40
0.0
  9
$DIMTOL
 70
     0
  9
$DIMLIM
 70
     0
  9
$DIMTIH
 70
     0
  9
$DIMTOH
 70
     0
  9
$DIMSE1
 70
     0
  9
$DIMSE2
 70
     0
  9
$DIMTAD
 70
     1
  9
$DIMZIN
 70
     8
  9
$DIMBLK
  1

  9
$DIMASO
 70
     1
  9
$DIMSHO
 70
     1
  9
$DIMPOST
  1

  9
$DIMAPOST
  1

  9
$DIMALT
 70
     0
  9
$DIMALTD
 70
     3
  9
$DIMALTF
 40
0.03937007874016
  9
$DIMLFAC
 40
1.0
  9
$DIMTOFL
 70
     1
  9
$DIMTVP
 40
0.0
  9
$DIMTIX
 70
     0
  9
$DIMSOXD
 70
     0
  9
$DIMSAH
 70
     0
  9
$DIMBLK1
  1

  9
$DIMBLK2
  1

  9
$DIMSTYLE
  2
ISO-25
  9
$DIMCLRD
 70
     0
  9
$DIMCLRE
 70
     0
  9
$DIMCLRT
 70
     0
  9
$DIMTFAC
 40
1.0
  9
$DIMGAP
 40
0.625
  9
$LUNITS
 70
     2
  9
$LUPREC
 70
     1
  9
$SKETCHINC
 40
1.0
  9
$FILLETRAD
 40
0.0
  9
$AUNITS
 70
     0
  9
$AUPREC
 70
     1
  9
$MENU
  1
.
  9
$ELEVATION
 40
0.0
  9
$PELEVATION
 40
0.0
  9
$THICKNESS
 40
0.0
  9
$LIMCHECK
 70
     0
  9
$BLIPMODE
 70
     0
  9
$CHAMFERA
 40
0.0
  9
$CHAMFERB
 40
0.0
  9
$SKPOLY
 70
     0
  9
$TDCREATE
 40
2454083.4444627082
  9
$TDUPDATE
 40
2458838.5595174418
  9
$TDINDWG
 40
2.8715651736000001
  9
$TDUSRTIMER
 40
2.8715651736000001
  9
$USRTIMER
 70
     1
  9
$ANGBASE
 50
0.0
  9
$ANGDIR
 70
     0
  9
$PDMODE
 70
     0
  9
$PDSIZE
 40
0.0
  9
$PLINEWID
 40
0.0
  9
$COORDS
 70
     1
  9
$SPLFRAME
 70
     0
  9
$SPLINETYPE
 70
     6
  9
$SPLINESEGS
 70
     8
  9
$ATTDIA
 70
     0
  9
$ATTREQ
 70
     1
  9
$HANDLING
 70
     1
  9
$HANDSEED
  5
1B23C
  9
$SURFTAB1
 70
     6
  9
$SURFTAB2
 70
     6
  9
$SURFTYPE
 70
     6
  9
$SURFU
 70
     6
  9
$SURFV
 70
     6
  9
$UCSNAME
  2

  9
$UCSORG
 10
0.0
 20
0.0
 30
0.0
  9
$UCSXDIR
 10
1.0
 20
0.0
 30
0.0
  9
$UCSYDIR
 10
0.0
 20
1.0
 30
0.0
  9
$PUCSNAME
  2

  9
$PUCSORG
 10
0.0
 20
0.0
 30
0.0
  9
$PUCSXDIR
 10
1.0
 20
0.0
 30
0.0
  9
$PUCSYDIR
 10
0.0
 20
1.0
 30
0.0
  9
$USERI1
 70
     0
  9
$USERI2
 70
     0
  9
$USERI3
 70
     0
  9
$USERI4
 70
     0
  9
$USERI5
 70
     0
  9
$USERR1
 40
0.0
  9
$USERR2
 40
0.0
  9
$USERR3
 40
0.0
  9
$USERR4
 40
0.0
  9
$USERR5
 40
0.0
  9
$WORLDVIEW
 70
     1
  9
$SHADEDGE
 70
     3
  9
$SHADEDIF
 70
    70
  9
$TILEMODE
 70
     1
  9
$MAXACTVP
 70
    64
  9
$PLIMCHECK
 70
     0
  9
$PEXTMIN
 10
0.0
 20
0.0
 30
0.0
  9
$PEXTMAX
 10
0.0
 20
0.0
 30
0.0
  9
$PLIMMIN
 10
0.0
 20
0.0
  9
$PLIMMAX
 10
12.0
 20
9.0
  9
$UNITMODE
 70
     0
  9
$VISRETAIN
 70
     1
  9
$PLINEGEN
 70
     0
  9
$PSLTSCALE
 70
     1
  0
ENDSEC
  0
SECTION
  2
TABLES
  0
TABLE
  2
VPORT
 70
     1
  0
VPORT
  2
*ACTIVE
 70
     0
 10
0.0
 20
0.0
 11
1.0
 21
1.0
 12
466.05651597360259
 22
200.0
 13
0.0
 23
0.0
 14
10.0
 24
10.0
 15
10.0
 25
10.0
 16
0.0
 26
0.0
 36
1.0
 17
0.0
 27
0.0
 37
0.0
 40
385.88235294117652
 41
2.415644171779141
 42
50.0
 43
0.0
 44
0.0
 50
0.0
 51
0.0
 71
     0
 72
  1000
 73
     1
 74
     3
 75
     0
 76
     0
 77
     0
 78
     0
  0
ENDTAB
  0
TABLE
  2
LTYPE
 70
     2
  0
LTYPE
  2
CONTINUOUS
 70
     0
  3
Solid line
 72
    65
 73
     0
 40
0.0
  0
LTYPE
  2
CENTER
 70
     0
  3
____ _ ____ _ ____ _ ____ _ ____ _ ____ _ ____
 72
    65
 73
     4
 40
2.0
 49
1.25
 49
-0.25
 49
0.25
 49
-0.25
  0
ENDTAB
  0
TABLE
  2
LAYER
 70
     4
  0
LAYER
  2
0
 70
     0
 62
     7
  6
CONTINUOUS
  0
LAYER
  2
DEFPOINTS
 70
     0
 62
     7
  6
CONTINUOUS
  0
LAYER
  2
1
 70
     0
 62
     1
  6
CENTER
  0
LAYER
  2
3
 70
     0
 62
     3
  6
CONTINUOUS
  0
ENDTAB
  0
TABLE
  2
STYLE
 70
     2
  0
STYLE
  2
STANDARD
 70
     0
 40
0.0
 41
1.0
 50
0.0
 71
     0
 42
2.5
  3
txt
  4

  0
STYLE
  2
STANDARD1
 70
     0
 40
0.0
 41
1.0
 50
0.0
 71
     0
 42
3.0
  3
txt
  4

  0
ENDTAB
  0
TABLE
  2
VIEW
 70
     4
  0
VIEW
  2
OLE1
 70
     0
 40
17.336203194614189
 10
1078.262703908531
 20
377.67444865954309
 41
31.074911629702001
 11
0.0
 21
0.0
 31
1.0
 12
0.0
 22
0.0
 32
0.0
 42
50.0
 43
0.0
 44
0.0
 50
0.0
 71
     0
  0
VIEW
  2
OLE2
 70
     0
 40
50.523198253338478
 10
1031.767738941523
 20
579.92835671582054
 41
90.562155008667546
 11
0.0
 21
0.0
 31
1.0
 12
0.0
 22
0.0
 32
0.0
 42
50.0
 43
0.0
 44
0.0
 50
0.0
 71
     0
  0
VIEW
  2
OLE3
 70
     0
 40
95.502301876216066
 10
202.0430959360805
 20
425.55992261598641
 41
146.70534324358491
 11
0.0
 21
0.0
 31
1.0
 12
0.0
 22
0.0
 32
0.0
 42
50.0
 43
0.0
 44
0.0
 50
0.0
 71
     0
  0
VIEW
  2
OLE4
 70
     0
 40
10.01275349423395
 10
937.04056650973382
 20
276.15005419720887
 41
14.972048328368629
 11
0.0
 21
0.0
 31
1.0
 12
0.0
 22
0.0
 32
0.0
 42
50.0
 43
0.0
 44
0.0
 50
0.0
 71
     0
  0
ENDTAB
  0
TABLE
  2
UCS
 70
     0
  0
ENDTAB
  0
TABLE
  2
APPID
 70
    42
  0
APPID
  2
ACAD
 70
     0
  0
APPID
  2
_FTCNV
 70
     0
  0
APPID
  2
DCO15
 70
     0
  0
APPID
  2
GENIUS_GENOREF_13
 70
     0
  0
APPID
  2
GENIUS_GENOENT_13
 70
     0
  0
APPID
  2
GENIUS_GENBH_13
 70
     0
  0
APPID
  2
GENIUS_GENOBJ_13
 70
     0
  0
APPID
  2
GENIUS_GENODEF_13
 70
     0
  0
APPID
  2
GENIUS_GENOLIS_13
 70
     0
  0
APPID
  2
GENIUS_GENOBJ-NBEHI-BHF_13
 70
     0
  0
APPID
  2
GENIUS_GENOBJ-NBEHI-BHB_13
 70
     0
  0
APPID
  2
GENIUS_GENOBJ-F-PART_13
 70
     0
  0
APPID
  2
GENIUS_GEFSTDP_13
 70
     0
  0
APPID
  2
GENIUS_GENOBJ-N-RSSYM_13
 70
     0
  0
APPID
  2
GENIUS_GENSYMENT_13
 70
     0
  0
APPID
  2
GENIUS_GENOBJ-N-TIT_13
 70
     0
  0
APPID
  2
GENIUS_GENTITLE_13
 70
     0
  0
APPID
  2
GENIUS_GENZVEED_13
 70
     0
  0
APPID
  2
GENIUS_GENOBJ-N-LEADER_13
 70
     0
  0
APPID
  2
GENIUS_GENOBJ-N-FIL_13
 70
     0
  0
APPID
  2
GENIUS_GENOBJ-N-SEC_13
 70
     0
  0
APPID
  2
GENIUS_GENOBJ-N-CRS_13
 70
     0
  0
APPID
  2
GENIUS_GENOBJ-N-ZOO_13
 70
     0
  0
APPID
  2
GENIUS_GENZOO_13
 70
     0
  0
APPID
  2
GENIUS_GENOBJ-F-TOL_13
 70
     0
  0
APPID
  2
GENIUS_GENFIL_13
 70
     0
  0
APPID
  2
GENIUS_GENOBJ-N-CHA_13
 70
     0
  0
APPID
  2
_CALL_MAC$
 70
     0
  0
APPID
  2
ASM_BASE
 70
     0
  0
APPID
  2
ASM_EXPLO_VER_2_00
 70
     0
  0
APPID
  2
ASM_CADM_VER_12_00
 70
     0
  0
APPID
  2
ASM_BASEFORO
 70
     0
  0
APPID
  2
ASM_BASETRAVI
 70
     0
  0
APPID
  2
ASM_BASETRAVI1
 70
     0
  0
APPID
  2
ASM_GRUPPI
 70
     0
  0
APPID
  2
ASM_CADM_ALBERO
 70
     0
  0
APPID
  2
ASM_GOLE
 70
     0
  0
APPID
  2
ACAD_MLEADERVER
 70
     0
  0
APPID
  2
ACAD_EXEMPT_FROM_CAD_STANDARDS
 70
     0
  0
APPID
  2
ACAD_DSTYLE_DIMJAG
 70
     0
  0
APPID
  2
ACAD_DSTYLE_DIMTALN
 70
     0
  0
APPID
  2
ACAD_NAV_VCDISPLAY
 70
     0
  0
ENDTAB
  0
TABLE
  2
DIMSTYLE
 70
     2
  0
DIMSTYLE
  2
ISO-25
 70
     0
  3

  4

  5

  6

  7

 40
1.0
 41
2.5
 42
0.625
 43
3.75
 44
1.25
 45
0.0
 46
0.0
 47
0.0
 48
0.0
140
2.5
141
2.5
142
0.0
143
0.03937007874016
144
1.0
145
0.0
146
1.0
147
0.625
 71
     0
 72
     0
 73
     0
 74
     0
 75
     0
 76
     0
 77
     1
 78
     8
170
     0
171
     3
172
     1
173
     0
174
     0
175
     0
176
     0
177
     0
178
     0
  0
DIMSTYLE
  2
STANDARD
 70
     0
  3

  4

  5

  6

  7

 40
1.0
 41
0.18
 42
0.0625
 43
0.38
 44
0.18
 45
0.0
 46
0.0
 47
0.0
 48
0.0
140
0.18
141
0.09
142
0.0
143
25.399999999999999
144
1.0
145
0.0
146
1.0
147
0.09
 71
     0
 72
     0
 73
     1
 74
     1
 75
     0
 76
     0
 77
     0
 78
     0
170
     0
171
     2
172
     0
173
     0
174
     0
175
     0
176
     0
177
     0
178
     0
  0
ENDTAB
  0
ENDSEC
  0
SECTION
  2
BLOCKS
  0
BLOCK
  8
0
  2
$MODEL_SPACE
 70
     0
 10
0.0
 20
0.0
 30
0.0
  3
$MODEL_SPACE
  1

  0
ENDBLK
  5
21
  8
0
  0
BLOCK
 67
     1
  8
0
  2
$PAPER_SPACE
 70
     0
 10
0.0
 20
0.0
 30
0.0
  3
$PAPER_SPACE
  1

  0
ENDBLK
  5
53
 67
     1
  8
0
  0
ENDSEC
  0
SECTION
  2
ENTITIES
  0
TEXT
  5
C317
  8
0
 62
     3
 10
0.0
 20
0.0
 30
0.0
 40
10.0
  1
ST-PAH464000L-S
  7
STANDARD1
  0
LINE
  5
1806E
  8
0
 10
327.74008467687418
 20
208.53521849960089
 30
0.0
 11
327.15978875650222
 21
207.52951305359599
 31
0.0
  0
LINE
  5
1806F
  8
0
 10
327.16317877067382
 20
194.52951464802021
 30
0.0
 11
327.74400368226787
 21
193.52411188185209
 31
0.0
  0
LINE
  5
18070
  8
0
 10
333.9597921062832
 20
207.5312862917782
 30
0.0
 11
333.37897464526941
 21
208.5366881266236
 31
0.0
  0
LINE
  5
18071
  8
0
 10
333.38288620008279
 20
193.52558244019761
 30
0.0
 11
333.9631821204548
 21
194.5312869548797
 31
0.0
  0
LINE
  5
18072
  8
0
 10
355.49895454198122
 20
205.03663260489699
 30
0.0
 11
353.46044469591828
 21
205.03610102310759
 31
0.0
  0
LINE
  5
18073
  8
0
 10
327.16044088855
 20
205.0292427991285
 30
0.0
 11
224.99895713292091
 21
205.00260580331101
 31
0.0
  0
LINE
  5
18074
  8
0
 10
225.0010430626574
 20
197.00260635465381
 30
0.0
 11
327.16252728217017
 21
197.0292433505324
 31
0.0
  0
LINE
  5
18075
  8
0
 10
353.46252633136419
 20
197.0361006419474
 30
0.0
 11
355.50104070454842
 21
197.03663222491741
 31
0.0
  0
LINE
  5
18076
  8
0
 10
355.50104070454842
 20
197.03663222491741
 30
0.0
 11
356.0009150579574
 21
197.53676269203419
 31
0.0
  0
LINE
  5
18077
  8
0
 10
355.99908221513027
 20
204.53676197677851
 30
0.0
 11
355.49895454198122
 21
205.03663260489699
 31
0.0
  0
POLYLINE
  5
18078
  8
0
 66
     1
 10
0.0
 20
0.0
 30
0.0
 70
   128
  0
VERTEX
  5
1AD3E
  8
0
 10
215.00104375183611
 20
196.99999865144491
 30
0.0
  0
VERTEX
  5
1AD3F
  8
0
 10
215.1529657468202
 20
197.00003869831559
 30
0.0
  0
VERTEX
  5
1AD40
  8
0
 10
215.6041170284154
 20
197.00015604496011
 30
0.0
  0
VERTEX
  5
1AD41
  8
0
 10
216.340789459646
 20
197.00034789741039
 30
0.0
  0
VERTEX
  5
1AD42
  8
0
 10
217.34059870243101
 20
197.00060866773131
 30
0.0
  0
VERTEX
  5
1AD43
  8
0
 10
218.57316687703161
 20
197.0009299740195
 30
0.0
  0
VERTEX
  5
1AD44
  8
0
 10
220.00104317441611
 20
197.00130250304929
 30
0.0
  0
VERTEX
  5
1AD45
  8
0
 10
221.5808414667847
 20
197.00171414762741
 30
0.0
  0
VERTEX
  5
1AD46
  8
0
 10
223.26456138864179
 20
197.00215373188269
 30
0.0
  0
VERTEX
  5
1AD47
  8
0
 10
225.0010430626574
 20
197.00260635465381
 30
0.0
  0
SEQEND
  5
1AD48
  8
0
  0
POLYLINE
  5
18079
  8
0
 66
     1
 10
0.0
 20
0.0
 30
0.0
 70
   128
  0
VERTEX
  5
1AD49
  8
0
 10
224.99895713292091
 20
205.00260580331101
 30
0.0
  0
VERTEX
  5
1AD4A
  8
0
 10
223.26247522607471
 20
205.00215318053961
 30
0.0
  0
VERTEX
  5
1AD4B
  8
0
 10
221.57875576987891
 20
205.00171359628439
 30
0.0
  0
VERTEX
  5
1AD4C
  8
0
 10
219.9989574775102
 20
205.00130195170649
 30
0.0
  0
VERTEX
  5
1AD4D
  8
0
 10
218.57108164578699
 20
205.00092942267671
 30
0.0
  0
VERTEX
  5
1AD4E
  8
0
 10
217.33851253986381
 20
205.0006090477109
 30
0.0
  0
VERTEX
  5
1AD4F
  8
0
 10
216.33870329707881
 20
205.00034827739
 30
0.0
  0
VERTEX
  5
1AD50
  8
0
 10
215.60203086584829
 20
205.00015642493969
 30
0.0
  0
VERTEX
  5
1AD51
  8
0
 10
215.15087958425309
 20
205.00003721565011
 30
0.0
  0
VERTEX
  5
1AD52
  8
0
 10
214.99895758926891
 20
204.999998100102
 30
0.0
  0
SEQEND
  5
1AD53
  8
0
  0
LINE
  5
1807A
  8
0
 10
352.86317422879978
 20
194.5362155139446
 30
0.0
 11
353.46318438543108
 21
194.5363719761371
 31
0.0
  0
LINE
  5
1807B
  8
0
 10
353.45978692067911
 20
207.5363713130356
 30
0.0
 11
352.85979166520877
 21
207.53621485084301
 31
0.0
  0
LINE
  5
1807C
  8
0
 10
345.96318408740808
 20
194.53441619873041
 30
0.0
 11
346.54400154842187
 21
193.52901436388501
 31
0.0
  0
LINE
  5
1807D
  8
0
 10
346.54008254302789
 20
208.54012098163381
 30
0.0
 11
345.95979407323648
 21
207.53441553562891
 31
0.0
  0
LINE
  5
1807E
  8
0
 10
333.37897464526941
 20
208.5366881266236
 30
0.0
 11
327.74008467687418
 21
208.53521849960089
 31
0.0
  0
POLYLINE
  5
1807F
  8
0
 66
     1
 10
0.0
 20
0.0
 30
0.0
 70
   128
  0
VERTEX
  5
1AD54
  8
0
 10
333.37897464526941
 20
208.5366881266236
 30
0.0
  0
VERTEX
  5
1AD55
  8
0
 10
333.800424187315
 20
207.6175025478006
 30
0.0
  0
VERTEX
  5
1AD56
  8
0
 10
333.96001562370111
 20
206.66045125573879
 30
0.0
  0
SEQEND
  5
1AD57
  8
0
  0
POLYLINE
  5
18080
  8
0
 66
     1
 10
0.0
 20
0.0
 30
0.0
 70
   128
  0
VERTEX
  5
1AD58
  8
0
 10
333.96001562370111
 20
206.66045125573879
 30
0.0
  0
VERTEX
  5
1AD59
  8
0
 10
333.80702540172371
 20
205.7222182676197
 30
0.0
  0
VERTEX
  5
1AD5A
  8
0
 10
333.37995067132761
 20
204.78391263633981
 30
0.0
  0
SEQEND
  5
1AD5B
  8
0
  0
LINE
  5
18081
  8
0
 10
327.7410681535128
 20
204.78244114667191
 30
0.0
 11
333.37995067132761
 21
204.78391263633981
 31
0.0
  0
POLYLINE
  5
18082
  8
0
 66
     1
 10
0.0
 20
0.0
 30
0.0
 70
   128
  0
VERTEX
  5
1AD5C
  8
0
 10
327.16001972450073
 20
206.6586780175567
 30
0.0
  0
VERTEX
  5
1AD5D
  8
0
 10
327.3135016847973
 20
205.7205251231791
 30
0.0
  0
VERTEX
  5
1AD5E
  8
0
 10
327.7410681535128
 20
204.78244114667191
 30
0.0
  0
SEQEND
  5
1AD5F
  8
0
  0
POLYLINE
  5
18083
  8
0
 66
     1
 10
0.0
 20
0.0
 30
0.0
 70
   128
  0
VERTEX
  5
1AD60
  8
0
 10
327.74008467687418
 20
208.53521849960089
 30
0.0
  0
VERTEX
  5
1AD61
  8
0
 10
327.31911197198679
 20
207.6158131286503
 30
0.0
  0
VERTEX
  5
1AD62
  8
0
 10
327.16001972450073
 20
206.6586780175567
 30
0.0
  0
SEQEND
  5
1AD63
  8
0
  0
POLYLINE
  5
18084
  8
0
 66
     1
 10
0.0
 20
0.0
 30
0.0
 70
   128
  0
VERTEX
  5
1AD64
  8
0
 10
333.37995067132761
 20
204.78391263633981
 30
0.0
  0
VERTEX
  5
1AD65
  8
0
 10
333.8016386319523
 20
202.94543158262971
 30
0.0
  0
VERTEX
  5
1AD66
  8
0
 10
333.96148338807848
 20
201.03128615766769
 30
0.0
  0
SEQEND
  5
1AD67
  8
0
  0
LINE
  5
18085
  8
0
 10
333.9601050306681
 20
206.3212859258056
 30
0.0
 11
333.96001562370111
 21
206.66045125573879
 31
0.0
  0
POLYLINE
  5
18086
  8
0
 66
     1
 10
0.0
 20
0.0
 30
0.0
 70
   128
  0
VERTEX
  5
1AD68
  8
0
 10
333.96148338807848
 20
201.03128615766769
 30
0.0
  0
VERTEX
  5
1AD69
  8
0
 10
333.808739035261
 20
199.15485836565489
 30
0.0
  0
VERTEX
  5
1AD6A
  8
0
 10
333.3819101740246
 20
197.27835886180409
 30
0.0
  0
SEQEND
  5
1AD6B
  8
0
  0
LINE
  5
18087
  8
0
 10
327.74302020562942
 20
197.27688830345869
 30
0.0
 11
333.3819101740246
 21
197.27835886180409
 31
0.0
  0
POLYLINE
  5
18088
  8
0
 66
     1
 10
0.0
 20
0.0
 30
0.0
 70
   128
  0
VERTEX
  5
1AD6C
  8
0
 10
327.16148748887798
 20
201.02951478213069
 30
0.0
  0
VERTEX
  5
1AD6D
  8
0
 10
327.31521531833459
 20
199.15316522121429
 30
0.0
  0
VERTEX
  5
1AD6E
  8
0
 10
327.74302020562942
 20
197.27688830345869
 30
0.0
  0
SEQEND
  5
1AD6F
  8
0
  0
POLYLINE
  5
18089
  8
0
 66
     1
 10
0.0
 20
0.0
 30
0.0
 70
   128
  0
VERTEX
  5
1AD70
  8
0
 10
327.7410681535128
 20
204.78244114667191
 30
0.0
  0
VERTEX
  5
1AD71
  8
0
 10
327.32033386720451
 20
202.94374030083429
 30
0.0
  0
VERTEX
  5
1AD72
  8
0
 10
327.16148748887798
 20
201.02951478213069
 30
0.0
  0
SEQEND
  5
1AD73
  8
0
  0
POLYLINE
  5
1808A
  8
0
 66
     1
 10
0.0
 20
0.0
 30
0.0
 70
   128
  0
VERTEX
  5
1AD74
  8
0
 10
327.16001972450073
 20
206.6586780175567
 30
0.0
  0
VERTEX
  5
1AD75
  8
0
 10
327.16013893378999
 20
206.1863112077117
 30
0.0
  0
VERTEX
  5
1AD76
  8
0
 10
327.16028794540188
 20
205.6257071718575
 30
0.0
  0
VERTEX
  5
1AD77
  8
0
 10
327.16045185817529
 20
204.98646225780249
 30
0.0
  0
VERTEX
  5
1AD78
  8
0
 10
327.16063812269022
 20
204.2795139178634
 30
0.0
  0
VERTEX
  5
1AD79
  8
0
 10
327.16083928836628
 20
203.51695630699399
 30
0.0
  0
VERTEX
  5
1AD7A
  8
0
 10
327.1610479046231
 20
202.7118372544646
 30
0.0
  0
VERTEX
  5
1AD7B
  8
0
 10
327.16126397146007
 20
201.87793474644431
 30
0.0
  0
VERTEX
  5
1AD7C
  8
0
 10
327.16148748887798
 20
201.02951478213069
 30
0.0
  0
SEQEND
  5
1AD7D
  8
0
  0
POLYLINE
  5
1808B
  8
0
 66
     1
 10
0.0
 20
0.0
 30
0.0
 70
   128
  0
VERTEX
  5
1AD7E
  8
0
 10
327.74302020562942
 20
197.27688830345869
 30
0.0
  0
VERTEX
  5
1AD7F
  8
0
 10
327.3220475007418
 20
196.35748293250811
 30
0.0
  0
VERTEX
  5
1AD80
  8
0
 10
327.16295525325592
 20
195.4003487527371
 30
0.0
  0
SEQEND
  5
1AD81
  8
0
  0
POLYLINE
  5
1808C
  8
0
 66
     1
 10
0.0
 20
0.0
 30
0.0
 70
   128
  0
VERTEX
  5
1AD82
  8
0
 10
327.16148748887798
 20
201.02951478213069
 30
0.0
  0
VERTEX
  5
1AD83
  8
0
 10
327.161711006296
 20
200.18109388649461
 30
0.0
  0
VERTEX
  5
1AD84
  8
0
 10
327.16192707313331
 20
199.3471904471516
 30
0.0
  0
VERTEX
  5
1AD85
  8
0
 10
327.1621356893902
 20
198.5420713946223
 30
0.0
  0
VERTEX
  5
1AD86
  8
0
 10
327.16233685506609
 20
197.77951378375289
 30
0.0
  0
VERTEX
  5
1AD87
  8
0
 10
327.16251566900058
 20
197.07256451249131
 30
0.0
  0
VERTEX
  5
1AD88
  8
0
 10
327.16268703235443
 20
196.4333195984363
 30
0.0
  0
VERTEX
  5
1AD89
  8
0
 10
327.16282859338548
 20
195.87271742522711
 30
0.0
  0
VERTEX
  5
1AD8A
  8
0
 10
327.16295525325592
 20
195.4003487527371
 30
0.0
  0
SEQEND
  5
1AD8B
  8
0
  0
LINE
  5
1808D
  8
0
 10
333.9629511524563
 20
195.40212199091911
 30
0.0
 11
333.96286919606968
 21
195.73828194290411
 31
0.0
  0
POLYLINE
  5
1808E
  8
0
 66
     1
 10
0.0
 20
0.0
 30
0.0
 70
   128
  0
VERTEX
  5
1AD8C
  8
0
 10
333.3819101740246
 20
197.27835886180409
 30
0.0
  0
VERTEX
  5
1AD8D
  8
0
 10
333.80335971607019
 20
196.359173282981
 30
0.0
  0
VERTEX
  5
1AD8E
  8
0
 10
333.9629511524563
 20
195.40212199091911
 30
0.0
  0
SEQEND
  5
1AD8F
  8
0
  0
POLYLINE
  5
1808F
  8
0
 66
     1
 10
0.0
 20
0.0
 30
0.0
 70
   128
  0
VERTEX
  5
1AD90
  8
0
 10
333.9629511524563
 20
195.40212199091911
 30
0.0
  0
VERTEX
  5
1AD91
  8
0
 10
333.80996093047912
 20
194.4638880714775
 30
0.0
  0
VERTEX
  5
1AD92
  8
0
 10
333.38288620008279
 20
193.52558244019761
 30
0.0
  0
SEQEND
  5
1AD93
  8
0
  0
LINE
  5
18090
  8
0
 10
327.74400368226787
 20
193.52411188185209
 30
0.0
 11
333.38288620008279
 21
193.52558244019761
 31
0.0
  0
POLYLINE
  5
18091
  8
0
 66
     1
 10
0.0
 20
0.0
 30
0.0
 70
   128
  0
VERTEX
  5
1AD94
  8
0
 10
327.16295525325592
 20
195.4003487527371
 30
0.0
  0
VERTEX
  5
1AD95
  8
0
 10
327.31643721355249
 20
194.4621949270369
 30
0.0
  0
VERTEX
  5
1AD96
  8
0
 10
327.74400368226787
 20
193.52411188185209
 30
0.0
  0
SEQEND
  5
1AD97
  8
0
  0
POLYLINE
  5
18092
  8
0
 66
     1
 10
0.0
 20
0.0
 30
0.0
 70
   128
  0
VERTEX
  5
1AD98
  8
0
 10
327.15978875650222
 20
207.52951305359599
 30
0.0
  0
VERTEX
  5
1AD99
  8
0
 10
327.15980365766308
 20
207.47390564531099
 30
0.0
  0
VERTEX
  5
1AD9A
  8
0
 10
327.15984836114671
 20
207.30803150683639
 30
0.0
  0
VERTEX
  5
1AD9B
  8
0
 10
327.15992286695268
 20
207.03473117202529
 30
0.0
  0
VERTEX
  5
1AD9C
  8
0
 10
327.16001972450073
 20
206.6586780175567
 30
0.0
  0
SEQEND
  5
1AD9D
  8
0
  0
POLYLINE
  5
18093
  8
0
 66
     1
 10
0.0
 20
0.0
 30
0.0
 70
   128
  0
VERTEX
  5
1AD9E
  8
0
 10
327.16295525325592
 20
195.4003487527371
 30
0.0
  0
VERTEX
  5
1AD9F
  8
0
 10
327.16305211080339
 20
195.0242974609138
 30
0.0
  0
VERTEX
  5
1ADA0
  8
0
 10
327.16312661660942
 20
194.75099619477999
 30
0.0
  0
VERTEX
  5
1ADA1
  8
0
 10
327.1631638695124
 20
194.5851229876281
 30
0.0
  0
VERTEX
  5
1ADA2
  8
0
 10
327.16317877067382
 20
194.52951464802021
 30
0.0
  0
SEQEND
  5
1ADA3
  8
0
  0
POLYLINE
  5
18094
  8
0
 66
     1
 10
0.0
 20
0.0
 30
0.0
 70
   128
  0
VERTEX
  5
1ADA4
  8
0
 10
333.96001562370111
 20
206.66045125573879
 30
0.0
  0
VERTEX
  5
1ADA5
  8
0
 10
333.95991876615312
 20
207.0365044102073
 30
0.0
  0
VERTEX
  5
1ADA6
  8
0
 10
333.95985171092798
 20
207.30980474501851
 30
0.0
  0
VERTEX
  5
1ADA7
  8
0
 10
333.95980700744423
 20
207.475678883493
 30
0.0
  0
VERTEX
  5
1ADA8
  8
0
 10
333.9597921062832
 20
207.5312862917782
 30
0.0
  0
SEQEND
  5
1ADA9
  8
0
  0
POLYLINE
  5
18095
  8
0
 66
     1
 10
0.0
 20
0.0
 30
0.0
 70
   128
  0
VERTEX
  5
1ADAA
  8
0
 10
333.9631821204548
 20
194.5312869548797
 30
0.0
  0
VERTEX
  5
1ADAB
  8
0
 10
333.96316721929361
 20
194.58689529448739
 30
0.0
  0
VERTEX
  5
1ADAC
  8
0
 10
333.9631225158098
 20
194.75276943296191
 30
0.0
  0
VERTEX
  5
1ADAD
  8
0
 10
333.96305546058471
 20
195.02606976777309
 30
0.0
  0
VERTEX
  5
1ADAE
  8
0
 10
333.9629511524563
 20
195.40212199091911
 30
0.0
  0
SEQEND
  5
1ADAF
  8
0
  0
LINE
  5
18096
  8
0
 10
184.99999854713701
 20
190.31795894727119
 30
0.0
 11
184.99999854713701
 21
184.9999985471359
 31
0.0
  0
ARC
  5
18097
  8
0
 10
190.00000038636949
 20
190.31795876711399
 30
0.0
 40
5.0
 50
135.0000000000079
 51
180.0
  0
LINE
  5
18098
  8
0
 10
190.14650572091361
 20
197.53553241491309
 30
0.0
 11
186.46446604281689
 21
193.85349273681641
 31
0.0
  0
ARC
  5
18099
  8
0
 10
193.68204016639149
 20
193.9999985471357
 30
0.0
 40
5.00000000000004
 50
90.0
 51
134.99999999999179
  0
LINE
  5
1809A
  8
0
 10
207.29559276253011
 20
198.9999989792706
 30
0.0
 11
193.6820409074428
 21
198.9999989792706
 31
0.0
  0
ARC
  5
1809B
  8
0
 10
207.29559195602741
 20
193.84379854713629
 30
0.0
 40
5.1561999999994717
 50
57.901800308350978
 51
90.0
  0
LINE
  5
1809C
  8
0
 10
212.34314039349579
 20
196.76430512219659
 30
0.0
 11
210.0354525074365
 21
198.2118150964379
 31
0.0
  0
LINE
  5
1809D
  8
0
 10
216.9886919483545
 20
205.58749314397579
 30
0.0
 11
217.99895714968471
 21
205.00078041106471
 31
0.0
  0
ARC
  5
1809E
  8
0
 10
215.00000038636949
 20
200.9999985471359
 30
0.0
 40
5.000000000000079
 50
237.901800308351
 51
306.88483677104762
  0
LINE
  5
1809F
  8
0
 10
214.34573166072391
 20
206.7332229390741
 30
0.0
 11
216.9886919483545
 21
205.58749314397579
 31
0.0
  0
ARC
  5
180A0
  8
0
 10
214.3457320015043
 20
209.8666111433657
 30
0.0
 40
3.1333874037700289
 50
90.0
 51
270.0
  0
LINE
  5
180A1
  8
0
 10
220.58209765702509
 20
212.9999994114041
 30
0.0
 11
214.34573166072391
 21
212.9999994114041
 31
0.0
  0
ARC
  5
180A2
  8
0
 10
220.50000038636969
 20
203.50035328659351
 30
0.0
 40
9.4999999999998792
 50
9.106252170656278
 51
89.504855535869424
  0
LINE
  5
180A3
  8
0
 10
230.00000033527641
 20
184.99999854713579
 30
0.0
 11
230.00000033527641
 21
197.00390927493581
 31
0.0
  0
LINE
  5
180A4
  8
0
 10
184.99999854713701
 20
184.99999854713579
 30
0.0
 11
230.00000033527641
 21
184.99999854713579
 31
0.0
  0
POLYLINE
  5
180A7
  8
0
 66
     1
 10
0.0
 20
0.0
 30
0.0
 70
   128
  0
VERTEX
  5
1ADB0
  8
0
 10
355.50104070454842
 20
197.03663222491741
 30
0.0
  0
VERTEX
  5
1ADB1
  8
0
 10
355.500996001065
 20
197.19866000115869
 30
0.0
  0
VERTEX
  5
1ADB2
  8
0
 10
355.50087679177551
 20
197.67161820083851
 30
0.0
  0
VERTEX
  5
1ADB3
  8
0
 10
355.50068307667988
 20
198.4171894192697
 30
0.0
  0
VERTEX
  5
1ADB4
  8
0
 10
355.50042975693958
 20
199.37497179955241
 30
0.0
  0
VERTEX
  5
1ADB5
  8
0
 10
355.50014663487673
 20
200.46737313270569
 30
0.0
  0
VERTEX
  5
1ADB6
  8
0
 10
355.49984861165291
 20
201.6058916971088
 30
0.0
  0
VERTEX
  5
1ADB7
  8
0
 10
355.4995654895904
 20
202.69829209893939
 30
0.0
  0
VERTEX
  5
1ADB8
  8
0
 10
355.4993121698501
 20
203.6560754105449
 30
0.0
  0
VERTEX
  5
1ADB9
  8
0
 10
355.49911845475458
 20
204.40164569765329
 30
0.0
  0
VERTEX
  5
1ADBA
  8
0
 10
355.4989992454648
 20
204.87460296601071
 30
0.0
  0
VERTEX
  5
1ADBB
  8
0
 10
355.49895454198122
 20
205.03663260489699
 30
0.0
  0
VERTEX
  5
1ADBC
  8
0
 10
355.49895454198122
 20
205.03663260489699
 30
0.0
  0
SEQEND
  5
1ADBD
  8
0
  0
POLYLINE
  5
180A8
  8
0
 66
     1
 10
0.0
 20
0.0
 30
0.0
 70
   128
  0
VERTEX
  5
1ADBE
  8
0
 10
356.0009150579574
 20
197.53676269203419
 30
0.0
  0
VERTEX
  5
1ADBF
  8
0
 10
356.00090015679598
 20
197.5758549571037
 30
0.0
  0
VERTEX
  5
1ADC0
  8
0
 10
356.00081074982899
 20
197.88337115198379
 30
0.0
  0
VERTEX
  5
1ADC1
  8
0
 10
356.0006617382171
 20
198.4710813313722
 30
0.0
  0
VERTEX
  5
1ADC2
  8
0
 10
356.00045312196022
 20
199.2867625132204
 30
0.0
  0
VERTEX
  5
1ADC3
  8
0
 10
356.00019980221992
 20
200.25793917477139
 30
0.0
  0
VERTEX
  5
1ADC4
  8
0
 10
355.99993158131838
 20
201.29831869155171
 30
0.0
  0
VERTEX
  5
1ADC5
  8
0
 10
355.99966336041712
 20
202.31545519083741
 30
0.0
  0
VERTEX
  5
1ADC6
  8
0
 10
355.99942494183802
 20
203.2189759239555
 30
0.0
  0
VERTEX
  5
1ADC7
  8
0
 10
355.99924612790369
 20
203.9285971596837
 30
0.0
  0
VERTEX
  5
1ADC8
  8
0
 10
355.99912691861408
 20
204.38126649707559
 30
0.0
  0
VERTEX
  5
1ADC9
  8
0
 10
355.99908221513027
 20
204.53676197677851
 30
0.0
  0
VERTEX
  5
1ADCA
  8
0
 10
355.99908221513027
 20
204.53676197677851
 30
0.0
  0
SEQEND
  5
1ADCB
  8
0
  0
ARC
  5
180A9
  8
0
 10
215.00000038636969
 20
200.99999854713599
 30
0.0
 40
3.9999999999999578
 50
90.014939125192214
 51
180.01493912519871
  0
ARC
  5
180AA
  8
0
 10
215.00000038636969
 20
200.99999854713599
 30
0.0
 40
3.9999999999999578
 50
180.01493912519871
 51
270.01493912520522
  0
LINE
  5
180AD
  8
0
 10
345.96286371244241
 20
195.74141118675479
 30
0.0
 11
345.96010699762161
 21
206.32441516965631
 31
0.0
  0
ARC
  5
180AF
  8
0
 10
339.96148655153092
 20
201.03134877686929
 30
0.0
 40
8.0000000000000107
 50
41.424561234463411
 51
138.6053170159326
  0
LINE
  5
180B4
  8
0
 10
333.9601050306681
 20
206.3212859258056
 30
0.0
 11
333.96286919606968
 21
195.73828194290411
 31
0.0
  0
ARC
  5
180B6
  8
0
 10
339.96148655153092
 20
201.03134877686929
 30
0.0
 40
8.0000000000001528
 50
221.424561234479
 51
318.6053170159326
  0
LINE
  5
180BA
  8
0
 10
411.17138817800321
 20
212.91248489171281
 30
0.0
 11
410.93137517465379
 21
212.91248489171281
 31
0.0
  0
ARC
  5
180BB
  8
0
 10
410.93138884039962
 20
202.9124849678623
 30
0.0
 40
10.000000000000631
 50
90.000039903456837
 51
121.3287352826022
  0
LINE
  5
180BC
  8
0
 10
405.73191299928448
 20
211.4544658735395
 30
0.0
 11
385.75209334386642
 21
199.2928207665683
 31
0.0
  0
ARC
  5
180BD
  8
0
 10
375.35315008763217
 20
216.3767817190197
 30
0.0
 40
19.999996767841981
 50
270.00004380993761
 51
301.32873528260222
  0
LINE
  5
180BE
  8
0
 10
375.35316899312778
 20
196.37678459286701
 30
0.0
 11
372.30190291894701
 21
196.37678273022181
 31
0.0
  0
LINE
  5
180BF
  8
0
 10
318.96148279203197
 20
220.89499223977339
 30
0.0
 11
318.96148279203197
 21
218.6171560361982
 31
0.0
  0
LINE
  5
180C0
  8
0
 10
411.17138817800321
 20
220.89499223977339
 30
0.0
 11
318.96148279203197
 21
220.89499223977339
 31
0.0
  0
LINE
  5
180C1
  8
0
 10
318.96148279203197
 20
220.89499223977339
 30
0.0
 11
318.96147534145172
 21
220.89499223977339
 31
0.0
  0
LINE
  5
180C2
  8
0
 10
318.96147534145172
 20
220.89499223977339
 30
0.0
 11
318.96147534145172
 21
218.61715976148841
 31
0.0
  0
LINE
  5
180C3
  8
0
 10
346.54301807178291
 20
197.28179078549161
 30
0.0
 11
352.86245897306247
 21
197.2834382951259
 31
0.0
  0
POLYLINE
  5
180C4
  8
0
 66
     1
 10
0.0
 20
0.0
 30
0.0
 70
   128
  0
VERTEX
  5
1ADCC
  8
0
 10
346.54301807178291
 20
197.28179078549161
 30
0.0
  0
VERTEX
  5
1ADCD
  8
0
 10
346.12133011115839
 20
199.12027183920139
 30
0.0
  0
VERTEX
  5
1ADCE
  8
0
 10
345.96148535503198
 20
201.0344154015184
 30
0.0
  0
SEQEND
  5
1ADCF
  8
0
  0
POLYLINE
  5
180C5
  8
0
 66
     1
 10
0.0
 20
0.0
 30
0.0
 70
   128
  0
VERTEX
  5
1ADD0
  8
0
 10
345.96148535503198
 20
201.0344154015184
 30
0.0
  0
VERTEX
  5
1ADD1
  8
0
 10
346.11423715842989
 20
202.9108441248537
 30
0.0
  0
VERTEX
  5
1ADD2
  8
0
 10
346.54106601966669
 20
204.7873436287046
 30
0.0
  0
SEQEND
  5
1ADD3
  8
0
  0
LINE
  5
180C6
  8
0
 10
346.54106601966669
 20
204.7873436287046
 30
0.0
 11
352.86050692094591
 21
204.78899206966159
 31
0.0
  0
LINE
  5
180C7
  8
0
 10
352.86149039758487
 20
201.03621471673259
 30
0.0
 11
352.86050692094591
 21
204.78899206966159
 31
0.0
  0
LINE
  5
180C8
  8
0
 10
352.86245897306247
 20
197.2834382951259
 30
0.0
 11
352.86149039758487
 21
201.03621471673259
 31
0.0
  0
POLYLINE
  5
180C9
  8
0
 66
     1
 10
0.0
 20
0.0
 30
0.0
 70
   128
  0
VERTEX
  5
1ADD4
  8
0
 10
353.46318438543108
 20
194.5363719761371
 30
0.0
  0
VERTEX
  5
1ADD5
  8
0
 10
353.46315458310869
 20
194.66414570808419
 30
0.0
  0
VERTEX
  5
1ADD6
  8
0
 10
353.4630353738192
 20
195.08881762623781
 30
0.0
  0
VERTEX
  5
1ADD7
  8
0
 10
353.46285655988481
 20
195.7915917783975
 30
0.0
  0
VERTEX
  5
1ADD8
  8
0
 10
353.4626032401448
 20
196.7396055161953
 30
0.0
  0
VERTEX
  5
1ADD9
  8
0
 10
353.46230521692092
 20
197.88853067904719
 30
0.0
  0
VERTEX
  5
1ADDA
  8
0
 10
353.46196249021318
 20
199.1846457868815
 30
0.0
  0
VERTEX
  5
1ADDB
  8
0
 10
353.46160486234481
 20
200.56734595447779
 30
0.0
  0
VERTEX
  5
1ADDC
  8
0
 10
353.46124723447588
 20
201.9719759747386
 30
0.0
  0
VERTEX
  5
1ADDD
  8
0
 10
353.46088960660751
 20
203.3328599110246
 30
0.0
  0
VERTEX
  5
1ADDE
  8
0
 10
353.46056178106119
 20
204.58636235445741
 30
0.0
  0
VERTEX
  5
1ADDF
  8
0
 10
353.46027865899828
 20
205.67386958748099
 30
0.0
  0
VERTEX
  5
1ADE0
  8
0
 10
353.46005514158043
 20
206.5445332601667
 30
0.0
  0
VERTEX
  5
1ADE1
  8
0
 10
353.45989122880752
 20
207.15764153748751
 30
0.0
  0
VERTEX
  5
1ADE2
  8
0
 10
353.45980182184007
 20
207.48452644795179
 30
0.0
  0
VERTEX
  5
1ADE3
  8
0
 10
353.45978692067911
 20
207.5363713130356
 30
0.0
  0
SEQEND
  5
1ADE4
  8
0
  0
POLYLINE
  5
180CA
  8
0
 66
     1
 10
0.0
 20
0.0
 30
0.0
 70
   128
  0
VERTEX
  5
1ADE5
  8
0
 10
345.96295311940941
 20
195.40525123476979
 30
0.0
  0
VERTEX
  5
1ADE6
  8
0
 10
346.11594334138658
 20
196.34348515421161
 30
0.0
  0
VERTEX
  5
1ADE7
  8
0
 10
346.54301807178291
 20
197.28179078549161
 30
0.0
  0
SEQEND
  5
1ADE8
  8
0
  0
LINE
  5
180CB
  8
0
 10
345.96295311940941
 20
195.40525123476979
 30
0.0
 11
345.96286371244241
 21
195.74141118675479
 31
0.0
  0
POLYLINE
  5
180CC
  8
0
 66
     1
 10
0.0
 20
0.0
 30
0.0
 70
   128
  0
VERTEX
  5
1ADE9
  8
0
 10
346.54106601966669
 20
204.7873436287046
 30
0.0
  0
VERTEX
  5
1ADEA
  8
0
 10
346.11961647762109
 20
205.70652920752761
 30
0.0
  0
VERTEX
  5
1ADEB
  8
0
 10
345.96001759065439
 20
206.6635804995895
 30
0.0
  0
SEQEND
  5
1ADEC
  8
0
  0
LINE
  5
180CD
  8
0
 10
345.96010699762161
 20
206.32441516965631
 30
0.0
 11
345.96001759065439
 21
206.6635804995895
 31
0.0
  0
POLYLINE
  5
180CE
  8
0
 66
     1
 10
0.0
 20
0.0
 30
0.0
 70
   128
  0
VERTEX
  5
1ADED
  8
0
 10
345.96001759065439
 20
206.6635804995895
 30
0.0
  0
VERTEX
  5
1ADEE
  8
0
 10
346.11300781263139
 20
207.6018153503538
 30
0.0
  0
VERTEX
  5
1ADEF
  8
0
 10
346.54008254302789
 20
208.54012098163381
 30
0.0
  0
SEQEND
  5
1ADF0
  8
0
  0
LINE
  5
180CF
  8
0
 10
352.85952344430729
 20
208.54176755994561
 30
0.0
 11
346.54008254302789
 21
208.54012098163381
 31
0.0
  0
LINE
  5
180D0
  8
0
 10
352.86001518262668
 20
206.66537981480371
 30
0.0
 11
352.85952344430729
 21
208.54176755994561
 31
0.0
  0
LINE
  5
180D1
  8
0
 10
352.86050692094591
 20
204.78899206966159
 30
0.0
 11
352.86001518262668
 21
206.66537981480371
 31
0.0
  0
LINE
  5
180D2
  8
0
 10
346.54400154842187
 20
193.52901436388501
 30
0.0
 11
352.86344244970132
 21
193.53066187351939
 31
0.0
  0
POLYLINE
  5
180D3
  8
0
 66
     1
 10
0.0
 20
0.0
 30
0.0
 70
   128
  0
VERTEX
  5
1ADF1
  8
0
 10
346.54400154842187
 20
193.52901436388501
 30
0.0
  0
VERTEX
  5
1ADF2
  8
0
 10
346.12255200637628
 20
194.4481999427081
 30
0.0
  0
VERTEX
  5
1ADF3
  8
0
 10
345.96295311940941
 20
195.40525123476979
 30
0.0
  0
SEQEND
  5
1ADF4
  8
0
  0
LINE
  5
180D4
  8
0
 10
352.86344244970132
 20
193.53066187351939
 30
0.0
 11
352.86295071138193
 21
195.40704961866149
 31
0.0
  0
LINE
  5
180D5
  8
0
 10
352.86295071138193
 20
195.40704961866149
 30
0.0
 11
352.86245897306247
 21
197.2834382951259
 31
0.0
  0
POLYLINE
  5
180D6
  8
0
 66
     1
 10
0.0
 20
0.0
 30
0.0
 70
   128
  0
VERTEX
  5
1ADF5
  8
0
 10
345.96318408740808
 20
194.53441619873041
 30
0.0
  0
VERTEX
  5
1ADF6
  8
0
 10
345.96316918624672
 20
194.59002453833821
 30
0.0
  0
VERTEX
  5
1ADF7
  8
0
 10
345.96312448276331
 20
194.75589774548999
 30
0.0
  0
VERTEX
  5
1ADF8
  8
0
 10
345.96304997695728
 20
195.0291990116238
 30
0.0
  0
VERTEX
  5
1ADF9
  8
0
 10
345.96295311940941
 20
195.40525123476979
 30
0.0
  0
SEQEND
  5
1ADFA
  8
0
  0
POLYLINE
  5
180D7
  8
0
 66
     1
 10
0.0
 20
0.0
 30
0.0
 70
   128
  0
VERTEX
  5
1ADFB
  8
0
 10
345.96001759065439
 20
206.6635804995895
 30
0.0
  0
VERTEX
  5
1ADFC
  8
0
 10
345.95992073310663
 20
207.03963179141289
 30
0.0
  0
VERTEX
  5
1ADFD
  8
0
 10
345.95984622730072
 20
207.31293398886919
 30
0.0
  0
VERTEX
  5
1ADFE
  8
0
 10
345.95980897439767
 20
207.47880812734371
 30
0.0
  0
VERTEX
  5
1ADFF
  8
0
 10
345.95979407323648
 20
207.53441553562891
 30
0.0
  0
SEQEND
  5
1AE00
  8
0
  0
LINE
  5
180D8
  8
0
 10
296.00000038636972
 20
184.99999854713681
 30
0.0
 11
373.99997964395328
 21
184.99999854713681
 31
0.0
  0
LINE
  5
180DB
  8
0
 10
296.00000038636972
 20
184.99999854713681
 30
0.0
 11
296.00000038636972
 21
197.0213892683386
 31
0.0
  0
LINE
  5
180DC
  8
0
 10
296.00000038636972
 20
205.0213887169958
 30
0.0
 11
296.00000038636972
 21
205.8613485470415
 31
0.0
  0
ARC
  5
180DD
  8
0
 10
309.00000358388797
 20
205.8613491628081
 30
0.0
 40
13.00000000000011
 50
90.0
 51
180.00000315289549
  0
LINE
  5
180DE
  8
0
 10
309.00000437988092
 20
218.86134881526229
 30
0.0
 11
316.99999079002191
 21
218.86134881526229
 31
0.0
  0
ARC
  5
180DF
  8
0
 10
316.99998792645721
 20
210.8613477152056
 30
0.0
 40
8.0000014476025854
 50
359.99996743336408
 51
90.0
  0
LINE
  5
180E0
  8
0
 10
324.99999210132393
 20
210.86134377866981
 30
0.0
 11
324.9999846507435
 21
205.02895105630171
 31
0.0
  0
LINE
  5
180E1
  8
0
 10
334.99999001516147
 20
193.86134471744299
 30
0.0
 11
333.63095328105737
 21
193.95550049841401
 31
0.0
  0
LINE
  5
180E2
  8
0
 10
334.99999001516147
 20
193.86134471744299
 30
0.0
 11
336.41310438407709
 21
193.86134378612039
 31
0.0
  0
LINE
  5
180E3
  8
0
 10
343.5098718096142
 20
193.8613428547979
 30
0.0
 11
344.99998792899902
 21
193.8613428547979
 31
0.0
  0
LINE
  5
180E5
  8
0
 10
346.30278155101593
 20
193.94656911492339
 30
0.0
 11
344.99998792899902
 21
193.8613428547979
 31
0.0
  0
LINE
  5
180E6
  8
0
 10
354.99998584283622
 20
205.03650248893291
 30
0.0
 11
354.99998584283622
 21
213.9897699281573
 31
0.0
  0
ARC
  5
180E7
  8
0
 10
359.999989940148
 20
213.98976925070161
 30
0.0
 40
4.9999999999998863
 50
90.0
 51
179.9999896322866
  0
LINE
  5
180E8
  8
0
 10
359.99999597562578
 20
218.9897707477212
 30
0.0
 11
360.34810200227548
 21
218.9897707477212
 31
0.0
  0
ARC
  5
180E9
  8
0
 10
360.34809593328902
 20
202.98976912472111
 30
0.0
 40
16.000000062990239
 50
58.89748766890763
 51
90.0
  0
LINE
  5
180EF
  8
0
 10
368.6132247735386
 20
210.3613390401006
 30
0.0
 11
368.6132247735386
 21
208.27461022883659
 31
0.0
  0
ARC
  5
180F0
  8
0
 10
378.61322843273553
 20
208.2746087880337
 30
0.0
 40
10.0
 50
179.99998963228981
 51
199.99999358869781
  0
LINE
  5
180F1
  8
0
 10
369.21630456937601
 20
204.85440816730261
 30
0.0
 11
373.3969147492769
 21
193.36826715618369
 31
0.0
  0
ARC
  5
180F2
  8
0
 10
363.9999874375294
 20
189.94806644506491
 30
0.0
 40
10.00000000000016
 50
359.99998963228978
 51
19.999993588697869
  0
LINE
  5
180F3
  8
0
 10
373.99999454511448
 20
189.9480646289885
 30
0.0
 11
373.99991594519912
 21
184.99999854713681
 31
0.0
  0
LINE
  5
180F4
  8
0
 10
309.00000437988092
 20
218.86134881526229
 30
0.0
 11
308.96148487819482
 21
218.86134881526229
 31
0.0
  0
LINE
  5
18108
  8
0
 10
314.92757454408462
 20
205.2243704721333
 30
0.0
 11
314.90309193624307
 21
205.02631727606069
 31
0.0
  0
ARC
  5
18109
  8
0
 10
308.96148501291123
 20
205.86134731460831
 30
0.0
 40
5.9999999999999787
 50
353.90584170957038
 51
188.02978974505379
  0
LINE
  5
1810A
  8
0
 10
211.21234435588141
 20
328.0049930978567
 30
0.0
 11
211.21234435588141
 21
324.00499244220561
 31
0.0
  0
LINE
  5
18111
  8
0
 10
327.1601489688619
 20
343.00499252974993
 30
0.0
 11
224.9999999813738
 21
343.00499252974993
 31
0.0
  0
LINE
  5
18112
  8
0
 10
224.9999999813738
 20
335.00499494373798
 30
0.0
 11
327.1601489688619
 21
335.00499494373798
 31
0.0
  0
LINE
  5
18115
  8
0
 10
327.16014896916232
 20
296.0049932077527
 30
0.0
 11
224.9999999813738
 21
296.0049932077527
 31
0.0
  0
LINE
  5
18116
  8
0
 10
224.9999999813738
 20
288.00499282777309
 30
0.0
 11
327.1601489692959
 21
288.00499282777309
 31
0.0
  0
ARC
  5
18118
  8
0
 10
224.99999769856589
 20
329.00499577740788
 30
0.0
 40
13.999996752342209
 50
89.999990657486507
 51
180.00000743677481
  0
ARC
  5
18119
  8
0
 10
225.00000244939409
 20
329.00499288922538
 30
0.0
 40
6.0000020545132688
 50
90.000023567844636
 51
179.999989772362
  0
ARC
  5
1811A
  8
0
 10
224.9999997212233
 20
302.00499160277252
 30
0.0
 40
13.99999877499943
 50
179.9999932180844
 51
270.00000106467672
  0
ARC
  5
1811B
  8
0
 10
224.99999986753139
 20
302.00499268040289
 30
0.0
 40
5.9999994726504431
 50
179.99999446614339
 51
270.00000108711009
  0
LINE
  5
1811C
  8
0
 10
211.00000094622371
 20
329.0049939602614
 30
0.0
 11
211.00000094622399
 21
302.00499325990688
 31
0.0
  0
LINE
  5
1811D
  8
0
 10
219.000000394881
 20
302.00499325990688
 30
0.0
 11
219.000000394881
 21
303.0049931909889
 31
0.0
  0
LINE
  5
1811E
  8
0
 10
219.000000394881
 20
307.0049933809787
 30
0.0
 11
219.000000394881
 21
324.00499244220561
 31
0.0
  0
LINE
  5
18120
  8
0
 10
331.96148678554317
 20
328.00499379634851
 30
0.0
 11
331.961486785543
 21
326.0232452955097
 31
0.0
  0
LINE
  5
18121
  8
0
 10
331.96148678554317
 20
304.98674099333601
 30
0.0
 11
331.96148678554317
 21
303.0049934238196
 31
0.0
  0
LINE
  5
18122
  8
0
 10
347.9614894081476
 20
303.0049934238196
 30
0.0
 11
347.96148940814783
 21
304.98674099333601
 31
0.0
  0
LINE
  5
18123
  8
0
 10
347.9614894081476
 20
326.0232452955097
 30
0.0
 11
347.9614894081476
 21
328.00499379634851
 31
0.0
  0
LINE
  5
18124
  8
0
 10
298.96148696435722
 20
307.48674093745649
 30
0.0
 11
298.96148696435722
 21
304.9867409933359
 31
0.0
  0
LINE
  5
18125
  8
0
 10
298.96148696435722
 20
326.0232452955097
 30
0.0
 11
298.96148696435722
 21
323.52324581705039
 31
0.0
  0
LINE
  5
18126
  8
0
 10
352.86149039758487
 20
332.50499360263348
 30
0.0
 11
353.46148565305521
 21
332.50499360263348
 31
0.0
  0
LINE
  5
18127
  8
0
 10
353.46148565305521
 20
345.50499387085438
 30
0.0
 11
352.86149039758487
 21
345.50499387085438
 31
0.0
  0
LINE
  5
18128
  8
0
 10
352.86149039758487
 20
285.50499334931379
 30
0.0
 11
353.46148565305521
 21
285.50499334931379
 31
0.0
  0
LINE
  5
18129
  8
0
 10
353.46148565305521
 20
298.50499321008101
 30
0.0
 11
352.86149039758487
 21
298.50499321008101
 31
0.0
  0
ARC
  5
1812B
  8
0
 10
303.96148501291123
 20
333.00634282270272
 30
0.0
 40
1.0
 50
90.0
 51
180.0
  0
ARC
  5
1812C
  8
0
 10
313.96148501291123
 20
333.00634282270272
 30
0.0
 40
1.0000000000002269
 50
0.0
 51
90.0
  0
ARC
  5
1812D
  8
0
 10
313.96148501291123
 20
332.00634282270278
 30
0.0
 40
1.0000000000002269
 50
270.0
 51
0.0
  0
ARC
  5
1812E
  8
0
 10
303.96148501291123
 20
332.00634282270278
 30
0.0
 40
1.0
 50
180.0
 51
270.0
  0
ARC
  5
1812F
  8
0
 10
313.96148501291123
 20
299.00634282270272
 30
0.0
 40
1.0
 50
270.0
 51
0.0
  0
ARC
  5
18130
  8
0
 10
303.96148501291123
 20
299.00634282270272
 30
0.0
 40
1.0
 50
180.0
 51
270.0
  0
LINE
  5
18131
  8
0
 10
314.96148213638122
 20
332.00634120265022
 30
0.0
 11
314.96148213638122
 21
333.0063432292082
 31
0.0
  0
LINE
  5
18132
  8
0
 10
302.96148762000848
 20
333.0063432292082
 30
0.0
 11
302.96148762000848
 21
332.00634120265022
 31
0.0
  0
LINE
  5
18133
  8
0
 10
314.96148213638122
 20
299.00634283665568
 30
0.0
 11
314.96148213638122
 21
300.003643387463
 31
0.0
  0
LINE
  5
18134
  8
0
 10
302.96148762000848
 20
300.003643387463
 30
0.0
 11
302.96148762000848
 21
299.00634283665568
 31
0.0
  0
LINE
  5
18135
  8
0
 10
312.96148553384592
 20
304.00364322820678
 30
0.0
 11
312.96148553384609
 21
304.98674099333601
 31
0.0
  0
LINE
  5
18136
  8
0
 10
312.96148553384609
 20
307.48674093745649
 30
0.0
 11
312.96148553384569
 21
323.52324581705039
 31
0.0
  0
LINE
  5
18137
  8
0
 10
312.96148553384609
 20
326.0232452955097
 30
0.0
 11
312.96148553384592
 21
327.0063422457315
 31
0.0
  0
LINE
  5
18138
  8
0
 10
304.96148422254367
 20
327.0063422457315
 30
0.0
 11
304.96148422254367
 21
326.0232452955097
 31
0.0
  0
LINE
  5
18139
  8
0
 10
304.96148422254367
 20
323.52324581705039
 30
0.0
 11
304.96148422254402
 21
307.48674093745637
 31
0.0
  0
LINE
  5
1813A
  8
0
 10
304.96148422254367
 20
304.98674099333601
 30
0.0
 11
304.96148422254367
 21
304.00364322820678
 31
0.0
  0
LINE
  5
1813B
  8
0
 10
333.37995067132761
 20
298.50499321008101
 30
0.0
 11
327.7410681535128
 21
298.50499321008101
 31
0.0
  0
POLYLINE
  5
1813C
  8
0
 66
     1
 10
0.0
 20
0.0
 30
0.0
 70
   128
  0
VERTEX
  5
1AE01
  8
0
 10
333.37995067132761
 20
298.50499321008101
 30
0.0
  0
VERTEX
  5
1AE02
  8
0
 10
333.80092337621483
 20
296.91272637108341
 30
0.0
  0
VERTEX
  5
1AE03
  8
0
 10
333.96001562370111
 20
295.25499308481812
 30
0.0
  0
SEQEND
  5
1AE04
  8
0
  0
POLYLINE
  5
1813D
  8
0
 66
     1
 10
0.0
 20
0.0
 30
0.0
 70
   128
  0
VERTEX
  5
1AE05
  8
0
 10
333.96001562370111
 20
295.25499308481812
 30
0.0
  0
VERTEX
  5
1AE06
  8
0
 10
333.80653366340448
 20
293.62999305129051
 30
0.0
  0
VERTEX
  5
1AE07
  8
0
 10
333.37897464526941
 20
292.00499348342419
 30
0.0
  0
SEQEND
  5
1AE08
  8
0
  0
LINE
  5
1813E
  8
0
 10
333.37897464526941
 20
292.0049930177629
 30
0.0
 11
327.74008467687418
 21
292.0049930177629
 31
0.0
  0
POLYLINE
  5
1813F
  8
0
 66
     1
 10
0.0
 20
0.0
 30
0.0
 70
   128
  0
VERTEX
  5
1AE09
  8
0
 10
327.16001972450073
 20
295.25499308481812
 30
0.0
  0
VERTEX
  5
1AE0A
  8
0
 10
327.31300994647791
 20
293.62999305129051
 30
0.0
  0
VERTEX
  5
1AE0B
  8
0
 10
327.74008467687418
 20
292.0049930177629
 30
0.0
  0
SEQEND
  5
1AE0C
  8
0
  0
POLYLINE
  5
18140
  8
0
 66
     1
 10
0.0
 20
0.0
 30
0.0
 70
   128
  0
VERTEX
  5
1AE0D
  8
0
 10
327.7410681535128
 20
298.50499321008101
 30
0.0
  0
VERTEX
  5
1AE0E
  8
0
 10
327.31961116088678
 20
296.91272637108341
 30
0.0
  0
VERTEX
  5
1AE0F
  8
0
 10
327.16001972450073
 20
295.25499308481812
 30
0.0
  0
SEQEND
  5
1AE10
  8
0
  0
POLYLINE
  5
18141
  8
0
 66
     1
 10
0.0
 20
0.0
 30
0.0
 70
   128
  0
VERTEX
  5
1AE11
  8
0
 10
333.37897464526941
 20
292.0049930177629
 30
0.0
  0
VERTEX
  5
1AE12
  8
0
 10
333.800424187315
 20
290.41272617876518
 30
0.0
  0
VERTEX
  5
1AE13
  8
0
 10
333.96001562370111
 20
288.75499341636902
 30
0.0
  0
SEQEND
  5
1AE14
  8
0
  0
POLYLINE
  5
18142
  8
0
 66
     1
 10
0.0
 20
0.0
 30
0.0
 70
   128
  0
VERTEX
  5
1AE15
  8
0
 10
333.96001562370111
 20
288.75499341636902
 30
0.0
  0
VERTEX
  5
1AE16
  8
0
 10
333.80702540172371
 20
287.12999291718012
 30
0.0
  0
VERTEX
  5
1AE17
  8
0
 10
333.37995067132761
 20
285.50499334931379
 30
0.0
  0
SEQEND
  5
1AE18
  8
0
  0
LINE
  5
18143
  8
0
 10
327.7410681535128
 20
285.50499334931379
 30
0.0
 11
333.37995067132761
 21
285.50499334931379
 31
0.0
  0
POLYLINE
  5
18144
  8
0
 66
     1
 10
0.0
 20
0.0
 30
0.0
 70
   128
  0
VERTEX
  5
1AE19
  8
0
 10
327.16001972450073
 20
288.75499341636902
 30
0.0
  0
VERTEX
  5
1AE1A
  8
0
 10
327.3135016847973
 20
287.12999291718012
 30
0.0
  0
VERTEX
  5
1AE1B
  8
0
 10
327.7410681535128
 20
285.50499334931379
 30
0.0
  0
SEQEND
  5
1AE1C
  8
0
  0
POLYLINE
  5
18145
  8
0
 66
     1
 10
0.0
 20
0.0
 30
0.0
 70
   128
  0
VERTEX
  5
1AE1D
  8
0
 10
327.74008467687418
 20
292.0049930177629
 30
0.0
  0
VERTEX
  5
1AE1E
  8
0
 10
327.31911197198679
 20
290.41272617876518
 30
0.0
  0
VERTEX
  5
1AE1F
  8
0
 10
327.16001972450073
 20
288.75499341636902
 30
0.0
  0
SEQEND
  5
1AE20
  8
0
  0
POLYLINE
  5
18147
  8
0
 66
     1
 10
0.0
 20
0.0
 30
0.0
 70
   128
  0
VERTEX
  5
1AE21
  8
0
 10
327.16001972450073
 20
295.25499308481812
 30
0.0
  0
VERTEX
  5
1AE22
  8
0
 10
327.15992286695268
 20
294.49243547394872
 30
0.0
  0
VERTEX
  5
1AE23
  8
0
 10
327.15984836114671
 20
293.6873168870805
 30
0.0
  0
VERTEX
  5
1AE24
  8
0
 10
327.15980365766308
 20
292.85341344773769
 30
0.0
  0
VERTEX
  5
1AE25
  8
0
 10
327.15978875650222
 20
292.0049930177629
 30
0.0
  0
VERTEX
  5
1AE26
  8
0
 10
327.15980365766308
 20
291.15657305344939
 30
0.0
  0
VERTEX
  5
1AE27
  8
0
 10
327.15984836114671
 20
290.3226696141063
 30
0.0
  0
VERTEX
  5
1AE28
  8
0
 10
327.15992286695268
 20
289.51755102723843
 30
0.0
  0
VERTEX
  5
1AE29
  8
0
 10
327.16001972450073
 20
288.75499341636902
 30
0.0
  0
SEQEND
  5
1AE2A
  8
0
  0
LINE
  5
1814A
  8
0
 10
333.96148338807848
 20
298.50499321008101
 30
0.0
 11
333.37995067132761
 21
298.50499321008101
 31
0.0
  0
LINE
  5
1814B
  8
0
 10
333.37995067132761
 20
285.50499334931379
 30
0.0
 11
333.96148338807848
 21
285.50499334931379
 31
0.0
  0
LINE
  5
1814C
  8
0
 10
327.7410681535128
 20
298.50499321008101
 30
0.0
 11
327.16148748887798
 21
298.50499321008101
 31
0.0
  0
POLYLINE
  5
1814D
  8
0
 66
     1
 10
0.0
 20
0.0
 30
0.0
 70
   128
  0
VERTEX
  5
1AE2B
  8
0
 10
327.16148748887798
 20
298.50499321008101
 30
0.0
  0
VERTEX
  5
1AE2C
  8
0
 10
327.16126397146007
 20
298.44938481226569
 30
0.0
  0
VERTEX
  5
1AE2D
  8
0
 10
327.1610479046231
 20
298.28351108124468
 30
0.0
  0
VERTEX
  5
1AE2E
  8
0
 10
327.16083928836628
 20
298.01021016435698
 30
0.0
  0
VERTEX
  5
1AE2F
  8
0
 10
327.16063812269022
 20
297.63415831956081
 30
0.0
  0
VERTEX
  5
1AE30
  8
0
 10
327.16045185817529
 20
297.16178990900522
 30
0.0
  0
VERTEX
  5
1AE31
  8
0
 10
327.16028794540188
 20
296.60118727013469
 30
0.0
  0
VERTEX
  5
1AE32
  8
0
 10
327.16013893378999
 20
295.96194247249502
 30
0.0
  0
VERTEX
  5
1AE33
  8
0
 10
327.16001972450073
 20
295.25499308481812
 30
0.0
  0
SEQEND
  5
1AE34
  8
0
  0
LINE
  5
1814E
  8
0
 10
327.7410681535128
 20
285.50499334931379
 30
0.0
 11
327.16148748887798
 21
285.50499334931379
 31
0.0
  0
POLYLINE
  5
1814F
  8
0
 66
     1
 10
0.0
 20
0.0
 30
0.0
 70
   128
  0
VERTEX
  5
1AE35
  8
0
 10
327.16001972450073
 20
288.75499341636902
 30
0.0
  0
VERTEX
  5
1AE36
  8
0
 10
327.16013893378999
 20
288.04804414510733
 30
0.0
  0
VERTEX
  5
1AE37
  8
0
 10
327.16028794540188
 20
287.4087992310524
 30
0.0
  0
VERTEX
  5
1AE38
  8
0
 10
327.16045185817529
 20
286.84819612652052
 30
0.0
  0
VERTEX
  5
1AE39
  8
0
 10
327.16063812269022
 20
286.37582838535309
 30
0.0
  0
VERTEX
  5
1AE3A
  8
0
 10
327.16083928836628
 20
285.99977616220713
 30
0.0
  0
VERTEX
  5
1AE3B
  8
0
 10
327.1610479046231
 20
285.7264748960734
 30
0.0
  0
VERTEX
  5
1AE3C
  8
0
 10
327.16126397146007
 20
285.56060168892151
 30
0.0
  0
VERTEX
  5
1AE3D
  8
0
 10
327.16148748887798
 20
285.50499334931379
 30
0.0
  0
SEQEND
  5
1AE3E
  8
0
  0
LINE
  5
18150
  8
0
 10
333.37995067132761
 20
345.50499387085438
 30
0.0
 11
327.7410681535128
 21
345.50499387085438
 31
0.0
  0
POLYLINE
  5
18151
  8
0
 66
     1
 10
0.0
 20
0.0
 30
0.0
 70
   128
  0
VERTEX
  5
1AE3F
  8
0
 10
333.37995067132761
 20
345.50499387085438
 30
0.0
  0
VERTEX
  5
1AE40
  8
0
 10
333.80092337621483
 20
343.91272656619549
 30
0.0
  0
VERTEX
  5
1AE41
  8
0
 10
333.96001562370111
 20
342.25499473512173
 30
0.0
  0
SEQEND
  5
1AE42
  8
0
  0
POLYLINE
  5
18152
  8
0
 66
     1
 10
0.0
 20
0.0
 30
0.0
 70
   128
  0
VERTEX
  5
1AE43
  8
0
 10
333.96001562370111
 20
342.25499473512173
 30
0.0
  0
VERTEX
  5
1AE44
  8
0
 10
333.80653366340448
 20
340.62999330461008
 30
0.0
  0
VERTEX
  5
1AE45
  8
0
 10
333.37897464526941
 20
339.00499187409878
 30
0.0
  0
SEQEND
  5
1AE46
  8
0
  0
LINE
  5
18153
  8
0
 10
333.37897464526941
 20
339.00499187409878
 30
0.0
 11
327.74008467687418
 21
339.00499187409878
 31
0.0
  0
POLYLINE
  5
18154
  8
0
 66
     1
 10
0.0
 20
0.0
 30
0.0
 70
   128
  0
VERTEX
  5
1AE47
  8
0
 10
327.16001972450073
 20
342.25499473512173
 30
0.0
  0
VERTEX
  5
1AE48
  8
0
 10
327.31300994647791
 20
340.62999330461008
 30
0.0
  0
VERTEX
  5
1AE49
  8
0
 10
327.74008467687418
 20
339.00499187409878
 30
0.0
  0
SEQEND
  5
1AE4A
  8
0
  0
POLYLINE
  5
18155
  8
0
 66
     1
 10
0.0
 20
0.0
 30
0.0
 70
   128
  0
VERTEX
  5
1AE4B
  8
0
 10
327.7410681535128
 20
345.50499387085438
 30
0.0
  0
VERTEX
  5
1AE4C
  8
0
 10
327.31961116088678
 20
343.91272656619549
 30
0.0
  0
VERTEX
  5
1AE4D
  8
0
 10
327.16001972450073
 20
342.25499473512173
 30
0.0
  0
SEQEND
  5
1AE4E
  8
0
  0
POLYLINE
  5
18156
  8
0
 66
     1
 10
0.0
 20
0.0
 30
0.0
 70
   128
  0
VERTEX
  5
1AE4F
  8
0
 10
333.37897464526941
 20
339.00499187409878
 30
0.0
  0
VERTEX
  5
1AE50
  8
0
 10
333.800424187315
 20
337.41272456943989
 30
0.0
  0
VERTEX
  5
1AE51
  8
0
 10
333.96001562370111
 20
335.75499273836613
 30
0.0
  0
SEQEND
  5
1AE52
  8
0
  0
POLYLINE
  5
18157
  8
0
 66
     1
 10
0.0
 20
0.0
 30
0.0
 70
   128
  0
VERTEX
  5
1AE53
  8
0
 10
333.96001562370111
 20
335.75499273836613
 30
0.0
  0
VERTEX
  5
1AE54
  8
0
 10
333.80702540172371
 20
334.12999503314478
 30
0.0
  0
VERTEX
  5
1AE55
  8
0
 10
333.37995067132761
 20
332.50499360263348
 30
0.0
  0
SEQEND
  5
1AE56
  8
0
  0
LINE
  5
18158
  8
0
 10
327.7410681535128
 20
332.50499360263348
 30
0.0
 11
333.37995067132761
 21
332.50499360263348
 31
0.0
  0
POLYLINE
  5
18159
  8
0
 66
     1
 10
0.0
 20
0.0
 30
0.0
 70
   128
  0
VERTEX
  5
1AE57
  8
0
 10
327.16001972450073
 20
335.75499273836613
 30
0.0
  0
VERTEX
  5
1AE58
  8
0
 10
327.3135016847973
 20
334.12999503314478
 30
0.0
  0
VERTEX
  5
1AE59
  8
0
 10
327.7410681535128
 20
332.50499360263348
 30
0.0
  0
SEQEND
  5
1AE5A
  8
0
  0
POLYLINE
  5
1815A
  8
0
 66
     1
 10
0.0
 20
0.0
 30
0.0
 70
   128
  0
VERTEX
  5
1AE5B
  8
0
 10
327.74008467687418
 20
339.00499187409878
 30
0.0
  0
VERTEX
  5
1AE5C
  8
0
 10
327.31911197198679
 20
337.41272456943989
 30
0.0
  0
VERTEX
  5
1AE5D
  8
0
 10
327.16001972450073
 20
335.75499273836613
 30
0.0
  0
SEQEND
  5
1AE5E
  8
0
  0
POLYLINE
  5
1815C
  8
0
 66
     1
 10
0.0
 20
0.0
 30
0.0
 70
   128
  0
VERTEX
  5
1AE5F
  8
0
 10
327.16001972450073
 20
342.25499473512173
 30
0.0
  0
VERTEX
  5
1AE60
  8
0
 10
327.15992286695268
 20
341.49243526160711
 30
0.0
  0
VERTEX
  5
1AE61
  8
0
 10
327.15984836114671
 20
340.68731807172298
 30
0.0
  0
VERTEX
  5
1AE62
  8
0
 10
327.15980365766308
 20
339.85341183841228
 30
0.0
  0
VERTEX
  5
1AE63
  8
0
 10
327.15978875650222
 20
339.00499187409878
 30
0.0
  0
VERTEX
  5
1AE64
  8
0
 10
327.15980365766308
 20
338.15657190978533
 30
0.0
  0
VERTEX
  5
1AE65
  8
0
 10
327.15984836114671
 20
337.32266940176493
 30
0.0
  0
VERTEX
  5
1AE66
  8
0
 10
327.15992286695268
 20
336.51755221188063
 30
0.0
  0
VERTEX
  5
1AE67
  8
0
 10
327.16001972450073
 20
335.75499273836613
 30
0.0
  0
SEQEND
  5
1AE68
  8
0
  0
LINE
  5
1815F
  8
0
 10
333.96148338807848
 20
345.50499387085438
 30
0.0
 11
333.37995067132761
 21
345.50499387085438
 31
0.0
  0
LINE
  5
18160
  8
0
 10
333.37995067132761
 20
332.50499360263348
 30
0.0
 11
333.96148338807848
 21
332.50499360263348
 31
0.0
  0
LINE
  5
18161
  8
0
 10
327.7410681535128
 20
345.50499387085438
 30
0.0
 11
327.16148748887798
 21
345.50499387085438
 31
0.0
  0
POLYLINE
  5
18162
  8
0
 66
     1
 10
0.0
 20
0.0
 30
0.0
 70
   128
  0
VERTEX
  5
1AE69
  8
0
 10
327.16148748887798
 20
345.50499387085438
 30
0.0
  0
VERTEX
  5
1AE6A
  8
0
 10
327.16126397146007
 20
345.44938646256929
 30
0.0
  0
VERTEX
  5
1AE6B
  8
0
 10
327.1610479046231
 20
345.28351046144962
 30
0.0
  0
VERTEX
  5
1AE6C
  8
0
 10
327.16083928836628
 20
345.01021198928362
 30
0.0
  0
VERTEX
  5
1AE6D
  8
0
 10
327.16063812269022
 20
344.63415883481491
 30
0.0
  0
VERTEX
  5
1AE6E
  8
0
 10
327.16045185817529
 20
344.16178829967981
 30
0.0
  0
VERTEX
  5
1AE6F
  8
0
 10
327.16028794540188
 20
343.60118798911572
 30
0.0
  0
VERTEX
  5
1AE70
  8
0
 10
327.16013893378999
 20
342.9619430750609
 30
0.0
  0
VERTEX
  5
1AE71
  8
0
 10
327.16001972450073
 20
342.25499473512173
 30
0.0
  0
SEQEND
  5
1AE72
  8
0
  0
LINE
  5
18163
  8
0
 10
327.7410681535128
 20
332.50499360263348
 30
0.0
 11
327.16148748887798
 21
332.50499360263348
 31
0.0
  0
POLYLINE
  5
18164
  8
0
 66
     1
 10
0.0
 20
0.0
 30
0.0
 70
   128
  0
VERTEX
  5
1AE73
  8
0
 10
327.16001972450073
 20
335.75499273836613
 30
0.0
  0
VERTEX
  5
1AE74
  8
0
 10
327.16013893378999
 20
335.04804439842701
 30
0.0
  0
VERTEX
  5
1AE75
  8
0
 10
327.16028794540188
 20
334.4087994843722
 30
0.0
  0
VERTEX
  5
1AE76
  8
0
 10
327.16045185817529
 20
333.84819544851769
 30
0.0
  0
VERTEX
  5
1AE77
  8
0
 10
327.16063812269022
 20
333.37582863867271
 30
0.0
  0
VERTEX
  5
1AE78
  8
0
 10
327.16083928836628
 20
332.99977548420429
 30
0.0
  0
VERTEX
  5
1AE79
  8
0
 10
327.1610479046231
 20
332.72647701203829
 30
0.0
  0
VERTEX
  5
1AE7A
  8
0
 10
327.16126397146007
 20
332.56060101091862
 30
0.0
  0
VERTEX
  5
1AE7B
  8
0
 10
327.16148748887798
 20
332.50499360263348
 30
0.0
  0
SEQEND
  5
1AE7C
  8
0
  0
LINE
  5
18167
  8
0
 10
230.00000033527641
 20
303.0049931909889
 30
0.0
 11
230.00000033527641
 21
328.0049930978567
 31
0.0
  0
LINE
  5
1816A
  8
0
 10
230.00000033527641
 20
324.00499244220561
 30
0.0
 11
211.21234435588141
 21
324.00499244220561
 31
0.0
  0
LINE
  5
1816B
  8
0
 10
230.00000033527641
 20
328.0049930978567
 30
0.0
 11
211.21234435588141
 21
328.0049930978567
 31
0.0
  0
LINE
  5
1817F
  8
0
 10
211.00000094622399
 20
324.00499244220561
 30
0.0
 11
184.99999854713701
 21
324.00499244220561
 31
0.0
  0
LINE
  5
18180
  8
0
 10
184.99999854713701
 20
328.0049930978567
 30
0.0
 11
211.00000094622399
 21
328.0049930978567
 31
0.0
  0
LINE
  5
18187
  8
0
 10
184.99999854713701
 20
328.0049930978567
 30
0.0
 11
184.99999854713701
 21
303.0049931909889
 31
0.0
  0
CIRCLE
  5
18191
  8
0
 10
195.00000038636949
 20
315.50499314442283
 30
0.0
 40
4.25
  0
ARC
  5
18193
  8
0
 10
220.00000038636949
 20
315.50499314442283
 30
0.0
 40
4.249999999999952
 50
256.39103948727762
 51
103.6089606307837
  0
LINE
  5
1819A
  8
0
 10
333.9601050306681
 20
328.00499379634851
 30
0.0
 11
331.96148678554317
 21
328.00499379634851
 31
0.0
  0
LINE
  5
1819B
  8
0
 10
333.9601050306681
 20
328.00499379634851
 30
0.0
 11
333.9601050306681
 21
347.50499419867992
 31
0.0
  0
LINE
  5
1819C
  8
0
 10
345.96010699762161
 20
347.50499419867992
 30
0.0
 11
333.9601050306681
 21
347.50499419867992
 31
0.0
  0
LINE
  5
1819E
  8
0
 10
345.96010699762132
 20
347.50499419867992
 30
0.0
 11
345.96010699762161
 21
328.00499379634851
 31
0.0
  0
LINE
  5
1819F
  8
0
 10
345.96010699762161
 20
328.00499379634851
 30
0.0
 11
347.9614894081476
 21
328.00499379634851
 31
0.0
  0
LINE
  5
181A2
  8
0
 10
333.9601050306681
 20
283.50499302148819
 30
0.0
 11
345.96010699762161
 21
283.50499302148819
 31
0.0
  0
LINE
  5
181A3
  8
0
 10
333.9601050306681
 20
303.0049934238196
 30
0.0
 11
333.9601050306681
 21
283.50499302148819
 31
0.0
  0
LINE
  5
181A4
  8
0
 10
331.96148678554317
 20
303.0049934238196
 30
0.0
 11
333.9601050306681
 21
303.0049934238196
 31
0.0
  0
LINE
  5
181A7
  8
0
 10
345.96010699762161
 20
303.0049934238196
 30
0.0
 11
347.9614894081476
 21
303.0049934238196
 31
0.0
  0
LINE
  5
181A8
  8
0
 10
345.96010699762161
 20
283.50499302148819
 30
0.0
 11
345.96010699762161
 21
303.0049934238196
 31
0.0
  0
LINE
  5
181AA
  8
0
 10
345.46015813840683
 20
348.00499148666859
 30
0.0
 11
334.46015819801141
 21
348.00499148666859
 31
0.0
  0
LINE
  5
181AB
  8
0
 10
345.46015813840683
 20
348.00499148666859
 30
0.0
 11
345.96010699762161
 21
347.50499419867992
 31
0.0
  0
LINE
  5
181AC
  8
0
 10
333.9601050306681
 20
347.50499419867992
 30
0.0
 11
334.46015819801141
 21
348.00499148666859
 31
0.0
  0
LINE
  5
181AD
  8
0
 10
345.46015813840683
 20
283.0049929395318
 30
0.0
 11
345.96010699762161
 21
283.50499302148819
 31
0.0
  0
LINE
  5
181AE
  8
0
 10
334.46015819801141
 20
283.0049929395318
 30
0.0
 11
345.46015813840683
 21
283.0049929395318
 31
0.0
  0
LINE
  5
181AF
  8
0
 10
333.9601050306681
 20
283.50499302148819
 30
0.0
 11
334.46015819801141
 21
283.0049929395318
 31
0.0
  0
LINE
  5
181B6
  8
0
 10
318.96148279203197
 20
326.0232452955097
 30
0.0
 11
318.96148279203197
 21
304.9867409933359
 31
0.0
  0
LINE
  5
181B7
  8
0
 10
298.96148696435739
 20
326.02324529550981
 30
0.0
 11
411.17138817800321
 21
326.0232452955097
 31
0.0
  0
LINE
  5
181B8
  8
0
 10
411.17138817800321
 20
304.9867409933359
 30
0.0
 11
298.96148696435722
 21
304.9867409933359
 31
0.0
  0
LINE
  5
181BD
  8
0
 10
298.96148696435722
 20
323.52324581705028
 30
0.0
 11
318.96148279203197
 21
323.52324581705039
 31
0.0
  0
LINE
  5
181BF
  8
0
 10
318.96148279203197
 20
307.48674093745649
 30
0.0
 11
298.96148696435722
 21
307.48674093745637
 31
0.0
  0
LINE
  5
181C8
  8
0
 10
346.54008254302789
 20
339.00499187409878
 30
0.0
 11
352.85952344430729
 21
339.00499187409878
 31
0.0
  0
POLYLINE
  5
181C9
  8
0
 66
     1
 10
0.0
 20
0.0
 30
0.0
 70
   128
  0
VERTEX
  5
1AE7D
  8
0
 10
346.54008254302789
 20
339.00499187409878
 30
0.0
  0
VERTEX
  5
1AE7E
  8
0
 10
346.11911728872087
 20
340.59725917875772
 30
0.0
  0
VERTEX
  5
1AE7F
  8
0
 10
345.96001759065439
 20
342.25499473512173
 30
0.0
  0
SEQEND
  5
1AE80
  8
0
  0
POLYLINE
  5
181CA
  8
0
 66
     1
 10
0.0
 20
0.0
 30
0.0
 70
   128
  0
VERTEX
  5
1AE81
  8
0
 10
345.96001759065439
 20
342.25499473512173
 30
0.0
  0
VERTEX
  5
1AE82
  8
0
 10
346.11349955095102
 20
343.87999244034279
 30
0.0
  0
VERTEX
  5
1AE83
  8
0
 10
346.54106601966669
 20
345.50499387085438
 30
0.0
  0
SEQEND
  5
1AE84
  8
0
  0
LINE
  5
181CB
  8
0
 10
352.86050692094591
 20
345.50499387085438
 30
0.0
 11
346.54106601966669
 21
345.50499387085438
 31
0.0
  0
LINE
  5
181CC
  8
0
 10
352.86001518262668
 20
342.25499473512173
 30
0.0
 11
352.86050692094591
 21
345.50499387085438
 31
0.0
  0
LINE
  5
181CD
  8
0
 10
352.85952344430729
 20
339.00499187409878
 30
0.0
 11
352.86001518262668
 21
342.25499473512173
 31
0.0
  0
LINE
  5
181CE
  8
0
 10
352.86001518262668
 20
335.75499273836613
 30
0.0
 11
352.85952344430729
 21
339.00499187409878
 31
0.0
  0
POLYLINE
  5
181CF
  8
0
 66
     1
 10
0.0
 20
0.0
 30
0.0
 70
   128
  0
VERTEX
  5
1AE85
  8
0
 10
352.86001518262668
 20
335.75499273836613
 30
0.0
  0
VERTEX
  5
1AE86
  8
0
 10
352.85992577565958
 20
336.51755221188063
 30
0.0
  0
VERTEX
  5
1AE87
  8
0
 10
352.85985126985361
 20
337.32266940176493
 30
0.0
  0
VERTEX
  5
1AE88
  8
0
 10
352.8598065663698
 20
338.15657190978533
 30
0.0
  0
VERTEX
  5
1AE89
  8
0
 10
352.85979166520877
 20
339.00499187409878
 30
0.0
  0
VERTEX
  5
1AE8A
  8
0
 10
352.8598065663698
 20
339.85341183841228
 30
0.0
  0
VERTEX
  5
1AE8B
  8
0
 10
352.85985126985361
 20
340.68731807172298
 30
0.0
  0
VERTEX
  5
1AE8C
  8
0
 10
352.85992577565958
 20
341.49243526160711
 30
0.0
  0
VERTEX
  5
1AE8D
  8
0
 10
352.86001518262668
 20
342.25499473512173
 30
0.0
  0
SEQEND
  5
1AE8E
  8
0
  0
LINE
  5
181D0
  8
0
 10
346.54106601966669
 20
332.50499360263348
 30
0.0
 11
352.86050692094591
 21
332.50499360263348
 31
0.0
  0
POLYLINE
  5
181D1
  8
0
 66
     1
 10
0.0
 20
0.0
 30
0.0
 70
   128
  0
VERTEX
  5
1AE8F
  8
0
 10
346.54106601966669
 20
332.50499360263348
 30
0.0
  0
VERTEX
  5
1AE90
  8
0
 10
346.11961647762109
 20
334.09726090729242
 30
0.0
  0
VERTEX
  5
1AE91
  8
0
 10
345.96001759065439
 20
335.75499273836613
 30
0.0
  0
SEQEND
  5
1AE92
  8
0
  0
POLYLINE
  5
181D2
  8
0
 66
     1
 10
0.0
 20
0.0
 30
0.0
 70
   128
  0
VERTEX
  5
1AE93
  8
0
 10
345.96001759065439
 20
335.75499273836613
 30
0.0
  0
VERTEX
  5
1AE94
  8
0
 10
346.11300781263139
 20
337.37999416887749
 30
0.0
  0
VERTEX
  5
1AE95
  8
0
 10
346.54008254302789
 20
339.00499187409878
 30
0.0
  0
SEQEND
  5
1AE96
  8
0
  0
LINE
  5
181D3
  8
0
 10
352.86050692094591
 20
332.50499360263348
 30
0.0
 11
352.86001518262668
 21
335.75499273836613
 31
0.0
  0
POLYLINE
  5
181D5
  8
0
 66
     1
 10
0.0
 20
0.0
 30
0.0
 70
   128
  0
VERTEX
  5
1AE97
  8
0
 10
353.46148565305521
 20
335.00499494373798
 30
0.0
  0
VERTEX
  5
1AE98
  8
0
 10
353.46118762983127
 20
335.16702271997917
 30
0.0
  0
VERTEX
  5
1AE99
  8
0
 10
353.46091940892961
 20
335.63997812569141
 30
0.0
  0
VERTEX
  5
1AE9A
  8
0
 10
353.4606958915117
 20
336.38555027544498
 30
0.0
  0
VERTEX
  5
1AE9B
  8
0
 10
353.4605319787388
 20
337.34333358705049
 30
0.0
  0
VERTEX
  5
1AE9C
  8
0
 10
353.46045747293277
 20
338.43573398888111
 30
0.0
  0
VERTEX
  5
1AE9D
  8
0
 10
353.46045747293277
 20
339.5742534846068
 30
0.0
  0
VERTEX
  5
1AE9E
  8
0
 10
353.4605319787388
 20
340.66665388643742
 30
0.0
  0
VERTEX
  5
1AE9F
  8
0
 10
353.4606958915117
 20
341.62443719804293
 30
0.0
  0
VERTEX
  5
1AEA0
  8
0
 10
353.46091940892961
 20
342.3700056225062
 30
0.0
  0
VERTEX
  5
1AEA1
  8
0
 10
353.46118762983127
 20
342.84296475350851
 30
0.0
  0
VERTEX
  5
1AEA2
  8
0
 10
353.46148565305521
 20
343.00499252974993
 30
0.0
  0
SEQEND
  5
1AEA3
  8
0
  0
POLYLINE
  5
181D6
  8
0
 66
     1
 10
0.0
 20
0.0
 30
0.0
 70
   128
  0
VERTEX
  5
1AEA4
  8
0
 10
353.46148565305521
 20
345.50499387085438
 30
0.0
  0
VERTEX
  5
1AEA5
  8
0
 10
353.46184328092357
 20
345.35302810370911
 30
0.0
  0
VERTEX
  5
1AEA6
  8
0
 10
353.46220090879251
 20
344.90423493087292
 30
0.0
  0
VERTEX
  5
1AEA7
  8
0
 10
353.46251383317741
 20
344.17959891259659
 30
0.0
  0
VERTEX
  5
1AEA8
  8
0
 10
353.4627820540789
 20
343.21300528943539
 30
0.0
  0
VERTEX
  5
1AEA9
  8
0
 10
353.46282675756271
 20
343.00499252974993
 30
0.0
  0
SEQEND
  5
1AEAA
  8
0
  0
POLYLINE
  5
181D7
  8
0
 66
     1
 10
0.0
 20
0.0
 30
0.0
 70
   128
  0
VERTEX
  5
1AEAB
  8
0
 10
353.46282675756271
 20
335.00499494373798
 30
0.0
  0
VERTEX
  5
1AEAC
  8
0
 10
353.46264794362833
 20
334.28602136671549
 30
0.0
  0
VERTEX
  5
1AEAD
  8
0
 10
353.46236482156542
 20
333.43542210757732
 30
0.0
  0
VERTEX
  5
1AEAE
  8
0
 10
353.46202209485818
 20
332.84524671733379
 30
0.0
  0
VERTEX
  5
1AEAF
  8
0
 10
353.4616644669893
 20
332.54309587180597
 30
0.0
  0
VERTEX
  5
1AEB0
  8
0
 10
353.46130683912088
 20
332.54309587180597
 30
0.0
  0
VERTEX
  5
1AEB1
  8
0
 10
353.460949211252
 20
332.84524671733379
 30
0.0
  0
VERTEX
  5
1AEB2
  8
0
 10
353.46060648454483
 20
333.43542210757732
 30
0.0
  0
VERTEX
  5
1AEB3
  8
0
 10
353.46032336248192
 20
334.28602136671549
 30
0.0
  0
VERTEX
  5
1AEB4
  8
0
 10
353.46008494390298
 20
335.35727702081209
 30
0.0
  0
VERTEX
  5
1AEB5
  8
0
 10
353.45990612996837
 20
336.59909509122372
 30
0.0
  0
VERTEX
  5
1AEB6
  8
0
 10
353.4598167230015
 20
337.95340947806818
 30
0.0
  0
VERTEX
  5
1AEB7
  8
0
 10
353.45978692067911
 20
339.35689769685268
 30
0.0
  0
VERTEX
  5
1AEB8
  8
0
 10
353.45984652532388
 20
340.74392758309841
 30
0.0
  0
VERTEX
  5
1AEB9
  8
0
 10
353.45999553693582
 20
342.04964928328991
 30
0.0
  0
VERTEX
  5
1AEBA
  8
0
 10
353.46018925203128
 20
343.21300528943539
 30
0.0
  0
VERTEX
  5
1AEBB
  8
0
 10
353.46045747293277
 20
344.17959891259659
 30
0.0
  0
VERTEX
  5
1AEBC
  8
0
 10
353.46077039731767
 20
344.90423493087292
 30
0.0
  0
VERTEX
  5
1AEBD
  8
0
 10
353.46112802518661
 20
345.35302810370911
 30
0.0
  0
VERTEX
  5
1AEBE
  8
0
 10
353.46148565305521
 20
345.50499387085438
 30
0.0
  0
VERTEX
  5
1AEBF
  8
0
 10
353.46148565305521
 20
345.50499387085438
 30
0.0
  0
SEQEND
  5
1AEC0
  8
0
  0
POLYLINE
  5
181D8
  8
0
 66
     1
 10
0.0
 20
0.0
 30
0.0
 70
   128
  0
VERTEX
  5
1AEC1
  8
0
 10
352.86001518262668
 20
342.25499473512173
 30
0.0
  0
VERTEX
  5
1AEC2
  8
0
 10
352.86013439191612
 20
342.9619430750609
 30
0.0
  0
VERTEX
  5
1AEC3
  8
0
 10
352.860283403528
 20
343.60118798911572
 30
0.0
  0
VERTEX
  5
1AEC4
  8
0
 10
352.86044731630142
 20
344.16178829967981
 30
0.0
  0
VERTEX
  5
1AEC5
  8
0
 10
352.86064103139688
 20
344.63415883481491
 30
0.0
  0
VERTEX
  5
1AEC6
  8
0
 10
352.8608347464924
 20
345.01021198928362
 30
0.0
  0
VERTEX
  5
1AEC7
  8
0
 10
352.86104336274911
 20
345.28351046144962
 30
0.0
  0
VERTEX
  5
1AEC8
  8
0
 10
352.86126688016702
 20
345.44938646256929
 30
0.0
  0
VERTEX
  5
1AEC9
  8
0
 10
352.86149039758487
 20
345.50499387085438
 30
0.0
  0
SEQEND
  5
1AECA
  8
0
  0
POLYLINE
  5
181D9
  8
0
 66
     1
 10
0.0
 20
0.0
 30
0.0
 70
   128
  0
VERTEX
  5
1AECB
  8
0
 10
352.86149039758487
 20
332.50499360263348
 30
0.0
  0
VERTEX
  5
1AECC
  8
0
 10
352.86126688016702
 20
332.56060101091862
 30
0.0
  0
VERTEX
  5
1AECD
  8
0
 10
352.86104336274911
 20
332.72647701203829
 30
0.0
  0
VERTEX
  5
1AECE
  8
0
 10
352.8608347464924
 20
332.99977548420429
 30
0.0
  0
VERTEX
  5
1AECF
  8
0
 10
352.86064103139688
 20
333.37582863867271
 30
0.0
  0
VERTEX
  5
1AED0
  8
0
 10
352.86044731630142
 20
333.84819544851769
 30
0.0
  0
VERTEX
  5
1AED1
  8
0
 10
352.860283403528
 20
334.4087994843722
 30
0.0
  0
VERTEX
  5
1AED2
  8
0
 10
352.86013439191612
 20
335.04804439842701
 30
0.0
  0
VERTEX
  5
1AED3
  8
0
 10
352.86001518262668
 20
335.75499273836613
 30
0.0
  0
SEQEND
  5
1AED4
  8
0
  0
LINE
  5
181DA
  8
0
 10
352.86149039758487
 20
345.50499387085438
 30
0.0
 11
352.86050692094591
 21
345.50499387085438
 31
0.0
  0
LINE
  5
181DB
  8
0
 10
352.86149039758487
 20
332.50499360263348
 30
0.0
 11
352.86050692094591
 21
332.50499360263348
 31
0.0
  0
LINE
  5
181DC
  8
0
 10
345.96010699762161
 20
332.50499360263348
 30
0.0
 11
346.54106601966669
 21
332.50499360263348
 31
0.0
  0
LINE
  5
181DE
  8
0
 10
346.54106601966669
 20
345.50499387085438
 30
0.0
 11
345.96010699762132
 21
345.50499387085438
 31
0.0
  0
LINE
  5
181E0
  8
0
 10
346.54106601966669
 20
285.50499334931379
 30
0.0
 11
352.86050692094591
 21
285.50499334931379
 31
0.0
  0
POLYLINE
  5
181E1
  8
0
 66
     1
 10
0.0
 20
0.0
 30
0.0
 70
   128
  0
VERTEX
  5
1AED5
  8
0
 10
346.54106601966669
 20
285.50499334931379
 30
0.0
  0
VERTEX
  5
1AED6
  8
0
 10
346.11961647762109
 20
287.09725972264988
 30
0.0
  0
VERTEX
  5
1AED7
  8
0
 10
345.96001759065439
 20
288.75499341636902
 30
0.0
  0
SEQEND
  5
1AED8
  8
0
  0
POLYLINE
  5
181E2
  8
0
 66
     1
 10
0.0
 20
0.0
 30
0.0
 70
   128
  0
VERTEX
  5
1AED9
  8
0
 10
345.96001759065439
 20
288.75499341636902
 30
0.0
  0
VERTEX
  5
1AEDA
  8
0
 10
346.11300781263139
 20
290.37999298423529
 30
0.0
  0
VERTEX
  5
1AEDB
  8
0
 10
346.54008254302789
 20
292.0049930177629
 30
0.0
  0
SEQEND
  5
1AEDC
  8
0
  0
LINE
  5
181E3
  8
0
 10
352.85952344430729
 20
292.0049930177629
 30
0.0
 11
346.54008254302789
 21
292.0049930177629
 31
0.0
  0
LINE
  5
181E4
  8
0
 10
352.86001518262668
 20
288.75499341636902
 30
0.0
 11
352.85952344430729
 21
292.0049930177629
 31
0.0
  0
LINE
  5
181E5
  8
0
 10
352.86050692094591
 20
285.50499334931379
 30
0.0
 11
352.86001518262668
 21
288.75499341636902
 31
0.0
  0
POLYLINE
  5
181E6
  8
0
 66
     1
 10
0.0
 20
0.0
 30
0.0
 70
   128
  0
VERTEX
  5
1AEDD
  8
0
 10
353.46057668222221
 20
294.0049931127578
 30
0.0
  0
VERTEX
  5
1AEDE
  8
0
 10
353.46077039731767
 20
294.8999293800444
 30
0.0
  0
VERTEX
  5
1AEDF
  8
0
 10
353.461008815897
 20
295.56033510714769
 30
0.0
  0
VERTEX
  5
1AEE0
  8
0
 10
353.46129193795952
 20
295.93270802404732
 30
0.0
  0
VERTEX
  5
1AEE1
  8
0
 10
353.46148565305521
 20
296.0049932077527
 30
0.0
  0
SEQEND
  5
1AEE2
  8
0
  0
POLYLINE
  5
181E7
  8
0
 66
     1
 10
0.0
 20
0.0
 30
0.0
 70
   128
  0
VERTEX
  5
1AEE3
  8
0
 10
353.46148565305521
 20
288.00499282777309
 30
0.0
  0
VERTEX
  5
1AEE4
  8
0
 10
353.46138134492691
 20
288.02310518920422
 30
0.0
  0
VERTEX
  5
1AEE5
  8
0
 10
353.461098222864
 20
288.2915216684342
 30
0.0
  0
VERTEX
  5
1AEE6
  8
0
 10
353.4608449031237
 20
288.86078048497438
 30
0.0
  0
VERTEX
  5
1AEE7
  8
0
 10
353.46063628686721
 20
289.68476533889771
 30
0.0
  0
VERTEX
  5
1AEE8
  8
0
 10
353.46050217641618
 20
290.69672135636199
 30
0.0
  0
VERTEX
  5
1AEE9
  8
0
 10
353.46044257177158
 20
291.8146656081081
 30
0.0
  0
VERTEX
  5
1AEEA
  8
0
 10
353.4604723740938
 20
292.94802883639932
 30
0.0
  0
VERTEX
  5
1AEEB
  8
0
 10
353.46057668222221
 20
294.0049931127578
 30
0.0
  0
SEQEND
  5
1AEEC
  8
0
  0
POLYLINE
  5
181E8
  8
0
 66
     1
 10
0.0
 20
0.0
 30
0.0
 70
   128
  0
VERTEX
  5
1AEED
  8
0
 10
353.46002533925798
 20
295.25499308481812
 30
0.0
  0
VERTEX
  5
1AEEE
  8
0
 10
353.46023395551492
 20
296.38911406043923
 30
0.0
  0
VERTEX
  5
1AEEF
  8
0
 10
353.46050217641618
 20
297.31823842274031
 30
0.0
  0
VERTEX
  5
1AEF0
  8
0
 10
353.46083000196268
 20
297.99892123963212
 30
0.0
  0
VERTEX
  5
1AEF1
  8
0
 10
353.46118762983127
 20
298.39933466399089
 30
0.0
  0
VERTEX
  5
1AEF2
  8
0
 10
353.46154525769981
 20
298.50075580878189
 30
0.0
  0
VERTEX
  5
1AEF3
  8
0
 10
353.46190288556858
 20
298.29844230669551
 30
0.0
  0
VERTEX
  5
1AEF4
  8
0
 10
353.46224561227609
 20
297.80185411771532
 30
0.0
  0
VERTEX
  5
1AEF5
  8
0
 10
353.46255853666088
 20
297.03421117272228
 30
0.0
  0
VERTEX
  5
1AEF6
  8
0
 10
353.46281185640117
 20
296.0314074950291
 30
0.0
  0
VERTEX
  5
1AEF7
  8
0
 10
353.46282675756271
 20
296.0049932077527
 30
0.0
  0
SEQEND
  5
1AEF8
  8
0
  0
POLYLINE
  5
181E9
  8
0
 66
     1
 10
0.0
 20
0.0
 30
0.0
 70
   128
  0
VERTEX
  5
1AEF9
  8
0
 10
353.46282675756271
 20
288.00499282777309
 30
0.0
  0
VERTEX
  5
1AEFA
  8
0
 10
353.4626032401448
 20
287.12771955877542
 30
0.0
  0
VERTEX
  5
1AEFB
  8
0
 10
353.46230521692092
 20
286.31806962192059
 30
0.0
  0
VERTEX
  5
1AEFC
  8
0
 10
353.46196249021318
 20
285.77433370053768
 30
0.0
  0
VERTEX
  5
1AEFD
  8
0
 10
353.46160486234481
 20
285.5219369009136
 30
0.0
  0
VERTEX
  5
1AEFE
  8
0
 10
353.46124723447588
 20
285.57268094271421
 30
0.0
  0
VERTEX
  5
1AEFF
  8
0
 10
353.46088960660751
 20
285.92419188469648
 30
0.0
  0
VERTEX
  5
1AF00
  8
0
 10
353.46056178106119
 20
286.56003560870869
 30
0.0
  0
VERTEX
  5
1AF01
  8
0
 10
353.46027865899828
 20
287.45047871023422
 30
0.0
  0
VERTEX
  5
1AF02
  8
0
 10
353.46005514158043
 20
288.55388548225147
 30
0.0
  0
VERTEX
  5
1AF03
  8
0
 10
353.45989122880752
 20
289.8186625167728
 30
0.0
  0
VERTEX
  5
1AF04
  8
0
 10
353.45980182184007
 20
291.18566989898682
 30
0.0
  0
VERTEX
  5
1AF05
  8
0
 10
353.45980182184007
 20
292.59098816663032
 30
0.0
  0
VERTEX
  5
1AF06
  8
0
 10
353.4598763276461
 20
293.96890599280601
 30
0.0
  0
VERTEX
  5
1AF07
  8
0
 10
353.46002533925798
 20
295.25499308481812
 30
0.0
  0
SEQEND
  5
1AF08
  8
0
  0
POLYLINE
  5
181EA
  8
0
 66
     1
 10
0.0
 20
0.0
 30
0.0
 70
   128
  0
VERTEX
  5
1AF09
  8
0
 10
352.86001518262668
 20
288.75499341636902
 30
0.0
  0
VERTEX
  5
1AF0A
  8
0
 10
352.85992577565958
 20
289.51755102723843
 30
0.0
  0
VERTEX
  5
1AF0B
  8
0
 10
352.85985126985361
 20
290.3226696141063
 30
0.0
  0
VERTEX
  5
1AF0C
  8
0
 10
352.8598065663698
 20
291.15657305344939
 30
0.0
  0
VERTEX
  5
1AF0D
  8
0
 10
352.85979166520877
 20
292.0049930177629
 30
0.0
  0
VERTEX
  5
1AF0E
  8
0
 10
352.8598065663698
 20
292.85341344773769
 30
0.0
  0
VERTEX
  5
1AF0F
  8
0
 10
352.85985126985361
 20
293.6873168870805
 30
0.0
  0
VERTEX
  5
1AF10
  8
0
 10
352.85992577565958
 20
294.49243547394872
 30
0.0
  0
VERTEX
  5
1AF11
  8
0
 10
352.86001518262668
 20
295.25499308481812
 30
0.0
  0
SEQEND
  5
1AF12
  8
0
  0
POLYLINE
  5
181EB
  8
0
 66
     1
 10
0.0
 20
0.0
 30
0.0
 70
   128
  0
VERTEX
  5
1AF13
  8
0
 10
352.86001518262668
 20
295.25499308481812
 30
0.0
  0
VERTEX
  5
1AF14
  8
0
 10
352.86013439191612
 20
295.96194247249502
 30
0.0
  0
VERTEX
  5
1AF15
  8
0
 10
352.860283403528
 20
296.60118727013469
 30
0.0
  0
VERTEX
  5
1AF16
  8
0
 10
352.86044731630142
 20
297.16178990900522
 30
0.0
  0
VERTEX
  5
1AF17
  8
0
 10
352.86064103139688
 20
297.63415831956081
 30
0.0
  0
VERTEX
  5
1AF18
  8
0
 10
352.8608347464924
 20
298.01021016435698
 30
0.0
  0
VERTEX
  5
1AF19
  8
0
 10
352.86104336274911
 20
298.28351108124468
 30
0.0
  0
VERTEX
  5
1AF1A
  8
0
 10
352.86126688016702
 20
298.44938481226569
 30
0.0
  0
VERTEX
  5
1AF1B
  8
0
 10
352.86149039758487
 20
298.50499321008101
 30
0.0
  0
SEQEND
  5
1AF1C
  8
0
  0
POLYLINE
  5
181EC
  8
0
 66
     1
 10
0.0
 20
0.0
 30
0.0
 70
   128
  0
VERTEX
  5
1AF1D
  8
0
 10
352.86149039758487
 20
285.50499334931379
 30
0.0
  0
VERTEX
  5
1AF1E
  8
0
 10
352.86126688016702
 20
285.56060168892151
 30
0.0
  0
VERTEX
  5
1AF1F
  8
0
 10
352.86104336274911
 20
285.7264748960734
 30
0.0
  0
VERTEX
  5
1AF20
  8
0
 10
352.8608347464924
 20
285.99977616220713
 30
0.0
  0
VERTEX
  5
1AF21
  8
0
 10
352.86064103139688
 20
286.37582838535309
 30
0.0
  0
VERTEX
  5
1AF22
  8
0
 10
352.86044731630142
 20
286.84819612652052
 30
0.0
  0
VERTEX
  5
1AF23
  8
0
 10
352.860283403528
 20
287.4087992310524
 30
0.0
  0
VERTEX
  5
1AF24
  8
0
 10
352.86013439191612
 20
288.04804414510733
 30
0.0
  0
VERTEX
  5
1AF25
  8
0
 10
352.86001518262668
 20
288.75499341636902
 30
0.0
  0
SEQEND
  5
1AF26
  8
0
  0
LINE
  5
181ED
  8
0
 10
352.86001518262668
 20
295.25499308481812
 30
0.0
 11
352.85952344430729
 21
292.0049930177629
 31
0.0
  0
POLYLINE
  5
181EE
  8
0
 66
     1
 10
0.0
 20
0.0
 30
0.0
 70
   128
  0
VERTEX
  5
1AF27
  8
0
 10
346.54008254302789
 20
292.00499348342419
 30
0.0
  0
VERTEX
  5
1AF28
  8
0
 10
346.11911728872087
 20
293.5972598567605
 30
0.0
  0
VERTEX
  5
1AF29
  8
0
 10
345.96001759065439
 20
295.25499308481812
 30
0.0
  0
SEQEND
  5
1AF2A
  8
0
  0
POLYLINE
  5
181F0
  8
0
 66
     1
 10
0.0
 20
0.0
 30
0.0
 70
   128
  0
VERTEX
  5
1AF2B
  8
0
 10
345.96001759065439
 20
295.25499308481812
 30
0.0
  0
VERTEX
  5
1AF2C
  8
0
 10
346.11349955095102
 20
296.87999311834562
 30
0.0
  0
VERTEX
  5
1AF2D
  8
0
 10
346.54106601966669
 20
298.50499309366569
 30
0.0
  0
SEQEND
  5
1AF2E
  8
0
  0
LINE
  5
181F1
  8
0
 10
346.54106601966669
 20
298.50499321008101
 30
0.0
 11
352.86050692094591
 21
298.50499321008101
 31
0.0
  0
LINE
  5
181F2
  8
0
 10
352.86050692094591
 20
298.50499321008101
 30
0.0
 11
352.86001518262668
 21
295.25499308481812
 31
0.0
  0
LINE
  5
181F3
  8
0
 10
352.86149039758487
 20
285.50499334931379
 30
0.0
 11
352.86050692094591
 21
285.50499334931379
 31
0.0
  0
LINE
  5
181F4
  8
0
 10
345.96148535503198
 20
285.50499334931379
 30
0.0
 11
346.54106601966669
 21
285.50499334931379
 31
0.0
  0
LINE
  5
181F6
  8
0
 10
352.86050692094591
 20
298.50499321008101
 30
0.0
 11
352.86149039758487
 21
298.50499321008101
 31
0.0
  0
LINE
  5
181F7
  8
0
 10
346.54106601966669
 20
298.50499321008101
 30
0.0
 11
345.96148535503198
 21
298.50499321008101
 31
0.0
  0
LINE
  5
18205
  8
0
 10
296.00000038636972
 20
300.003643387463
 30
0.0
 11
296.00000038636972
 21
331.00634290138248
 31
0.0
  0
LINE
  5
1820A
  8
0
 10
324.99999210132393
 20
304.00364322820678
 30
0.0
 11
324.99999210132393
 21
300.003643387463
 31
0.0
  0
LINE
  5
18211
  8
0
 10
325.00000700248529
 20
327.0063422457315
 30
0.0
 11
325.00000700248529
 21
331.0063429013826
 31
0.0
  0
LINE
  5
18214
  8
0
 10
372.53322854532053
 20
300.003643387463
 30
0.0
 11
372.53322854532053
 21
304.00364322820678
 31
0.0
  0
LINE
  5
18217
  8
0
 10
372.53324344648149
 20
327.0063422457315
 30
0.0
 11
372.53324344648149
 21
331.0063429013826
 31
0.0
  0
LINE
  5
1821C
  8
0
 10
324.9999846507435
 20
300.003643387463
 30
0.0
 11
324.99999210132393
 21
304.00364322820678
 31
0.0
  0
LINE
  5
1821D
  8
0
 10
296.00000038636972
 20
304.00364322820678
 30
0.0
 11
331.96148678554317
 21
304.00364322820678
 31
0.0
  0
LINE
  5
1821E
  8
0
 10
333.9601050306681
 20
300.003643387463
 30
0.0
 11
296.00000038636949
 21
300.003643387463
 31
0.0
  0
LINE
  5
1821F
  8
0
 10
331.96148678554317
 20
327.0063422457315
 30
0.0
 11
295.96148833526422
 21
327.0063422457315
 31
0.0
  0
LINE
  5
18220
  8
0
 10
295.96148833526422
 20
331.00634290138248
 30
0.0
 11
333.9601050306681
 21
331.0063429013826
 31
0.0
  0
LINE
  5
18221
  8
0
 10
347.9614894081476
 20
304.00364322820678
 30
0.0
 11
373.9999945451143
 21
304.00364322820678
 31
0.0
  0
LINE
  5
18222
  8
0
 10
373.99999454511448
 20
300.003643387463
 30
0.0
 11
345.96286371244241
 21
300.003643387463
 31
0.0
  0
LINE
  5
18227
  8
0
 10
373.99999454511459
 20
304.00364322820678
 30
0.0
 11
373.99999454511448
 21
300.003643387463
 31
0.0
  0
LINE
  5
1822A
  8
0
 10
373.99978592885759
 20
326.50499285198748
 30
0.0
 11
373.99978592885759
 21
331.0063429013826
 31
0.0
  0
LINE
  5
1822B
  8
0
 10
373.99978592885759
 20
327.0063422457315
 30
0.0
 11
347.9614894081476
 21
327.0063422457315
 31
0.0
  0
LINE
  5
1822C
  8
0
 10
373.99978592885759
 20
331.0063429013826
 30
0.0
 11
345.96010699762161
 21
331.00634290138248
 31
0.0
  0
LINE
  5
1822D
  8
0
 10
373.99978592885759
 20
331.0063429013826
 30
0.0
 11
373.99997964395328
 21
331.00443927804002
 31
0.0
  0
LINE
  5
1822E
  8
0
 10
373.99997964395328
 20
326.50499285198748
 30
0.0
 11
373.99997964395328
 21
331.00443927804002
 31
0.0
  0
ARC
  5
18233
  8
0
 10
321.50000358388797
 20
315.50499220703142
 30
0.0
 40
4.2500000000000711
 50
126.6767484189192
 51
233.32326315315069
  0
LINE
  5
18237
  8
0
 10
474.6114673263823
 20
328.50499364547431
 30
0.0
 11
412.17137530339983
 21
328.50499364547431
 31
0.0
  0
LINE
  5
18238
  8
0
 10
475.61146935294022
 20
303.504992807284
 30
0.0
 11
475.61146935294022
 21
327.5049934815616
 31
0.0
  0
LINE
  5
18239
  8
0
 10
411.17138817800321
 20
327.5049934815616
 30
0.0
 11
411.17138817800321
 21
303.504992807284
 31
0.0
  0
LINE
  5
1823A
  8
0
 10
412.17137530339983
 20
302.5049931090324
 30
0.0
 11
474.6114673263823
 21
302.5049931090324
 31
0.0
  0
ARC
  5
1823B
  8
0
 10
474.61147027233727
 20
327.50499295127543
 30
0.0
 40
1.0
 50
0.000000000436423
 51
90.0
  0
ARC
  5
1823C
  8
0
 10
412.1713818759315
 20
327.50499295127543
 30
0.0
 40
1.0
 50
90.0
 51
180.0
  0
ARC
  5
1823D
  8
0
 10
474.61147027233727
 20
303.50499295127531
 30
0.0
 40
1.0
 50
270.0
 51
0.0000000000065138
  0
ARC
  5
1823E
  8
0
 10
412.1713818759315
 20
303.50499295127543
 30
0.0
 40
1.0
 50
179.9999999999967
 51
270.0
  0
LINE
  5
1823F
  8
0
 10
313.96148501291123
 20
334.00634282270289
 30
0.0
 11
303.96148501291123
 21
334.00634282270261
 31
0.0
  0
LINE
  5
18240
  8
0
 10
303.96148501291123
 20
298.00634282270261
 30
0.0
 11
313.96148501291123
 21
298.00634282270261
 31
0.0
  0
POLYLINE
  5
18241
  8
0
 66
     1
 10
0.0
 20
0.0
 30
0.0
 70
   128
  0
VERTEX
  5
1AF2F
  8
0
 10
68.999999612569795
 20
197.00260635465381
 30
0.0
  0
VERTEX
  5
1AF30
  8
0
 10
69.151920676231384
 20
197.00215373188269
 30
0.0
  0
VERTEX
  5
1AF31
  8
0
 10
69.603071957826614
 20
197.00171414762741
 30
0.0
  0
VERTEX
  5
1AF32
  8
0
 10
70.339744389057145
 20
197.00130250304929
 30
0.0
  0
VERTEX
  5
1AF33
  8
0
 10
71.339552700519562
 20
197.0009299740195
 30
0.0
  0
VERTEX
  5
1AF34
  8
0
 10
72.572120875120163
 20
197.00060866773131
 30
0.0
  0
VERTEX
  5
1AF35
  8
0
 10
73.999998569488525
 20
197.00034789741039
 30
0.0
  0
VERTEX
  5
1AF36
  8
0
 10
75.579797327518463
 20
197.00015604496011
 30
0.0
  0
VERTEX
  5
1AF37
  8
0
 10
77.263516783714294
 20
197.00003869831559
 30
0.0
  0
VERTEX
  5
1AF38
  8
0
 10
79.999999320134975
 20
196.99997558931611
 30
0.0
  0
SEQEND
  5
1AF39
  8
0
  0
POLYLINE
  5
18242
  8
0
 66
     1
 10
0.0
 20
0.0
 30
0.0
 70
   128
  0
VERTEX
  5
1AF3A
  8
0
 10
78.999997526407469
 20
204.999998100102
 30
0.0
  0
VERTEX
  5
1AF3B
  8
0
 10
77.263516783714294
 20
205.00003721565011
 30
0.0
  0
VERTEX
  5
1AF3C
  8
0
 10
75.579797327518463
 20
205.00015642493969
 30
0.0
  0
VERTEX
  5
1AF3D
  8
0
 10
73.999998569488525
 20
205.00034827739
 30
0.0
  0
VERTEX
  5
1AF3E
  8
0
 10
72.572120875120163
 20
205.0006090477109
 30
0.0
  0
VERTEX
  5
1AF3F
  8
0
 10
71.339552700519562
 20
205.00092942267671
 30
0.0
  0
VERTEX
  5
1AF40
  8
0
 10
70.339744389057145
 20
205.00130195170649
 30
0.0
  0
VERTEX
  5
1AF41
  8
0
 10
69.603071957826614
 20
205.00171359628439
 30
0.0
  0
VERTEX
  5
1AF42
  8
0
 10
69.151920676231384
 20
205.00215318053961
 30
0.0
  0
VERTEX
  5
1AF43
  8
0
 10
68.999999612569795
 20
205.00260580331101
 30
0.0
  0
SEQEND
  5
1AF44
  8
0
  0
LINE
  5
18243
  8
0
 10
78.999997526407469
 20
196.99999865144491
 30
0.0
 11
79.999999320134975
 21
196.99999865144491
 31
0.0
  0
LINE
  5
18244
  8
0
 10
83.999999975785613
 20
196.99999865144491
 30
0.0
 11
100.9999990370124
 21
196.99999865144491
 31
0.0
  0
LINE
  5
18245
  8
0
 10
104.9999992270025
 20
196.99999865144491
 30
0.0
 11
105.999998226762
 21
196.99999865144491
 31
0.0
  0
LINE
  5
18246
  8
0
 10
105.999998226762
 20
204.999998100102
 30
0.0
 11
78.999997526407469
 21
204.999998100102
 31
0.0
  0
POLYLINE
  5
18247
  8
0
 66
     1
 10
0.0
 20
0.0
 30
0.0
 70
   128
  0
VERTEX
  5
1AF45
  8
0
 10
105.999998226762
 20
196.99999865144491
 30
0.0
  0
VERTEX
  5
1AF46
  8
0
 10
107.736480133608
 20
197.00003869831559
 30
0.0
  0
VERTEX
  5
1AF47
  8
0
 10
109.42019970621929
 20
197.00015604496011
 30
0.0
  0
VERTEX
  5
1AF48
  8
0
 10
110.99999828962611
 20
197.00034789741039
 30
0.0
  0
VERTEX
  5
1AF49
  8
0
 10
112.4278744123876
 20
197.00060866773131
 30
0.0
  0
VERTEX
  5
1AF4A
  8
0
 10
113.6604428198188
 20
197.0009299740195
 30
0.0
  0
VERTEX
  5
1AF4B
  8
0
 10
114.6602522954345
 20
197.00130250304929
 30
0.0
  0
VERTEX
  5
1AF4C
  8
0
 10
115.39692472666501
 20
197.00171414762741
 30
0.0
  0
VERTEX
  5
1AF4D
  8
0
 10
115.84807600826019
 20
197.00215373188269
 30
0.0
  0
VERTEX
  5
1AF4E
  8
0
 10
115.9999984689057
 20
197.00260635465381
 30
0.0
  0
SEQEND
  5
1AF4F
  8
0
  0
POLYLINE
  5
18248
  8
0
 66
     1
 10
0.0
 20
0.0
 30
0.0
 70
   128
  0
VERTEX
  5
1AF50
  8
0
 10
115.9999984689057
 20
205.00260580331101
 30
0.0
  0
VERTEX
  5
1AF51
  8
0
 10
115.84807600826019
 20
205.00215318053961
 30
0.0
  0
VERTEX
  5
1AF52
  8
0
 10
115.39692472666501
 20
205.00171359628439
 30
0.0
  0
VERTEX
  5
1AF53
  8
0
 10
114.6602522954345
 20
205.00130195170649
 30
0.0
  0
VERTEX
  5
1AF54
  8
0
 10
113.6604428198188
 20
205.00092942267671
 30
0.0
  0
VERTEX
  5
1AF55
  8
0
 10
112.4278744123876
 20
205.0006090477109
 30
0.0
  0
VERTEX
  5
1AF56
  8
0
 10
110.99999828962611
 20
205.00034827739
 30
0.0
  0
VERTEX
  5
1AF57
  8
0
 10
109.42019970621929
 20
205.00015642493969
 30
0.0
  0
VERTEX
  5
1AF58
  8
0
 10
107.736480133608
 20
205.00003721565011
 30
0.0
  0
VERTEX
  5
1AF59
  8
0
 10
105.999998226762
 20
204.999998100102
 30
0.0
  0
SEQEND
  5
1AF5A
  8
0
  0
LINE
  5
18249
  8
0
 10
64.999998956918716
 20
201.02951478213069
 30
0.0
 11
64.999998956918716
 21
201.00260514765981
 31
0.0
  0
LINE
  5
1824A
  8
0
 10
119.99999865889551
 20
201.00260514765981
 30
0.0
 11
119.99999865889551
 21
201.02951478213069
 31
0.0
  0
LINE
  5
1824B
  8
0
 10
60.499997287988663
 20
193.0313491076231
 30
0.0
 11
76.998649516608566
 21
193.0313491076231
 31
0.0
  0
LINE
  5
1824C
  8
0
 10
84.481746833771453
 20
193.0313491076231
 30
0.0
 11
100.5182517133655
 21
193.0313491076231
 31
0.0
  0
LINE
  5
1824D
  8
0
 10
108.0013490305282
 20
193.0313491076231
 30
0.0
 11
124.4999984651806
 21
193.0313491076231
 31
0.0
  0
LINE
  5
1824E
  8
0
 10
124.4999984651806
 20
209.0313489362598
 30
0.0
 11
110.4999982949814
 21
209.0313489362598
 31
0.0
  0
LINE
  5
1824F
  8
0
 10
74.499999291050699
 20
209.03134893625989
 30
0.0
 11
60.499997287988663
 21
209.0313489362598
 31
0.0
  0
LINE
  5
18250
  8
0
 10
60.499997287988663
 20
209.0313489362598
 30
0.0
 11
60.0
 21
208.5313479229809
 31
0.0
  0
LINE
  5
18251
  8
0
 10
124.999998547137
 20
208.5313479229809
 30
0.0
 11
124.4999984651806
 21
209.0313489362598
 31
0.0
  0
LINE
  5
18252
  8
0
 10
60.0
 20
193.53134918957949
 30
0.0
 11
60.499997287988663
 21
193.0313491076231
 31
0.0
  0
LINE
  5
18253
  8
0
 10
124.4999984651806
 20
193.0313491076231
 30
0.0
 11
124.999998547137
 21
193.53134918957949
 31
0.0
  0
ARC
  5
18254
  8
0
 10
75.499998887578386
 20
210.86134731460831
 30
0.0
 40
1.0
 50
90.0
 51
180.0
  0
ARC
  5
18255
  8
0
 10
76.499998887578386
 20
210.86134731460831
 30
0.0
 40
1.0
 50
60.08923358244931
 51
90.0
  0
ARC
  5
18256
  8
0
 10
109.4999988875784
 20
210.86134731460831
 30
0.0
 40
1.0
 50
0.0
 51
90.0
  0
LINE
  5
18257
  8
0
 10
76.500000507630816
 20
211.86134766787299
 30
0.0
 11
75.499998481072893
 21
211.86134766787299
 31
0.0
  0
LINE
  5
18258
  8
0
 10
109.4999988736254
 20
211.86134766787299
 30
0.0
 11
108.50269832281811
 21
211.86134766787299
 31
0.0
  0
LINE
  5
18259
  8
0
 10
100.5182517133655
 20
209.86134734004739
 30
0.0
 11
84.481746833771453
 21
209.8613473400473
 31
0.0
  0
POLYLINE
  5
1825A
  8
0
 66
     1
 10
0.0
 20
0.0
 30
0.0
 70
   128
  0
VERTEX
  5
1AF5B
  8
0
 10
110.4999982949814
 20
205.3613307699562
 30
0.0
  0
VERTEX
  5
1AF5C
  8
0
 10
111.09226511558541
 20
205.70331800729039
 30
0.0
  0
VERTEX
  5
1AF5D
  8
0
 10
112.7499984018507
 20
206.66045125573879
 30
0.0
  0
SEQEND
  5
1AF5E
  8
0
  0
POLYLINE
  5
1825B
  8
0
 66
     1
 10
0.0
 20
0.0
 30
0.0
 70
   128
  0
VERTEX
  5
1AF5F
  8
0
 10
112.7499984018507
 20
206.66045125573879
 30
0.0
  0
VERTEX
  5
1AF60
  8
0
 10
114.3749984353781
 20
207.59860601276159
 30
0.0
  0
VERTEX
  5
1AF61
  8
0
 10
115.9999980032444
 20
208.5366881266236
 30
0.0
  0
SEQEND
  5
1AF62
  8
0
  0
LINE
  5
1825C
  8
0
 10
115.9999984689057
 20
208.5366881266236
 30
0.0
 11
115.9999984689057
 21
208.53521849960089
 31
0.0
  0
POLYLINE
  5
1825D
  8
0
 66
     1
 10
0.0
 20
0.0
 30
0.0
 70
   128
  0
VERTEX
  5
1AF63
  8
0
 10
112.7499984018507
 20
206.6586780175567
 30
0.0
  0
VERTEX
  5
1AF64
  8
0
 10
114.3749984353781
 20
207.596912868321
 30
0.0
  0
VERTEX
  5
1AF65
  8
0
 10
115.9999984689057
 20
208.53521849960089
 30
0.0
  0
SEQEND
  5
1AF66
  8
0
  0
POLYLINE
  5
1825E
  8
0
 66
     1
 10
0.0
 20
0.0
 30
0.0
 70
   128
  0
VERTEX
  5
1AF67
  8
0
 10
110.4999988917466
 20
205.35972365169451
 30
0.0
  0
VERTEX
  5
1AF68
  8
0
 10
111.09226511558541
 20
205.7016285881401
 30
0.0
  0
VERTEX
  5
1AF69
  8
0
 10
112.7499984018507
 20
206.6586780175567
 30
0.0
  0
SEQEND
  5
1AF6A
  8
0
  0
POLYLINE
  5
1825F
  8
0
 66
     1
 10
0.0
 20
0.0
 30
0.0
 70
   128
  0
VERTEX
  5
1AF6B
  8
0
 10
115.9999984689057
 20
208.53521849960089
 30
0.0
  0
VERTEX
  5
1AF6C
  8
0
 10
117.5922653079033
 20
207.6158131286503
 30
0.0
  0
VERTEX
  5
1AF6D
  8
0
 10
119.2499980702998
 20
206.6586780175567
 30
0.0
  0
SEQEND
  5
1AF6E
  8
0
  0
ARC
  5
18260
  8
0
 10
115.999998236075
 20
201.02951857069471
 30
0.0
 40
6.499995000048548
 50
59.999976241598389
 51
120.0000237584016
  0
POLYLINE
  5
18261
  8
0
 66
     1
 10
0.0
 20
0.0
 30
0.0
 70
   128
  0
VERTEX
  5
1AF6F
  8
0
 10
115.9999984689057
 20
208.5366881266236
 30
0.0
  0
VERTEX
  5
1AF70
  8
0
 10
117.5922653079033
 20
207.6175025478006
 30
0.0
  0
VERTEX
  5
1AF71
  8
0
 10
119.2499980702998
 20
206.66045125573879
 30
0.0
  0
SEQEND
  5
1AF72
  8
0
  0
POLYLINE
  5
18262
  8
0
 66
     1
 10
0.0
 20
0.0
 30
0.0
 70
   128
  0
VERTEX
  5
1AF73
  8
0
 10
119.2499980702998
 20
206.66045125573879
 30
0.0
  0
VERTEX
  5
1AF74
  8
0
 10
120.8749985694887
 20
205.7222182676197
 30
0.0
  0
VERTEX
  5
1AF75
  8
0
 10
122.49999813735511
 20
204.78391263633981
 30
0.0
  0
SEQEND
  5
1AF76
  8
0
  0
LINE
  5
18263
  8
0
 10
122.49999813735511
 20
204.78244114667191
 30
0.0
 11
122.49999813735511
 21
204.78391263633981
 31
0.0
  0
POLYLINE
  5
18264
  8
0
 66
     1
 10
0.0
 20
0.0
 30
0.0
 70
   128
  0
VERTEX
  5
1AF77
  8
0
 10
119.2499980702998
 20
206.6586780175567
 30
0.0
  0
VERTEX
  5
1AF78
  8
0
 10
120.8749985694887
 20
205.7205251231791
 30
0.0
  0
VERTEX
  5
1AF79
  8
0
 10
122.49999813735511
 20
204.78244114667191
 30
0.0
  0
SEQEND
  5
1AF7A
  8
0
  0
ARC
  5
18265
  8
0
 10
115.9999776240729
 20
201.0295345668446
 30
0.0
 40
6.4999708409784214
 50
119.9999369114222
 51
142.3458472611658
  0
ARC
  5
18266
  8
0
 10
116.0000016360059
 20
201.02951487419091
 30
0.0
 40
6.4999965013493011
 50
359.99999918851381
 51
60.000018487823752
  0
ARC
  5
18267
  8
0
 10
115.99999993611679
 20
201.02951287753501
 30
0.0
 40
6.499998201238526
 50
299.99999016323858
 51
0.0000167885117808
  0
ARC
  5
18268
  8
0
 10
115.999998236075
 20
201.02951651999169
 30
0.0
 40
6.5000022057194871
 50
240.00001291264721
 51
299.99998708735268
  0
ARC
  5
18269
  8
0
 10
115.99999631839231
 20
201.0295113963937
 30
0.0
 40
6.4999968097116723
 50
218.3069268798516
 51
240.0000049702563
  0
LINE
  5
1826A
  8
0
 10
122.49999813735511
 20
204.78244114667191
 30
0.0
 11
122.49999813735511
 21
201.02951478213069
 31
0.0
  0
POLYLINE
  5
1826B
  8
0
 66
     1
 10
0.0
 20
0.0
 30
0.0
 70
   128
  0
VERTEX
  5
1AF7B
  8
0
 10
112.7499984018507
 20
195.4003487527371
 30
0.0
  0
VERTEX
  5
1AF7C
  8
0
 10
111.1249982519077
 20
196.33858360350129
 30
0.0
  0
VERTEX
  5
1AF7D
  8
0
 10
109.9791385934477
 20
197.00022392310359
 30
0.0
  0
SEQEND
  5
1AF7E
  8
0
  0
POLYLINE
  5
1826C
  8
0
 66
     1
 10
0.0
 20
0.0
 30
0.0
 70
   128
  0
VERTEX
  5
1AF7F
  8
0
 10
122.49999813735511
 20
197.27688830345869
 30
0.0
  0
VERTEX
  5
1AF80
  8
0
 10
120.90773176401849
 20
196.35748293250811
 30
0.0
  0
VERTEX
  5
1AF81
  8
0
 10
119.2499980702998
 20
195.4003487527371
 30
0.0
  0
SEQEND
  5
1AF82
  8
0
  0
LINE
  5
1826D
  8
0
 10
122.49999813735511
 20
201.02951478213069
 30
0.0
 11
122.49999813735511
 21
197.27688830345869
 31
0.0
  0
POLYLINE
  5
1826E
  8
0
 66
     1
 10
0.0
 20
0.0
 30
0.0
 70
   128
  0
VERTEX
  5
1AF83
  8
0
 10
115.9999984689057
 20
193.52411188185209
 30
0.0
  0
VERTEX
  5
1AF84
  8
0
 10
114.4077316299083
 20
194.4432983919979
 30
0.0
  0
VERTEX
  5
1AF85
  8
0
 10
112.7499984018507
 20
195.4003487527371
 30
0.0
  0
SEQEND
  5
1AF86
  8
0
  0
POLYLINE
  5
1826F
  8
0
 66
     1
 10
0.0
 20
0.0
 30
0.0
 70
   128
  0
VERTEX
  5
1AF87
  8
0
 10
119.2499980702998
 20
195.4003487527371
 30
0.0
  0
VERTEX
  5
1AF88
  8
0
 10
117.6249985024335
 20
194.4621949270369
 30
0.0
  0
VERTEX
  5
1AF89
  8
0
 10
115.9999984689057
 20
193.52411188185209
 30
0.0
  0
SEQEND
  5
1AF8A
  8
0
  0
POLYLINE
  5
18270
  8
0
 66
     1
 10
0.0
 20
0.0
 30
0.0
 70
   128
  0
VERTEX
  5
1AF8B
  8
0
 10
62.499997615814202
 20
204.78391263633981
 30
0.0
  0
VERTEX
  5
1AF8C
  8
0
 10
64.092264920473085
 20
205.70331800729039
 30
0.0
  0
VERTEX
  5
1AF8D
  8
0
 10
65.749996751546846
 20
206.66045125573879
 30
0.0
  0
SEQEND
  5
1AF8E
  8
0
  0
POLYLINE
  5
18271
  8
0
 66
     1
 10
0.0
 20
0.0
 30
0.0
 70
   128
  0
VERTEX
  5
1AF8F
  8
0
 10
65.749996751546846
 20
206.66045125573879
 30
0.0
  0
VERTEX
  5
1AF90
  8
0
 10
67.374998182058334
 20
207.59860601276159
 30
0.0
  0
VERTEX
  5
1AF91
  8
0
 10
68.999999612569795
 20
208.5366881266236
 30
0.0
  0
SEQEND
  5
1AF92
  8
0
  0
LINE
  5
18272
  8
0
 10
68.999999612569795
 20
208.5366881266236
 30
0.0
 11
68.999999612569795
 21
208.53521849960089
 31
0.0
  0
POLYLINE
  5
18273
  8
0
 66
     1
 10
0.0
 20
0.0
 30
0.0
 70
   128
  0
VERTEX
  5
1AF93
  8
0
 10
65.749996751546846
 20
206.6586780175567
 30
0.0
  0
VERTEX
  5
1AF94
  8
0
 10
67.374998182058334
 20
207.596912868321
 30
0.0
  0
VERTEX
  5
1AF95
  8
0
 10
68.999999612569795
 20
208.53521849960089
 30
0.0
  0
SEQEND
  5
1AF96
  8
0
  0
POLYLINE
  5
18274
  8
0
 66
     1
 10
0.0
 20
0.0
 30
0.0
 70
   128
  0
VERTEX
  5
1AF97
  8
0
 10
62.499997615814202
 20
204.78244114667191
 30
0.0
  0
VERTEX
  5
1AF98
  8
0
 10
64.092264920473085
 20
205.7016285881401
 30
0.0
  0
VERTEX
  5
1AF99
  8
0
 10
65.749996751546846
 20
206.6586780175567
 30
0.0
  0
SEQEND
  5
1AF9A
  8
0
  0
POLYLINE
  5
18275
  8
0
 66
     1
 10
0.0
 20
0.0
 30
0.0
 70
   128
  0
VERTEX
  5
1AF9B
  8
0
 10
68.999999612569795
 20
208.53521849960089
 30
0.0
  0
VERTEX
  5
1AF9C
  8
0
 10
70.592266917228685
 20
207.6158131286503
 30
0.0
  0
VERTEX
  5
1AF9D
  8
0
 10
72.249998748302446
 20
206.6586780175567
 30
0.0
  0
SEQEND
  5
1AF9E
  8
0
  0
ARC
  5
18276
  8
0
 10
68.999997749924887
 20
201.0295144445144
 30
0.0
 40
6.4999991555016639
 50
59.999985540321802
 51
120.0000144596782
  0
POLYLINE
  5
18277
  8
0
 66
     1
 10
0.0
 20
0.0
 30
0.0
 70
   128
  0
VERTEX
  5
1AF9F
  8
0
 10
68.999999612569795
 20
208.5366881266236
 30
0.0
  0
VERTEX
  5
1AFA0
  8
0
 10
70.592266917228685
 20
207.6175025478006
 30
0.0
  0
VERTEX
  5
1AFA1
  8
0
 10
72.249998748302446
 20
206.66045125573879
 30
0.0
  0
SEQEND
  5
1AFA2
  8
0
  0
POLYLINE
  5
18278
  8
0
 66
     1
 10
0.0
 20
0.0
 30
0.0
 70
   128
  0
VERTEX
  5
1AFA3
  8
0
 10
72.249998748302446
 20
206.66045125573879
 30
0.0
  0
VERTEX
  5
1AFA4
  8
0
 10
73.874996453523636
 20
205.7222182676197
 30
0.0
  0
VERTEX
  5
1AFA5
  8
0
 10
74.500000100205398
 20
205.3613304711788
 30
0.0
  0
SEQEND
  5
1AFA6
  8
0
  0
POLYLINE
  5
18279
  8
0
 66
     1
 10
0.0
 20
0.0
 30
0.0
 70
   128
  0
VERTEX
  5
1AFA7
  8
0
 10
72.249998748302446
 20
206.6586780175567
 30
0.0
  0
VERTEX
  5
1AFA8
  8
0
 10
73.874996453523636
 20
205.7205251231791
 30
0.0
  0
VERTEX
  5
1AFA9
  8
0
 10
74.500000100559646
 20
205.35972300828129
 30
0.0
  0
SEQEND
  5
1AFAA
  8
0
  0
ARC
  5
1827A
  8
0
 10
69.000001396224889
 20
201.0295112093217
 30
0.0
 40
6.5000037804114337
 50
120.0000280360529
 51
179.9999685066519
  0
ARC
  5
1827B
  8
0
 10
69.000017119583845
 20
201.02953687285461
 30
0.0
 40
6.4999700471607129
 50
37.654132463382851
 51
60.000034554351359
  0
ARC
  5
1827C
  8
0
 10
69.000010020432455
 20
201.0294933463328
 30
0.0
 40
6.4999765835647541
 50
300.0000044386847
 51
321.69313504243922
  0
ARC
  5
1827D
  8
0
 10
68.999997749924887
 20
201.02952064617739
 30
0.0
 40
6.5000063611780039
 50
240.00002221135219
 51
299.99997778864793
  0
ARC
  5
1827E
  8
0
 10
69.000003096111641
 20
201.0295165424007
 30
0.0
 40
6.5000054802974994
 50
180.00001551630291
 51
239.99996331291061
  0
LINE
  5
1827F
  8
0
 10
62.499997615814202
 20
204.78244114667191
 30
0.0
 11
62.499997615814202
 21
201.02951478213069
 31
0.0
  0
POLYLINE
  5
18280
  8
0
 66
     1
 10
0.0
 20
0.0
 30
0.0
 70
   128
  0
VERTEX
  5
1AFAB
  8
0
 10
65.749996751546846
 20
195.4003487527371
 30
0.0
  0
VERTEX
  5
1AFAC
  8
0
 10
64.124999046325684
 20
196.33858360350129
 30
0.0
  0
VERTEX
  5
1AFAD
  8
0
 10
62.499997615814202
 20
197.27688830345869
 30
0.0
  0
SEQEND
  5
1AFAE
  8
0
  0
LINE
  5
18281
  8
0
 10
62.499997615814202
 20
201.02951478213069
 30
0.0
 11
62.499997615814202
 21
197.27688830345869
 31
0.0
  0
POLYLINE
  5
18282
  8
0
 66
     1
 10
0.0
 20
0.0
 30
0.0
 70
   128
  0
VERTEX
  5
1AFAF
  8
0
 10
75.020858147552175
 20
197.00022392313181
 30
0.0
  0
VERTEX
  5
1AFB0
  8
0
 10
73.907730579376221
 20
196.35748293250811
 30
0.0
  0
VERTEX
  5
1AFB1
  8
0
 10
72.249998748302446
 20
195.4003487527371
 30
0.0
  0
SEQEND
  5
1AFB2
  8
0
  0
POLYLINE
  5
18283
  8
0
 66
     1
 10
0.0
 20
0.0
 30
0.0
 70
   128
  0
VERTEX
  5
1AFB3
  8
0
 10
68.999999612569795
 20
193.52411188185209
 30
0.0
  0
VERTEX
  5
1AFB4
  8
0
 10
67.407732307910905
 20
194.4432983919979
 30
0.0
  0
VERTEX
  5
1AFB5
  8
0
 10
65.749996751546846
 20
195.4003487527371
 30
0.0
  0
SEQEND
  5
1AFB6
  8
0
  0
POLYLINE
  5
18284
  8
0
 66
     1
 10
0.0
 20
0.0
 30
0.0
 70
   128
  0
VERTEX
  5
1AFB7
  8
0
 10
72.249998748302446
 20
195.4003487527371
 30
0.0
  0
VERTEX
  5
1AFB8
  8
0
 10
70.624997317790985
 20
194.4621949270369
 30
0.0
  0
VERTEX
  5
1AFB9
  8
0
 10
68.999999612569795
 20
193.52411188185209
 30
0.0
  0
SEQEND
  5
1AFBA
  8
0
  0
ARC
  5
18287
  8
0
 10
84.73659941073538
 20
189.7365985471358
 30
0.0
 40
4.7365999999999531
 50
180.0
 51
270.0
  0
LINE
  5
18288
  8
0
 10
83.999999975785613
 20
198.9999989792706
 30
0.0
 11
83.999999975785613
 21
189.73659852519631
 31
0.0
  0
ARC
  5
18289
  8
0
 10
84.73659941073538
 20
189.7365985471358
 30
0.0
 40
0.7365999999999531
 50
180.0
 51
270.0
  0
LINE
  5
1828A
  8
0
 10
84.736599763855324
 20
188.99999873712659
 30
0.0
 11
100.2633992489429
 21
188.99999873712659
 31
0.0
  0
ARC
  5
1828B
  8
0
 10
100.2633994107354
 20
189.7365985471358
 30
0.0
 40
0.7366000000000668
 50
270.0
 51
0.0
  0
LINE
  5
1828C
  8
0
 10
100.9999990370124
 20
189.73659852519631
 30
0.0
 11
100.9999990370127
 21
198.9999989792706
 31
0.0
  0
LINE
  5
1828D
  8
0
 10
104.9999992270025
 20
198.9999989792706
 30
0.0
 11
104.99999922700221
 21
189.73659852519631
 31
0.0
  0
ARC
  5
1828E
  8
0
 10
100.2633994107354
 20
189.7365985471358
 30
0.0
 40
4.7365999999999531
 50
270.0
 51
0.0
  0
LINE
  5
1828F
  8
0
 10
100.2633992489429
 20
184.99999854713579
 30
0.0
 11
84.736599763855324
 21
184.99999854713579
 31
0.0
  0
LINE
  5
18290
  8
0
 10
79.999999320134748
 20
189.73659852519631
 30
0.0
 11
79.999999320134975
 21
198.9999989792706
 31
0.0
  0
LINE
  5
18297
  8
0
 10
83.999999975785613
 20
198.9999989792706
 30
0.0
 11
79.999999320134748
 21
198.9999989792706
 31
0.0
  0
LINE
  5
1829A
  8
0
 10
104.99999922700221
 20
198.9999989792706
 30
0.0
 11
100.9999990370124
 21
198.9999989792706
 31
0.0
  0
LINE
  5
1829D
  8
0
 10
79.999999320134748
 20
206.7332229390741
 30
0.0
 11
83.999999975785613
 21
206.7332229390741
 31
0.0
  0
LINE
  5
1829E
  8
0
 10
83.999999975785613
 20
212.9999994114041
 30
0.0
 11
79.999999320134748
 21
212.9999994114041
 31
0.0
  0
LINE
  5
1829F
  8
0
 10
83.999999975785613
 20
212.9999994114041
 30
0.0
 11
83.999999975785613
 21
204.999998100102
 31
0.0
  0
LINE
  5
182A0
  8
0
 10
79.999999320134748
 20
212.9999994114041
 30
0.0
 11
79.999999320134975
 21
204.999998100102
 31
0.0
  0
LINE
  5
182A1
  8
0
 10
104.99999922700221
 20
212.9999994114041
 30
0.0
 11
100.9999990370124
 21
212.9999994114041
 31
0.0
  0
LINE
  5
182A2
  8
0
 10
100.9999990370124
 20
206.7332229390741
 30
0.0
 11
104.99999922700221
 21
206.7332229390741
 31
0.0
  0
LINE
  5
182A3
  8
0
 10
104.99999922700221
 20
204.999998100102
 30
0.0
 11
104.99999922700221
 21
212.9999994114041
 31
0.0
  0
LINE
  5
182A4
  8
0
 10
100.9999990370127
 20
204.999998100102
 30
0.0
 11
100.9999990370124
 21
212.9999994114041
 31
0.0
  0
ARC
  5
182AD
  8
0
 10
68.99999622099358
 20
201.00260853923609
 30
0.0
 40
3.9999972640763581
 50
89.999951419216487
 51
180.00004858078671
  0
ARC
  5
182AE
  8
0
 10
68.999995287041202
 20
201.0026026847747
 30
0.0
 40
3.9999963301233001
 50
179.99996472173771
 51
270.00006195868542
  0
ARC
  5
182AF
  8
0
 10
115.9999985011066
 20
201.0026056455219
 30
0.0
 40
4.0000001577890618
 50
359.9999928686496
 51
90.000000461240475
  0
ARC
  5
182B0
  8
0
 10
115.99999943505981
 20
201.00260557848949
 30
0.0
 40
3.9999992238357658
 50
269.99998616085759
 51
359.9999938288193
  0
LINE
  5
182B1
  8
0
 10
60.499997287988663
 20
209.03134893625989
 30
0.0
 11
60.499997287988663
 21
193.0313491076231
 31
0.0
  0
LINE
  5
182B2
  8
0
 10
76.998649516608566
 20
195.73828194290411
 30
0.0
 11
72.835290282964706
 21
195.73828194290411
 31
0.0
  0
LINE
  5
182B3
  8
0
 10
65.164705216884613
 20
195.73828194290411
 30
0.0
 11
60.499997287988663
 21
195.73828194290411
 31
0.0
  0
LINE
  5
182B4
  8
0
 10
74.49999988855734
 20
206.32128592580551
 30
0.0
 11
72.837450951337814
 21
206.3212859258056
 31
0.0
  0
LINE
  5
182B5
  8
0
 10
65.162548273801804
 20
206.3212859258056
 30
0.0
 11
60.499997287988663
 21
206.3212859258056
 31
0.0
  0
LINE
  5
182B8
  8
0
 10
110.4999982949814
 20
206.3212859258056
 30
0.0
 11
112.1625471301379
 21
206.3212859258056
 31
0.0
  0
LINE
  5
182B9
  8
0
 10
119.8374493420126
 20
206.3212859258056
 30
0.0
 11
124.4999984651806
 21
206.3212859258056
 31
0.0
  0
LINE
  5
182BA
  8
0
 10
124.4999984651806
 20
195.73828194290411
 30
0.0
 11
119.8352896049619
 21
195.73828194290411
 31
0.0
  0
LINE
  5
182BB
  8
0
 10
112.1647061686963
 20
195.73828194290411
 30
0.0
 11
108.0013490305282
 21
195.73828194290411
 31
0.0
  0
LINE
  5
182BC
  8
0
 10
124.4999984651806
 20
193.0313491076231
 30
0.0
 11
124.49999846518079
 21
209.03134893625969
 31
0.0
  0
LINE
  5
182BE
  8
0
 10
60.499997287988663
 20
206.3212859258056
 30
0.0
 11
60.0
 21
206.12893428653479
 31
0.0
  0
LINE
  5
182C0
  8
0
 10
124.4999984651806
 20
206.3212859258056
 30
0.0
 11
124.999998547137
 21
206.12893428653479
 31
0.0
  0
LINE
  5
182C3
  8
0
 10
124.999998547137
 20
195.9308952838183
 30
0.0
 11
124.4999984651806
 21
195.73828194290411
 31
0.0
  0
LINE
  5
182C6
  8
0
 10
60.0
 20
195.9308952838183
 30
0.0
 11
60.499997287988663
 21
195.73828194290411
 31
0.0
  0
LINE
  5
182C7
  8
0
 10
60.0
 20
208.5313479229809
 30
0.0
 11
60.0
 21
193.53134918957949
 31
0.0
  0
LINE
  5
182C8
  8
0
 10
124.999998547137
 20
193.53134918957949
 30
0.0
 11
124.9999985471372
 21
208.53134792298081
 31
0.0
  0
LINE
  5
182C9
  8
0
 10
83.999999975785613
 20
195.8613510106226
 30
0.0
 11
84.481746833771453
 21
195.8613515645267
 31
0.0
  0
LINE
  5
182CA
  8
0
 10
81.981747355312336
 20
215.86134646087891
 30
0.0
 11
84.481746833771453
 21
215.86134646087891
 31
0.0
  0
LINE
  5
182CC
  8
0
 10
84.481746833771453
 20
204.999998100102
 30
0.0
 11
84.481746833771453
 21
218.39499089866879
 31
0.0
  0
LINE
  5
182CD
  8
0
 10
81.981747085899073
 20
218.3949913356771
 30
0.0
 11
81.98174735644011
 21
212.9999994114041
 31
0.0
  0
LINE
  5
182CE
  8
0
 10
103.01825165748591
 20
215.86134646087891
 30
0.0
 11
100.5182517133655
 21
215.861348323524
 31
0.0
  0
LINE
  5
182CF
  8
0
 10
103.01825165748591
 20
213.0224871262908
 30
0.0
 11
103.01825165748591
 21
218.39499089866879
 31
0.0
  0
LINE
  5
182D0
  8
0
 10
100.9999990370127
 20
195.86134877055889
 30
0.0
 11
100.5182517133655
 21
195.86134877055889
 31
0.0
  0
LINE
  5
182D1
  8
0
 10
100.5182517133655
 20
218.39499089866879
 30
0.0
 11
100.5182517133655
 21
204.999998100102
 31
0.0
  0
ARC
  5
182D9
  8
0
 10
84.481747085901134
 20
218.3949913356771
 30
0.0
 40
2.500000000001982
 50
90.0
 51
179.9999777540545
  0
ARC
  5
182DE
  8
0
 10
100.51825167740751
 20
218.3949913356771
 30
0.0
 40
2.50000000000255
 50
0.0000818525194286
 51
90.0
  0
LINE
  5
182E0
  8
0
 10
84.481746833771695
 20
218.39499089866879
 30
0.0
 11
100.5182517133655
 21
218.39499089866879
 31
0.0
  0
LINE
  5
182E3
  8
0
 10
84.481746833771695
 20
189.04549094045291
 30
0.0
 11
84.481746833771453
 21
196.99999865144491
 31
0.0
  0
LINE
  5
182E4
  8
0
 10
100.5182517133657
 20
196.99999865144491
 30
0.0
 11
100.5182517133655
 21
189.04549083928981
 31
0.0
  0
LINE
  5
182E6
  8
0
 10
80.998650172259644
 20
218.98976702243101
 30
0.0
 11
80.998650172259644
 21
213.0224871262908
 31
0.0
  0
LINE
  5
182E8
  8
0
 10
76.998649516608566
 20
218.98976702243101
 30
0.0
 11
76.998649516608566
 21
205.00003188872631
 31
0.0
  0
LINE
  5
182E9
  8
0
 10
108.0013490305282
 20
189.00999834761021
 30
0.0
 11
108.0013490305282
 21
197.00008153915411
 31
0.0
  0
LINE
  5
182EA
  8
0
 10
108.0013490305282
 20
205.00008191913381
 30
0.0
 11
108.0013490305284
 21
218.9897707477212
 31
0.0
  0
ARC
  5
182EB
  8
0
 10
103.99134897843081
 20
189.00999854713669
 30
0.0
 40
4.00999999999999
 50
270.0
 51
0.0000000000032569
  0
LINE
  5
182EC
  8
0
 10
81.00864885142073
 20
184.99999854713661
 30
0.0
 11
84.73659941073538
 21
184.99999854713661
 31
0.0
  0
LINE
  5
182ED
  8
0
 10
100.2633992489429
 20
184.99999854713579
 30
0.0
 11
103.9913491136394
 21
184.99999854713681
 31
0.0
  0
ARC
  5
182EE
  8
0
 10
81.008649595288475
 20
189.0099985471366
 30
0.0
 40
4.00999999999999
 50
180.0
 51
270.0
  0
LINE
  5
182EF
  8
0
 10
76.998649516608566
 20
197.00002845376741
 30
0.0
 11
76.998649516608566
 21
189.00999834761021
 31
0.0
  0
LINE
  5
182F0
  8
0
 10
104.00134918978441
 20
212.9999994114041
 30
0.0
 11
104.00134918978441
 21
218.9897707477212
 31
0.0
  0
LINE
  5
182F3
  8
0
 10
108.0013490305282
 20
218.9897707477212
 30
0.0
 11
104.00134918978441
 21
218.9897707477212
 31
0.0
  0
LINE
  5
182F6
  8
0
 10
80.998650172259644
 20
218.98976702243101
 30
0.0
 11
76.998649516608566
 21
218.98976702243101
 31
0.0
  0
LINE
  5
182F9
  8
0
 10
103.4999994467948
 20
212.9999994114041
 30
0.0
 11
103.49999923388521
 21
219.8949905116973
 31
0.0
  0
ARC
  5
182FA
  8
0
 10
102.49999923388521
 20
219.8949905116973
 30
0.0
 40
1.0
 50
0.0
 51
90.0
  0
LINE
  5
182FB
  8
0
 10
102.4999995157124
 20
220.89499178772621
 30
0.0
 11
82.499999031424849
 21
220.89499178772621
 31
0.0
  0
ARC
  5
182FC
  8
0
 10
82.499999233885205
 20
219.89499051169739
 30
0.0
 40
1.000000000000113
 50
90.0
 51
180.0
  0
LINE
  5
182FD
  8
0
 10
81.499999233885092
 20
219.89499051169739
 30
0.0
 11
81.49999910034262
 21
212.9999994114041
 31
0.0
  0
LINE
  5
18305
  8
0
 10
79.499998772517301
 20
222.00499091297391
 30
0.0
 11
79.499998772517301
 21
218.98976702243101
 31
0.0
  0
LINE
  5
18306
  8
0
 10
104.49999961070741
 20
223.0049929395318
 30
0.0
 11
80.499998936429847
 21
223.0049929395318
 31
0.0
  0
LINE
  5
18308
  8
0
 10
105.49999930895891
 20
222.00499091297391
 30
0.0
 11
105.49999930895891
 21
218.9897707477212
 31
0.0
  0
ARC
  5
1830B
  8
0
 10
80.499999466715948
 20
222.00499133567749
 30
0.0
 40
1.0
 50
89.999999999986969
 51
180.0
  0
ARC
  5
1830D
  8
0
 10
104.49999946671591
 20
222.00499133567749
 30
0.0
 40
1.0
 50
0.0
 51
90.0
  0
LINE
  5
18317
  8
0
 10
74.499998887578386
 20
210.8613470254669
 30
0.0
 11
74.500000179805284
 21
205.00029612332591
 31
0.0
  0
LINE
  5
18319
  8
0
 10
110.49999889201899
 20
205.0003017112613
 30
0.0
 11
110.4999988875784
 21
210.86134731560199
 31
0.0
  0
LINE
  5
1831C
  8
0
 10
540.00146571440735
 20
201.03663194924599
 30
0.0
 11
540.00146571440735
 21
201.03637117892509
 31
0.0
  0
LINE
  5
1831D
  8
0
 10
548.00146609438696
 20
201.03637117892509
 30
0.0
 11
548.00146609438696
 21
201.03663194924599
 31
0.0
  0
LINE
  5
18320
  8
0
 10
548.96579775477505
 20
209.0313489362598
 30
0.0
 11
535.50146590812255
 21
209.0313489362598
 31
0.0
  0
LINE
  5
18321
  8
0
 10
535.50146590812255
 20
193.0313491076231
 30
0.0
 11
552.00011668155105
 21
193.0313491076231
 31
0.0
  0
LINE
  5
18322
  8
0
 10
556.00011652229466
 20
193.0313491076231
 30
0.0
 11
556.98321387997044
 21
193.0313491076231
 31
0.0
  0
LINE
  5
18323
  8
0
 10
559.48321359126021
 20
193.0313491076231
 30
0.0
 11
575.51971847085383
 21
193.0313491076231
 31
0.0
  0
LINE
  5
18324
  8
0
 10
578.01971818214417
 20
193.0313491076231
 30
0.0
 11
579.00281553981949
 21
193.0313491076231
 31
0.0
  0
LINE
  5
18327
  8
0
 10
535.00146582616605
 20
193.53134918957949
 30
0.0
 11
535.50146590812255
 21
193.0313491076231
 31
0.0
  0
LINE
  5
18328
  8
0
 10
535.50146590812255
 20
209.0313489362598
 30
0.0
 11
535.00146582616605
 21
208.5313479229809
 31
0.0
  0
LINE
  5
1832D
  8
0
 10
537.5014662359481
 20
201.03637117892509
 30
0.0
 11
537.5014662359481
 21
201.03621471673259
 31
0.0
  0
ARC
  5
1833A
  8
0
 10
584.50146667939077
 20
210.86134731460831
 30
0.0
 40
1.0
 50
0.0
 51
90.0
  0
ARC
  5
1833B
  8
0
 10
583.50146667939089
 20
210.86134731460831
 30
0.0
 40
1.0
 50
90.0
 51
119.9107183504165
  0
ARC
  5
1833C
  8
0
 10
550.50146667939055
 20
210.86134731460831
 30
0.0
 40
1.0
 50
90.0
 51
100.14964363690871
  0
LINE
  5
1833D
  8
0
 10
584.50146708589625
 20
211.86134766787299
 30
0.0
 11
583.5014650593381
 21
211.86134766787299
 31
0.0
  0
LINE
  5
1833E
  8
0
 10
551.49876724415105
 20
211.86134766787299
 30
0.0
 11
550.50146669334356
 21
211.86134766787299
 31
0.0
  0
LINE
  5
1834B
  8
0
 10
535.50146590812255
 20
209.0313489362598
 30
0.0
 11
535.50146590812233
 21
193.03134910762341
 31
0.0
  0
LINE
  5
1834D
  8
0
 10
552.00011668155059
 20
195.74141118675479
 30
0.0
 11
547.83368670275559
 21
195.74141118675479
 31
0.0
  0
LINE
  5
1834E
  8
0
 10
540.16924533886959
 20
195.74141118675479
 30
0.0
 11
535.50146590812255
 21
195.74141118675479
 31
0.0
  0
LINE
  5
1834F
  8
0
 10
535.50146590812255
 20
206.32441516965631
 30
0.0
 11
540.16089882595588
 21
206.32441516965631
 31
0.0
  0
LINE
  5
18350
  8
0
 10
547.84203344849959
 20
206.32441516965631
 30
0.0
 11
552.00011668155094
 21
206.32441516965631
 31
0.0
  0
LINE
  5
18354
  8
0
 10
535.00146582616605
 20
195.9337637573482
 30
0.0
 11
535.50146590812255
 21
195.74141118675479
 31
0.0
  0
LINE
  5
1835A
  8
0
 10
535.00146582616605
 20
206.1318027600646
 30
0.0
 11
535.50146590812255
 21
206.32441516965631
 31
0.0
  0
LINE
  5
1835B
  8
0
 10
535.00146582616605
 20
208.5313479229809
 30
0.0
 11
535.00146582616605
 21
193.53134918957949
 31
0.0
  0
LINE
  5
1835D
  8
0
 10
578.01971818214417
 20
188.99999873712659
 30
0.0
 11
578.01971818214395
 21
207.26660627871769
 31
0.0
  0
LINE
  5
1835E
  8
0
 10
575.51971870368436
 20
207.26660627871769
 30
0.0
 11
575.51971870368436
 21
188.99999873712659
 31
0.0
  0
LINE
  5
1835F
  8
0
 10
556.98321387997021
 20
207.26660627871769
 30
0.0
 11
556.98321387997044
 21
188.99999873712659
 31
0.0
  0
LINE
  5
18360
  8
0
 10
559.48321382409063
 20
188.99999873712659
 30
0.0
 11
559.48321382409085
 21
207.26660627871769
 31
0.0
  0
LINE
  5
18368
  8
0
 10
556.98321387997021
 20
196.37677062302839
 30
0.0
 11
559.48321382409085
 21
196.37677062302839
 31
0.0
  0
CIRCLE
  5
1838A
  8
0
 10
544.00146668767809
 20
201.03637073028619
 30
0.0
 40
6.50000000744632
  0
LINE
  5
1838C
  8
0
 10
550.50146609671515
 20
197.28179078549161
 30
0.0
 11
550.50146609671515
 21
197.2834382951259
 31
0.0
  0
POLYLINE
  5
1838D
  8
0
 66
     1
 10
0.0
 20
0.0
 30
0.0
 70
   128
  0
VERTEX
  5
1AFBB
  8
0
 10
550.50146609671515
 20
197.28179078549161
 30
0.0
  0
VERTEX
  5
1AFBC
  8
0
 10
548.90919925771766
 20
196.36238541454071
 30
0.0
  0
VERTEX
  5
1AFBD
  8
0
 10
547.25146597145249
 20
195.40525123476979
 30
0.0
  0
SEQEND
  5
1AFBE
  8
0
  0
POLYLINE
  5
1838E
  8
0
 66
     1
 10
0.0
 20
0.0
 30
0.0
 70
   128
  0
VERTEX
  5
1AFBF
  8
0
 10
547.25146597145249
 20
195.40525123476979
 30
0.0
  0
VERTEX
  5
1AFC0
  8
0
 10
545.62646593792465
 20
194.46709647774711
 30
0.0
  0
VERTEX
  5
1AFC1
  8
0
 10
544.00146590439715
 20
193.52901436388501
 30
0.0
  0
SEQEND
  5
1AFC2
  8
0
  0
LINE
  5
1838F
  8
0
 10
544.00146590439715
 20
193.52901436388501
 30
0.0
 11
544.00146590439715
 21
193.53066187351939
 31
0.0
  0
LINE
  5
18390
  8
0
 10
547.25146597145249
 20
195.40704961866149
 30
0.0
 11
544.00146590439715
 21
193.53066187351939
 31
0.0
  0
LINE
  5
18391
  8
0
 10
550.50146609671515
 20
197.2834382951259
 30
0.0
 11
547.25146597145249
 21
195.40704961866149
 31
0.0
  0
LINE
  5
18392
  8
0
 10
544.00146590439715
 20
193.53066187351939
 30
0.0
 11
540.75146630300333
 21
195.40704961866149
 31
0.0
  0
POLYLINE
  5
18393
  8
0
 66
     1
 10
0.0
 20
0.0
 30
0.0
 70
   128
  0
VERTEX
  5
1AFC3
  8
0
 10
544.00146590439715
 20
193.52901436388501
 30
0.0
  0
VERTEX
  5
1AFC4
  8
0
 10
542.40919906539943
 20
194.4481999427081
 30
0.0
  0
VERTEX
  5
1AFC5
  8
0
 10
540.75146630300333
 20
195.40525123476979
 30
0.0
  0
SEQEND
  5
1AFC6
  8
0
  0
POLYLINE
  5
18394
  8
0
 66
     1
 10
0.0
 20
0.0
 30
0.0
 70
   128
  0
VERTEX
  5
1AFC7
  8
0
 10
540.75146630300333
 20
195.40525123476979
 30
0.0
  0
VERTEX
  5
1AFC8
  8
0
 10
539.12646580381443
 20
196.34348515421161
 30
0.0
  0
VERTEX
  5
1AFC9
  8
0
 10
537.5014662359481
 20
197.28179078549161
 30
0.0
  0
SEQEND
  5
1AFCA
  8
0
  0
LINE
  5
18395
  8
0
 10
537.5014662359481
 20
197.28179078549161
 30
0.0
 11
537.5014662359481
 21
197.2834382951259
 31
0.0
  0
LINE
  5
18396
  8
0
 10
540.75146630300333
 20
195.40704961866149
 30
0.0
 11
537.5014662359481
 21
197.2834382951259
 31
0.0
  0
LINE
  5
18397
  8
0
 10
550.50146609671515
 20
201.03621471673259
 30
0.0
 11
550.50146609671515
 21
197.2834382951259
 31
0.0
  0
LINE
  5
18398
  8
0
 10
537.5014662359481
 20
197.2834382951259
 30
0.0
 11
537.5014662359481
 21
201.03621471673259
 31
0.0
  0
LINE
  5
18399
  8
0
 10
550.50146609671515
 20
204.78899206966159
 30
0.0
 11
547.28774308120956
 21
206.64443437010061
 31
0.0
  0
LINE
  5
1839A
  8
0
 10
550.50146609671515
 20
204.78899206966159
 30
0.0
 11
550.50146609671515
 21
201.03637117892509
 31
0.0
  0
LINE
  5
1839B
  8
0
 10
537.5014662359481
 20
204.78899206966159
 30
0.0
 11
540.7151894260769
 21
206.64443437010061
 31
0.0
  0
LINE
  5
1839C
  8
0
 10
537.5014662359481
 20
201.03637117892509
 30
0.0
 11
537.5014662359481
 21
204.78899206966159
 31
0.0
  0
LINE
  5
1839D
  8
0
 10
547.21505358709135
 20
206.686403490603
 30
0.0
 11
544.00146590439715
 21
208.54176755994561
 31
0.0
  0
LINE
  5
1839E
  8
0
 10
540.78787822170284
 20
206.686403490603
 30
0.0
 11
544.00146590439715
 21
208.54176755994561
 31
0.0
  0
ARC
  5
1839F
  8
0
 10
556.01011673364815
 20
189.00999854713669
 30
0.0
 40
4.0100000000000167
 50
179.99997959228119
 51
270.00000000001302
  0
LINE
  5
183A0
  8
0
 10
552.00011668155059
 20
218.9897707477212
 30
0.0
 11
552.00011668155082
 21
211.36119542226081
 31
0.0
  0
LINE
  5
183A3
  8
0
 10
556.00011652229466
 20
188.99999873712659
 30
0.0
 11
579.00281553981915
 21
188.99999873712659
 31
0.0
  0
LINE
  5
183A6
  8
0
 10
556.01011659843971
 20
184.99999854713681
 30
0.0
 11
578.99281686065808
 21
184.99999854713681
 31
0.0
  0
ARC
  5
183A7
  8
0
 10
578.99281611679055
 20
189.0099985471366
 30
0.0
 40
4.0100000000001206
 50
270.0
 51
358.23522551151558
  0
LINE
  5
183A9
  8
0
 10
583.00281619547025
 20
189.00999834761021
 30
0.0
 11
583.00091257212785
 21
188.88650567270821
 31
0.0
  0
LINE
  5
183B4
  8
0
 10
583.00281619547025
 20
211.36133547872311
 30
0.0
 11
580.50146594187186
 21
211.36133547872311
 31
0.0
  0
LINE
  5
183BA
  8
0
 10
583.00281619547025
 20
218.98976702243101
 30
0.0
 11
580.50146636490115
 21
218.98976702243101
 31
0.0
  0
LINE
  5
183BC
  8
0
 10
554.50146599566676
 20
218.9897707477212
 30
0.0
 11
552.00011668155094
 21
218.9897707477212
 31
0.0
  0
LINE
  5
183BE
  8
0
 10
580.50146594187208
 20
211.3613392040134
 30
0.0
 11
583.00281619547025
 21
211.3613392040134
 31
0.0
  0
LINE
  5
183C8
  8
0
 10
579.00281553981949
 20
188.99999873712659
 30
0.0
 11
579.00281553981949
 21
207.2666062787176
 31
0.0
  0
LINE
  5
183CA
  8
0
 10
556.00011652229466
 20
207.2666062787176
 30
0.0
 11
556.00011652229466
 21
188.99999873712659
 31
0.0
  0
LINE
  5
183E3
  8
0
 10
585.50146538716399
 20
209.0313489362598
 30
0.0
 11
585.50146667939077
 21
210.86134731460831
 31
0.0
  0
LINE
  5
183E5
  8
0
 10
219.000000394881
 20
78.999997526407242
 30
0.0
 11
219.000000394881
 21
79.999999320134521
 31
0.0
  0
LINE
  5
183E6
  8
0
 10
219.000000394881
 20
88.369321539549276
 30
0.0
 11
219.000000394881
 21
96.630677110998079
 31
0.0
  0
LINE
  5
183E7
  8
0
 10
219.000000394881
 20
104.99999922700221
 30
0.0
 11
219.000000394881
 21
105.9999982267618
 31
0.0
  0
LINE
  5
183E8
  8
0
 10
211.00000094622399
 20
105.9999982267618
 30
0.0
 11
211.00000094622399
 21
104.99999922700221
 31
0.0
  0
LINE
  5
183E9
  8
0
 10
211.00000094622399
 20
79.999999320134521
 30
0.0
 11
211.00000094622399
 21
78.999997526407242
 31
0.0
  0
ARC
  5
183EA
  8
0
 10
224.9999997212233
 20
105.99999988389609
 30
0.0
 40
13.99999877499941
 50
89.999998935323305
 51
180.00000678191549
  0
ARC
  5
183EB
  8
0
 10
224.99999986753119
 20
105.99999880626559
 30
0.0
 40
5.9999994726503294
 50
89.999998912889865
 51
180.00000553385331
  0
ARC
  5
183EC
  8
0
 10
224.99999769856589
 20
78.999995709260645
 30
0.0
 40
13.999996752342209
 50
179.99999256322519
 51
270.00000934252648
  0
ARC
  5
183ED
  8
0
 10
225.00000244939409
 20
78.999998597443209
 30
0.0
 40
6.000002054513156
 50
180.00001022763789
 51
269.99997643215528
  0
LINE
  5
183EF
  8
0
 10
327.16281905965479
 20
119.99999865889539
 30
0.0
 11
224.9999999813738
 21
119.99999865889539
 31
0.0
  0
LINE
  5
183F0
  8
0
 10
224.9999999813738
 20
111.9999982789158
 30
0.0
 11
327.1628190597819
 21
111.9999982789158
 31
0.0
  0
LINE
  5
183F3
  8
0
 10
327.16281906006731
 20
72.999996542930603
 30
0.0
 11
224.9999999813738
 21
72.999996542930603
 31
0.0
  0
LINE
  5
183F4
  8
0
 10
224.9999999813738
 20
64.99999895691866
 30
0.0
 11
327.16281906006731
 21
64.99999895691866
 31
0.0
  0
LINE
  5
183FA
  8
0
 10
352.86245897306247
 20
62.499997615814202
 30
0.0
 11
353.46148565305521
 21
62.499997615814202
 31
0.0
  0
LINE
  5
183FB
  8
0
 10
353.46148565305521
 20
75.49999788403511
 30
0.0
 11
352.86245897306247
 21
75.49999788403511
 31
0.0
  0
LINE
  5
183FC
  8
0
 10
352.86245897306247
 20
109.4999982765876
 30
0.0
 11
353.46148565305521
 21
109.4999982765876
 31
0.0
  0
LINE
  5
183FD
  8
0
 10
353.46148565305521
 20
122.49999813735479
 30
0.0
 11
352.86245897306247
 21
122.49999813735479
 31
0.0
  0
ARC
  5
183FF
  8
0
 10
313.96148501291123
 20
74.998649886326774
 30
0.0
 40
1.0000000000002269
 50
270.0
 51
0.0
  0
ARC
  5
18400
  8
0
 10
303.96148501291123
 20
74.998649886326774
 30
0.0
 40
1.0
 50
180.0
 51
270.0
  0
ARC
  5
18401
  8
0
 10
303.96148501291123
 20
75.998649886326774
 30
0.0
 40
1.0
 50
90.0
 51
180.0
  0
ARC
  5
18402
  8
0
 10
313.96148501291123
 20
75.998649886326774
 30
0.0
 40
1.0000000000002269
 50
0.0
 51
90.0
  0
ARC
  5
18403
  8
0
 10
303.96148501291123
 20
108.9986498863267
 30
0.0
 40
1.0
 50
90.0
 51
180.0
  0
ARC
  5
18404
  8
0
 10
313.96148501291123
 20
108.9986498863267
 30
0.0
 40
1.0
 50
0.0
 51
90.0
  0
LINE
  5
18405
  8
0
 10
302.96148762000848
 20
75.998651506379275
 30
0.0
 11
302.96148762000848
 21
74.998649479821353
 31
0.0
  0
LINE
  5
18406
  8
0
 10
314.96148213638122
 20
74.998649479821353
 30
0.0
 11
314.96148213638122
 21
75.998651506379275
 31
0.0
  0
LINE
  5
18407
  8
0
 10
302.96148762000848
 20
108.9986498723738
 30
0.0
 11
302.96148762000848
 21
108.00134932156649
 31
0.0
  0
LINE
  5
18408
  8
0
 10
314.96148213638122
 20
108.00134932156649
 30
0.0
 11
314.96148213638122
 21
108.9986498723738
 31
0.0
  0
POLYLINE
  5
18409
  8
0
 66
     1
 10
0.0
 20
0.0
 30
0.0
 70
   128
  0
VERTEX
  5
1AFCB
  8
0
 10
327.74400368226787
 20
115.9999984689056
 30
0.0
  0
VERTEX
  5
1AFCC
  8
0
 10
327.32254668964202
 20
114.4077316299081
 30
0.0
  0
VERTEX
  5
1AFCD
  8
0
 10
327.16295525325592
 20
112.74999840185041
 30
0.0
  0
SEQEND
  5
1AFCE
  8
0
  0
POLYLINE
  5
1840A
  8
0
 66
     1
 10
0.0
 20
0.0
 30
0.0
 70
   128
  0
VERTEX
  5
1AFCF
  8
0
 10
327.16295525325592
 20
119.2499980702996
 30
0.0
  0
VERTEX
  5
1AFD0
  8
0
 10
327.16305211080339
 20
118.4874404594302
 30
0.0
  0
VERTEX
  5
1AFD1
  8
0
 10
327.16312661660942
 20
117.6823218725622
 30
0.0
  0
VERTEX
  5
1AFD2
  8
0
 10
327.1631638695124
 20
116.84841843321919
 30
0.0
  0
VERTEX
  5
1AFD3
  8
0
 10
327.16317877067382
 20
115.9999984689056
 30
0.0
  0
VERTEX
  5
1AFD4
  8
0
 10
327.1631638695124
 20
115.15157803893089
 30
0.0
  0
VERTEX
  5
1AFD5
  8
0
 10
327.16312661660942
 20
114.3176745995879
 30
0.0
  0
VERTEX
  5
1AFD6
  8
0
 10
327.16305211080339
 20
113.5125560127199
 30
0.0
  0
VERTEX
  5
1AFD7
  8
0
 10
327.16295525325592
 20
112.74999840185041
 30
0.0
  0
SEQEND
  5
1AFD8
  8
0
  0
POLYLINE
  5
1840B
  8
0
 66
     1
 10
0.0
 20
0.0
 30
0.0
 70
   128
  0
VERTEX
  5
1AFD9
  8
0
 10
327.16295525325592
 20
119.2499980702996
 30
0.0
  0
VERTEX
  5
1AFDA
  8
0
 10
327.31643721355249
 20
117.6249985024333
 30
0.0
  0
VERTEX
  5
1AFDB
  8
0
 10
327.74400368226787
 20
115.9999984689056
 30
0.0
  0
SEQEND
  5
1AFDC
  8
0
  0
LINE
  5
1840C
  8
0
 10
327.74302020562942
 20
122.49999813735479
 30
0.0
 11
333.3819101740246
 21
122.49999813735479
 31
0.0
  0
POLYLINE
  5
1840D
  8
0
 66
     1
 10
0.0
 20
0.0
 30
0.0
 70
   128
  0
VERTEX
  5
1AFDD
  8
0
 10
333.3819101740246
 20
122.49999813735479
 30
0.0
  0
VERTEX
  5
1AFDE
  8
0
 10
333.80335971607019
 20
120.90773176401849
 30
0.0
  0
VERTEX
  5
1AFDF
  8
0
 10
333.9629511524563
 20
119.2499980702996
 30
0.0
  0
SEQEND
  5
1AFE0
  8
0
  0
POLYLINE
  5
1840E
  8
0
 66
     1
 10
0.0
 20
0.0
 30
0.0
 70
   128
  0
VERTEX
  5
1AFE1
  8
0
 10
333.9629511524563
 20
119.2499980702996
 30
0.0
  0
VERTEX
  5
1AFE2
  8
0
 10
333.80996093047912
 20
117.6249985024333
 30
0.0
  0
VERTEX
  5
1AFE3
  8
0
 10
333.38288620008279
 20
115.9999984689056
 30
0.0
  0
SEQEND
  5
1AFE4
  8
0
  0
LINE
  5
1840F
  8
0
 10
327.74400368226787
 20
115.9999984689056
 30
0.0
 11
333.38288620008279
 21
115.9999984689056
 31
0.0
  0
POLYLINE
  5
18410
  8
0
 66
     1
 10
0.0
 20
0.0
 30
0.0
 70
   128
  0
VERTEX
  5
1AFE5
  8
0
 10
327.74302020562942
 20
122.49999813735479
 30
0.0
  0
VERTEX
  5
1AFE6
  8
0
 10
327.3220475007418
 20
120.90773176401849
 30
0.0
  0
VERTEX
  5
1AFE7
  8
0
 10
327.16295525325592
 20
119.2499980702996
 30
0.0
  0
SEQEND
  5
1AFE8
  8
0
  0
POLYLINE
  5
18411
  8
0
 66
     1
 10
0.0
 20
0.0
 30
0.0
 70
   128
  0
VERTEX
  5
1AFE9
  8
0
 10
333.38288620008279
 20
115.9999984689056
 30
0.0
  0
VERTEX
  5
1AFEA
  8
0
 10
333.80385890497001
 20
114.4077316299081
 30
0.0
  0
VERTEX
  5
1AFEB
  8
0
 10
333.9629511524563
 20
112.74999840185041
 30
0.0
  0
SEQEND
  5
1AFEC
  8
0
  0
POLYLINE
  5
18412
  8
0
 66
     1
 10
0.0
 20
0.0
 30
0.0
 70
   128
  0
VERTEX
  5
1AFED
  8
0
 10
333.9629511524563
 20
112.74999840185041
 30
0.0
  0
VERTEX
  5
1AFEE
  8
0
 10
333.80946919215972
 20
111.1249982519075
 30
0.0
  0
VERTEX
  5
1AFEF
  8
0
 10
333.3819101740246
 20
109.4999982765876
 30
0.0
  0
SEQEND
  5
1AFF0
  8
0
  0
LINE
  5
18413
  8
0
 10
327.74302020562942
 20
109.4999982765876
 30
0.0
 11
333.3819101740246
 21
109.4999982765876
 31
0.0
  0
POLYLINE
  5
18414
  8
0
 66
     1
 10
0.0
 20
0.0
 30
0.0
 70
   128
  0
VERTEX
  5
1AFF1
  8
0
 10
327.16295525325592
 20
112.74999840185041
 30
0.0
  0
VERTEX
  5
1AFF2
  8
0
 10
327.31594547523309
 20
111.1249982519075
 30
0.0
  0
VERTEX
  5
1AFF3
  8
0
 10
327.74302020562942
 20
109.4999982765876
 30
0.0
  0
SEQEND
  5
1AFF4
  8
0
  0
POLYLINE
  5
18416
  8
0
 66
     1
 10
0.0
 20
0.0
 30
0.0
 70
   128
  0
VERTEX
  5
1AFF5
  8
0
 10
327.16148748887798
 20
119.99999865889539
 30
0.0
  0
VERTEX
  5
1AFF6
  8
0
 10
327.16177806152132
 20
119.8379699513316
 30
0.0
  0
VERTEX
  5
1AFF7
  8
0
 10
327.16205373300357
 20
119.3650126829743
 30
0.0
  0
VERTEX
  5
1AFF8
  8
0
 10
327.16227725042148
 20
118.6194414645433
 30
0.0
  0
VERTEX
  5
1AFF9
  8
0
 10
327.16243371261407
 20
117.6616581529379
 30
0.0
  0
VERTEX
  5
1AFFA
  8
0
 10
327.16251566900058
 20
116.5692577511071
 30
0.0
  0
VERTEX
  5
1AFFB
  8
0
 10
327.16251566900058
 20
115.4307387210429
 30
0.0
  0
VERTEX
  5
1AFFC
  8
0
 10
327.16243371261407
 20
114.3383383192122
 30
0.0
  0
VERTEX
  5
1AFFD
  8
0
 10
327.16227725042148
 20
113.3805552404374
 30
0.0
  0
VERTEX
  5
1AFFE
  8
0
 10
327.16205373300357
 20
112.63498425483699
 30
0.0
  0
VERTEX
  5
1AFFF
  8
0
 10
327.16177806152132
 20
112.1620262879877
 30
0.0
  0
VERTEX
  5
1B000
  8
0
 10
327.16148748887798
 20
111.9999982789158
 30
0.0
  0
VERTEX
  5
1B001
  8
0
 10
327.16148748887798
 20
111.9999982789158
 30
0.0
  0
SEQEND
  5
1B002
  8
0
  0
POLYLINE
  5
18417
  8
0
 66
     1
 10
0.0
 20
0.0
 30
0.0
 70
   128
  0
VERTEX
  5
1B003
  8
0
 10
327.16148748887798
 20
109.4999982765876
 30
0.0
  0
VERTEX
  5
1B004
  8
0
 10
327.16126397146007
 20
109.5556066744029
 30
0.0
  0
VERTEX
  5
1B005
  8
0
 10
327.1610479046231
 20
109.7214804054238
 30
0.0
  0
VERTEX
  5
1B006
  8
0
 10
327.16083928836628
 20
109.9947813223115
 30
0.0
  0
VERTEX
  5
1B007
  8
0
 10
327.16063812269022
 20
110.3708331671078
 30
0.0
  0
VERTEX
  5
1B008
  8
0
 10
327.16045185817529
 20
110.84320157766339
 30
0.0
  0
VERTEX
  5
1B009
  8
0
 10
327.16028794540188
 20
111.4038042165339
 30
0.0
  0
VERTEX
  5
1B00A
  8
0
 10
327.16015383495142
 20
111.9999982789158
 30
0.0
  0
SEQEND
  5
1B00B
  8
0
  0
POLYLINE
  5
18418
  8
0
 66
     1
 10
0.0
 20
0.0
 30
0.0
 70
   128
  0
VERTEX
  5
1B00C
  8
0
 10
327.16015383495142
 20
119.99999865889539
 30
0.0
  0
VERTEX
  5
1B00D
  8
0
 10
327.16028794540188
 20
120.5961922556162
 30
0.0
  0
VERTEX
  5
1B00E
  8
0
 10
327.16045185817529
 20
121.1567953601479
 30
0.0
  0
VERTEX
  5
1B00F
  8
0
 10
327.16063812269022
 20
121.6291631013155
 30
0.0
  0
VERTEX
  5
1B010
  8
0
 10
327.16083928836628
 20
122.0052153244614
 30
0.0
  0
VERTEX
  5
1B011
  8
0
 10
327.1610479046231
 20
122.2785165905952
 30
0.0
  0
VERTEX
  5
1B012
  8
0
 10
327.16126397146007
 20
122.44438979774699
 30
0.0
  0
VERTEX
  5
1B013
  8
0
 10
327.16148748887798
 20
122.49999813735479
 30
0.0
  0
SEQEND
  5
1B014
  8
0
  0
POLYLINE
  5
18419
  8
0
 66
     1
 10
0.0
 20
0.0
 30
0.0
 70
   128
  0
VERTEX
  5
1B015
  8
0
 10
327.16148748887798
 20
122.49999813735479
 30
0.0
  0
VERTEX
  5
1B016
  8
0
 10
327.161711006296
 20
122.44438979774699
 30
0.0
  0
VERTEX
  5
1B017
  8
0
 10
327.16192707313331
 20
122.2785165905952
 30
0.0
  0
VERTEX
  5
1B018
  8
0
 10
327.1621356893902
 20
122.0052153244614
 30
0.0
  0
VERTEX
  5
1B019
  8
0
 10
327.16233685506609
 20
121.6291631013155
 30
0.0
  0
VERTEX
  5
1B01A
  8
0
 10
327.16251566900058
 20
121.1567953601479
 30
0.0
  0
VERTEX
  5
1B01B
  8
0
 10
327.16268703235443
 20
120.5961922556162
 30
0.0
  0
VERTEX
  5
1B01C
  8
0
 10
327.16282859338548
 20
119.9569473415613
 30
0.0
  0
VERTEX
  5
1B01D
  8
0
 10
327.16295525325592
 20
119.2499980702996
 30
0.0
  0
SEQEND
  5
1B01E
  8
0
  0
POLYLINE
  5
1841A
  8
0
 66
     1
 10
0.0
 20
0.0
 30
0.0
 70
   128
  0
VERTEX
  5
1B01F
  8
0
 10
327.16295525325592
 20
112.74999840185041
 30
0.0
  0
VERTEX
  5
1B020
  8
0
 10
327.16282859338548
 20
112.04304901417341
 30
0.0
  0
VERTEX
  5
1B021
  8
0
 10
327.16268703235443
 20
111.4038042165339
 30
0.0
  0
VERTEX
  5
1B022
  8
0
 10
327.16251566900058
 20
110.84320157766339
 30
0.0
  0
VERTEX
  5
1B023
  8
0
 10
327.16233685506609
 20
110.3708331671078
 30
0.0
  0
VERTEX
  5
1B024
  8
0
 10
327.1621356893902
 20
109.9947813223115
 30
0.0
  0
VERTEX
  5
1B025
  8
0
 10
327.16192707313331
 20
109.7214804054238
 30
0.0
  0
VERTEX
  5
1B026
  8
0
 10
327.161711006296
 20
109.5556066744029
 30
0.0
  0
VERTEX
  5
1B027
  8
0
 10
327.16148748887798
 20
109.4999982765876
 30
0.0
  0
SEQEND
  5
1B028
  8
0
  0
LINE
  5
1841B
  8
0
 10
327.16148748887798
 20
109.4999982765876
 30
0.0
 11
327.74302020562942
 21
109.4999982765876
 31
0.0
  0
LINE
  5
1841C
  8
0
 10
327.16148748887798
 20
122.49999813735479
 30
0.0
 11
327.74302020562942
 21
122.49999813735479
 31
0.0
  0
LINE
  5
1841D
  8
0
 10
333.96148338807848
 20
122.49999813735479
 30
0.0
 11
333.3819101740246
 21
122.49999813735479
 31
0.0
  0
LINE
  5
1841F
  8
0
 10
333.3819101740246
 20
109.4999982765876
 30
0.0
 11
333.96148338807848
 21
109.4999982765876
 31
0.0
  0
POLYLINE
  5
18421
  8
0
 66
     1
 10
0.0
 20
0.0
 30
0.0
 70
   128
  0
VERTEX
  5
1B029
  8
0
 10
327.74400368226787
 20
68.999999612569795
 30
0.0
  0
VERTEX
  5
1B02A
  8
0
 10
327.32254668964202
 20
67.407732307910905
 30
0.0
  0
VERTEX
  5
1B02B
  8
0
 10
327.16295525325592
 20
65.749996751546846
 30
0.0
  0
SEQEND
  5
1B02C
  8
0
  0
POLYLINE
  5
18422
  8
0
 66
     1
 10
0.0
 20
0.0
 30
0.0
 70
   128
  0
VERTEX
  5
1B02D
  8
0
 10
327.16295525325592
 20
72.249998748302446
 30
0.0
  0
VERTEX
  5
1B02E
  8
0
 10
327.16305211080339
 20
71.487439274787903
 30
0.0
  0
VERTEX
  5
1B02F
  8
0
 10
327.16312661660942
 20
70.682322084903717
 30
0.0
  0
VERTEX
  5
1B030
  8
0
 10
327.1631638695124
 20
69.848419576883316
 30
0.0
  0
VERTEX
  5
1B031
  8
0
 10
327.16317877067382
 20
68.999999612569795
 30
0.0
  0
VERTEX
  5
1B032
  8
0
 10
327.1631638695124
 20
68.151579648256302
 30
0.0
  0
VERTEX
  5
1B033
  8
0
 10
327.16312661660942
 20
67.317673414945602
 30
0.0
  0
VERTEX
  5
1B034
  8
0
 10
327.16305211080339
 20
66.512556225061417
 30
0.0
  0
VERTEX
  5
1B035
  8
0
 10
327.16295525325592
 20
65.749996751546846
 30
0.0
  0
SEQEND
  5
1B036
  8
0
  0
POLYLINE
  5
18423
  8
0
 66
     1
 10
0.0
 20
0.0
 30
0.0
 70
   128
  0
VERTEX
  5
1B037
  8
0
 10
327.16295525325592
 20
72.249998748302446
 30
0.0
  0
VERTEX
  5
1B038
  8
0
 10
327.31643721355249
 20
70.624997317790985
 30
0.0
  0
VERTEX
  5
1B039
  8
0
 10
327.74400368226787
 20
68.999999612569795
 30
0.0
  0
SEQEND
  5
1B03A
  8
0
  0
LINE
  5
18424
  8
0
 10
327.74302020562942
 20
75.49999788403511
 30
0.0
 11
333.3819101740246
 21
75.49999788403511
 31
0.0
  0
POLYLINE
  5
18425
  8
0
 66
     1
 10
0.0
 20
0.0
 30
0.0
 70
   128
  0
VERTEX
  5
1B03B
  8
0
 10
333.3819101740246
 20
75.49999788403511
 30
0.0
  0
VERTEX
  5
1B03C
  8
0
 10
333.80335971607019
 20
73.907730579376221
 30
0.0
  0
VERTEX
  5
1B03D
  8
0
 10
333.9629511524563
 20
72.249998748302446
 30
0.0
  0
SEQEND
  5
1B03E
  8
0
  0
POLYLINE
  5
18426
  8
0
 66
     1
 10
0.0
 20
0.0
 30
0.0
 70
   128
  0
VERTEX
  5
1B03F
  8
0
 10
333.9629511524563
 20
72.249998748302446
 30
0.0
  0
VERTEX
  5
1B040
  8
0
 10
333.80996093047912
 20
70.624997317790985
 30
0.0
  0
VERTEX
  5
1B041
  8
0
 10
333.38288620008279
 20
68.999999612569795
 30
0.0
  0
SEQEND
  5
1B042
  8
0
  0
LINE
  5
18427
  8
0
 10
327.74400368226787
 20
68.999999612569795
 30
0.0
 11
333.38288620008279
 21
68.999999612569795
 31
0.0
  0
POLYLINE
  5
18428
  8
0
 66
     1
 10
0.0
 20
0.0
 30
0.0
 70
   128
  0
VERTEX
  5
1B043
  8
0
 10
327.74302020562942
 20
75.49999788403511
 30
0.0
  0
VERTEX
  5
1B044
  8
0
 10
327.3220475007418
 20
73.907730579376221
 30
0.0
  0
VERTEX
  5
1B045
  8
0
 10
327.16295525325592
 20
72.249998748302446
 30
0.0
  0
SEQEND
  5
1B046
  8
0
  0
POLYLINE
  5
18429
  8
0
 66
     1
 10
0.0
 20
0.0
 30
0.0
 70
   128
  0
VERTEX
  5
1B047
  8
0
 10
333.38288620008279
 20
68.999999612569795
 30
0.0
  0
VERTEX
  5
1B048
  8
0
 10
333.80385890497001
 20
67.407732307910905
 30
0.0
  0
VERTEX
  5
1B049
  8
0
 10
333.9629511524563
 20
65.749996751546846
 30
0.0
  0
SEQEND
  5
1B04A
  8
0
  0
POLYLINE
  5
1842A
  8
0
 66
     1
 10
0.0
 20
0.0
 30
0.0
 70
   128
  0
VERTEX
  5
1B04B
  8
0
 10
333.9629511524563
 20
65.749996751546846
 30
0.0
  0
VERTEX
  5
1B04C
  8
0
 10
333.80946919215972
 20
64.124999046325684
 30
0.0
  0
VERTEX
  5
1B04D
  8
0
 10
333.3819101740246
 20
62.499997615814202
 30
0.0
  0
SEQEND
  5
1B04E
  8
0
  0
LINE
  5
1842B
  8
0
 10
327.74302020562942
 20
62.499997615814202
 30
0.0
 11
333.3819101740246
 21
62.499997615814202
 31
0.0
  0
POLYLINE
  5
1842C
  8
0
 66
     1
 10
0.0
 20
0.0
 30
0.0
 70
   128
  0
VERTEX
  5
1B04F
  8
0
 10
327.16295525325592
 20
65.749996751546846
 30
0.0
  0
VERTEX
  5
1B050
  8
0
 10
327.31594547523309
 20
64.124999046325684
 30
0.0
  0
VERTEX
  5
1B051
  8
0
 10
327.74302020562942
 20
62.499997615814202
 30
0.0
  0
SEQEND
  5
1B052
  8
0
  0
POLYLINE
  5
1842E
  8
0
 66
     1
 10
0.0
 20
0.0
 30
0.0
 70
   128
  0
VERTEX
  5
1B053
  8
0
 10
327.16148748887798
 20
72.999996542930603
 30
0.0
  0
VERTEX
  5
1B054
  8
0
 10
327.16177806152132
 20
72.837968766689301
 30
0.0
  0
VERTEX
  5
1B055
  8
0
 10
327.16205373300357
 20
72.365013360977173
 30
0.0
  0
VERTEX
  5
1B056
  8
0
 10
327.16227725042148
 20
71.619441211223602
 30
0.0
  0
VERTEX
  5
1B057
  8
0
 10
327.16243371261407
 20
70.661657899618092
 30
0.0
  0
VERTEX
  5
1B058
  8
0
 10
327.16251566900058
 20
69.569257497787476
 30
0.0
  0
VERTEX
  5
1B059
  8
0
 10
327.16251566900058
 20
68.430738002061844
 30
0.0
  0
VERTEX
  5
1B05A
  8
0
 10
327.16243371261407
 20
67.338337600231171
 30
0.0
  0
VERTEX
  5
1B05B
  8
0
 10
327.16227725042148
 20
66.38055428862566
 30
0.0
  0
VERTEX
  5
1B05C
  8
0
 10
327.16205373300357
 20
65.634985864162445
 30
0.0
  0
VERTEX
  5
1B05D
  8
0
 10
327.16177806152132
 20
65.162026733160005
 30
0.0
  0
VERTEX
  5
1B05E
  8
0
 10
327.16148748887798
 20
64.99999895691866
 30
0.0
  0
SEQEND
  5
1B05F
  8
0
  0
POLYLINE
  5
1842F
  8
0
 66
     1
 10
0.0
 20
0.0
 30
0.0
 70
   128
  0
VERTEX
  5
1B060
  8
0
 10
327.16148748887798
 20
62.499997615814202
 30
0.0
  0
VERTEX
  5
1B061
  8
0
 10
327.16126397146007
 20
62.555605024099343
 30
0.0
  0
VERTEX
  5
1B062
  8
0
 10
327.1610479046231
 20
62.721481025218907
 30
0.0
  0
VERTEX
  5
1B063
  8
0
 10
327.16083928836628
 20
62.994779497385018
 30
0.0
  0
VERTEX
  5
1B064
  8
0
 10
327.16063812269022
 20
63.370832651853561
 30
0.0
  0
VERTEX
  5
1B065
  8
0
 10
327.16045185817529
 20
63.843203186988767
 30
0.0
  0
VERTEX
  5
1B066
  8
0
 10
327.16028794540188
 20
64.403803497552815
 30
0.0
  0
VERTEX
  5
1B067
  8
0
 10
327.16015383495142
 20
64.99999895691866
 30
0.0
  0
SEQEND
  5
1B068
  8
0
  0
POLYLINE
  5
18430
  8
0
 66
     1
 10
0.0
 20
0.0
 30
0.0
 70
   128
  0
VERTEX
  5
1B069
  8
0
 10
327.16015383495142
 20
72.999996542930603
 30
0.0
  0
VERTEX
  5
1B06A
  8
0
 10
327.16028794540188
 20
73.596192002296434
 30
0.0
  0
VERTEX
  5
1B06B
  8
0
 10
327.16045185817529
 20
74.156796038150773
 30
0.0
  0
VERTEX
  5
1B06C
  8
0
 10
327.16063812269022
 20
74.629162847995744
 30
0.0
  0
VERTEX
  5
1B06D
  8
0
 10
327.16083928836628
 20
75.005216002464238
 30
0.0
  0
VERTEX
  5
1B06E
  8
0
 10
327.1610479046231
 20
75.278514474630356
 30
0.0
  0
VERTEX
  5
1B06F
  8
0
 10
327.16126397146007
 20
75.444390475749913
 30
0.0
  0
VERTEX
  5
1B070
  8
0
 10
327.16148748887798
 20
75.49999788403511
 30
0.0
  0
SEQEND
  5
1B071
  8
0
  0
POLYLINE
  5
18431
  8
0
 66
     1
 10
0.0
 20
0.0
 30
0.0
 70
   128
  0
VERTEX
  5
1B072
  8
0
 10
327.16148748887798
 20
75.49999788403511
 30
0.0
  0
VERTEX
  5
1B073
  8
0
 10
327.161711006296
 20
75.444390475749913
 30
0.0
  0
VERTEX
  5
1B074
  8
0
 10
327.16192707313331
 20
75.278514474630356
 30
0.0
  0
VERTEX
  5
1B075
  8
0
 10
327.1621356893902
 20
75.005216002464238
 30
0.0
  0
VERTEX
  5
1B076
  8
0
 10
327.16233685506609
 20
74.629162847995744
 30
0.0
  0
VERTEX
  5
1B077
  8
0
 10
327.16251566900058
 20
74.156796038150773
 30
0.0
  0
VERTEX
  5
1B078
  8
0
 10
327.16268703235443
 20
73.596192002296434
 30
0.0
  0
VERTEX
  5
1B079
  8
0
 10
327.16282859338548
 20
72.956947088241563
 30
0.0
  0
VERTEX
  5
1B07A
  8
0
 10
327.16295525325592
 20
72.249998748302446
 30
0.0
  0
SEQEND
  5
1B07B
  8
0
  0
POLYLINE
  5
18432
  8
0
 66
     1
 10
0.0
 20
0.0
 30
0.0
 70
   128
  0
VERTEX
  5
1B07C
  8
0
 10
327.16295525325592
 20
65.749996751546846
 30
0.0
  0
VERTEX
  5
1B07D
  8
0
 10
327.16282859338548
 20
65.043048411607742
 30
0.0
  0
VERTEX
  5
1B07E
  8
0
 10
327.16268703235443
 20
64.403803497552815
 30
0.0
  0
VERTEX
  5
1B07F
  8
0
 10
327.16251566900058
 20
63.843203186988767
 30
0.0
  0
VERTEX
  5
1B080
  8
0
 10
327.16233685506609
 20
63.370832651853561
 30
0.0
  0
VERTEX
  5
1B081
  8
0
 10
327.1621356893902
 20
62.994779497385018
 30
0.0
  0
VERTEX
  5
1B082
  8
0
 10
327.16192707313331
 20
62.721481025218907
 30
0.0
  0
VERTEX
  5
1B083
  8
0
 10
327.161711006296
 20
62.555605024099343
 30
0.0
  0
VERTEX
  5
1B084
  8
0
 10
327.16148748887798
 20
62.499997615814202
 30
0.0
  0
SEQEND
  5
1B085
  8
0
  0
LINE
  5
18433
  8
0
 10
327.16148748887798
 20
62.499997615814202
 30
0.0
 11
327.74302020562942
 21
62.499997615814202
 31
0.0
  0
LINE
  5
18434
  8
0
 10
327.16148748887798
 20
75.49999788403511
 30
0.0
 11
327.74302020562942
 21
75.49999788403511
 31
0.0
  0
LINE
  5
18435
  8
0
 10
333.96148338807848
 20
75.49999788403511
 30
0.0
 11
333.3819101740246
 21
75.49999788403511
 31
0.0
  0
LINE
  5
18437
  8
0
 10
333.3819101740246
 20
62.499997615814202
 30
0.0
 11
333.96148338807848
 21
62.499997615814202
 31
0.0
  0
CIRCLE
  5
18439
  8
0
 10
195.00000038636949
 20
92.499999273568392
 30
0.0
 40
4.25
  0
CIRCLE
  5
1843A
  8
0
 10
220.00000038636949
 20
92.499999273568392
 30
0.0
 40
4.25
  0
LINE
  5
1843D
  8
0
 10
184.99999854713701
 20
79.999999320134521
 30
0.0
 11
230.00000033527641
 21
79.999999320134521
 31
0.0
  0
LINE
  5
1843E
  8
0
 10
184.99999854713701
 20
79.999999320134521
 30
0.0
 11
184.99999854713701
 21
104.99999922700221
 31
0.0
  0
LINE
  5
1843F
  8
0
 10
230.00000033527641
 20
79.999999320134521
 30
0.0
 11
230.00000033527661
 21
104.99999922700221
 31
0.0
  0
LINE
  5
18440
  8
0
 10
230.00000033527641
 20
104.99999922700221
 30
0.0
 11
184.99999854713701
 21
104.99999922700221
 31
0.0
  0
LINE
  5
18448
  8
0
 10
333.96286919606968
 20
60.499997287988599
 30
0.0
 11
345.96286371244241
 21
60.499997287988599
 31
0.0
  0
LINE
  5
18449
  8
0
 10
333.96286919606951
 20
76.998649807646899
 30
0.0
 11
333.96286919607059
 21
60.499997287987782
 31
0.0
  0
LINE
  5
1844D
  8
0
 10
345.96286371244241
 20
60.499997287988599
 30
0.0
 11
345.96286371244258
 21
76.998649807646899
 31
0.0
  0
LINE
  5
1844F
  8
0
 10
333.9601050306681
 20
122.49999813735479
 30
0.0
 11
333.9601050306681
 21
124.4999984651804
 31
0.0
  0
LINE
  5
18450
  8
0
 10
333.96286919606968
 20
124.4999984651804
 30
0.0
 11
333.96286919606968
 21
108.00134932156649
 31
0.0
  0
LINE
  5
18452
  8
0
 10
345.96286371244241
 20
124.4999984651804
 30
0.0
 11
333.96286919606968
 21
124.4999984651804
 31
0.0
  0
LINE
  5
18453
  8
0
 10
345.96286371244241
 20
108.00134932156649
 30
0.0
 11
345.96286371244241
 21
124.4999984651804
 31
0.0
  0
LINE
  5
18454
  8
0
 10
345.46281799567993
 20
60.0
 30
0.0
 11
345.96286371244241
 21
60.499997287988599
 31
0.0
  0
LINE
  5
18455
  8
0
 10
334.46281805528452
 20
60.0
 30
0.0
 11
345.46281799567993
 21
60.0
 31
0.0
  0
LINE
  5
18456
  8
0
 10
334.46281805528452
 20
60.0
 30
0.0
 11
333.96286919606968
 21
60.499997287988599
 31
0.0
  0
LINE
  5
18457
  8
0
 10
334.46281805528452
 20
124.9999985471368
 30
0.0
 11
333.96286919606968
 21
124.4999984651804
 31
0.0
  0
LINE
  5
18458
  8
0
 10
345.46281799567993
 20
124.9999985471368
 30
0.0
 11
334.46281805528452
 21
124.9999985471368
 31
0.0
  0
LINE
  5
18459
  8
0
 10
345.46281799567993
 20
124.9999985471368
 30
0.0
 11
345.96286371244241
 21
124.4999984651804
 31
0.0
  0
LINE
  5
1845A
  8
0
 10
333.9601050306681
 20
124.4999984651804
 30
0.0
 11
333.96286919606968
 21
124.4999984651804
 31
0.0
  0
LINE
  5
1845B
  8
0
 10
333.9601050306681
 20
124.4999984651804
 30
0.0
 11
334.46015819801141
 21
124.9999985471368
 31
0.0
  0
LINE
  5
1845C
  8
0
 10
334.46281805528452
 20
124.9999985471368
 30
0.0
 11
334.46015819801141
 21
124.9999985471368
 31
0.0
  0
LINE
  5
1846C
  8
0
 10
373.99997964395362
 20
100.5182514805347
 30
0.0
 11
411.17138817800321
 21
100.5182514805347
 31
0.0
  0
LINE
  5
1846D
  8
0
 10
373.99997964395328
 20
103.0182514246553
 30
0.0
 11
411.17138817800321
 21
103.0182514246553
 31
0.0
  0
LINE
  5
1846E
  8
0
 10
411.17138817800321
 20
84.481746600940852
 30
0.0
 11
373.99997964395362
 21
84.481746600940852
 31
0.0
  0
LINE
  5
1846F
  8
0
 10
411.17138817800321
 20
81.981747122481494
 30
0.0
 11
373.99997964395328
 21
81.981747122481494
 31
0.0
  0
LINE
  5
18474
  8
0
 10
318.96148279203197
 20
89.091422678902774
 30
0.0
 11
318.96147534145172
 21
92.026903005316882
 31
0.0
  0
LINE
  5
18475
  8
0
 10
318.96147534145172
 20
92.026903005316882
 30
0.0
 11
318.96148279203197
 21
95.908578196540503
 31
0.0
  0
LINE
  5
18476
  8
0
 10
346.54400154842187
 20
68.999999612569795
 30
0.0
 11
352.86344244970132
 21
68.999999612569795
 31
0.0
  0
POLYLINE
  5
18477
  8
0
 66
     1
 10
0.0
 20
0.0
 30
0.0
 70
   128
  0
VERTEX
  5
1B086
  8
0
 10
346.54400154842187
 20
68.999999612569795
 30
0.0
  0
VERTEX
  5
1B087
  8
0
 10
346.12255200637628
 20
70.592266917228685
 30
0.0
  0
VERTEX
  5
1B088
  8
0
 10
345.96295311940941
 20
72.249998748302446
 30
0.0
  0
SEQEND
  5
1B089
  8
0
  0
POLYLINE
  5
18478
  8
0
 66
     1
 10
0.0
 20
0.0
 30
0.0
 70
   128
  0
VERTEX
  5
1B08A
  8
0
 10
345.96295311940941
 20
72.249998748302446
 30
0.0
  0
VERTEX
  5
1B08B
  8
0
 10
346.11594334138658
 20
73.874996453523636
 30
0.0
  0
VERTEX
  5
1B08C
  8
0
 10
346.54301807178291
 20
75.49999788403511
 30
0.0
  0
SEQEND
  5
1B08D
  8
0
  0
LINE
  5
18479
  8
0
 10
346.54301807178291
 20
75.49999788403511
 30
0.0
 11
352.86245897306247
 21
75.49999788403511
 31
0.0
  0
LINE
  5
1847C
  8
0
 10
346.54301807178291
 20
62.499997615814202
 30
0.0
 11
352.86245897306247
 21
62.499997615814202
 31
0.0
  0
POLYLINE
  5
1847D
  8
0
 66
     1
 10
0.0
 20
0.0
 30
0.0
 70
   128
  0
VERTEX
  5
1B08E
  8
0
 10
346.54301807178291
 20
62.499997615814202
 30
0.0
  0
VERTEX
  5
1B08F
  8
0
 10
346.12205281747612
 20
64.092264920473085
 30
0.0
  0
VERTEX
  5
1B090
  8
0
 10
345.96295311940941
 20
65.749996751546846
 30
0.0
  0
SEQEND
  5
1B091
  8
0
  0
POLYLINE
  5
1847E
  8
0
 66
     1
 10
0.0
 20
0.0
 30
0.0
 70
   128
  0
VERTEX
  5
1B092
  8
0
 10
345.96295311940941
 20
65.749996751546846
 30
0.0
  0
VERTEX
  5
1B093
  8
0
 10
346.11643507970598
 20
67.374998182058334
 30
0.0
  0
VERTEX
  5
1B094
  8
0
 10
346.54400154842187
 20
68.999999612569795
 30
0.0
  0
SEQEND
  5
1B095
  8
0
  0
LINE
  5
18480
  8
0
 10
352.86245897306247
 20
62.499997615814202
 30
0.0
 11
352.86442592690378
 21
75.49999788403511
 31
0.0
  0
POLYLINE
  5
18481
  8
0
 66
     1
 10
0.0
 20
0.0
 30
0.0
 70
   128
  0
VERTEX
  5
1B096
  8
0
 10
345.96295311940941
 20
65.749996751546846
 30
0.0
  0
VERTEX
  5
1B097
  8
0
 10
345.96304997695728
 20
66.512556225061417
 30
0.0
  0
VERTEX
  5
1B098
  8
0
 10
345.96312448276331
 20
67.317673414945602
 30
0.0
  0
VERTEX
  5
1B099
  8
0
 10
345.96316918624672
 20
68.151579648256302
 30
0.0
  0
VERTEX
  5
1B09A
  8
0
 10
345.96318408740808
 20
68.999999612569795
 30
0.0
  0
VERTEX
  5
1B09B
  8
0
 10
345.96316918624672
 20
69.848419576883316
 30
0.0
  0
VERTEX
  5
1B09C
  8
0
 10
345.96312448276331
 20
70.682322084903717
 30
0.0
  0
VERTEX
  5
1B09D
  8
0
 10
345.96304997695728
 20
71.487439274787903
 30
0.0
  0
VERTEX
  5
1B09E
  8
0
 10
345.96295311940941
 20
72.249998748302446
 30
0.0
  0
SEQEND
  5
1B09F
  8
0
  0
LINE
  5
18482
  8
0
 10
345.96295311940941
 20
72.249998748302446
 30
0.0
 11
345.96286371244241
 21
72.772809714078903
 31
0.0
  0
LINE
  5
18483
  8
0
 10
345.96286371244241
 20
65.227189511060715
 30
0.0
 11
345.96295311940941
 21
65.749996751546846
 31
0.0
  0
POLYLINE
  5
18484
  8
0
 66
     1
 10
0.0
 20
0.0
 30
0.0
 70
   128
  0
VERTEX
  5
1B0A0
  8
0
 10
353.46148565305521
 20
62.499997615814202
 30
0.0
  0
VERTEX
  5
1B0A1
  8
0
 10
353.46184328092357
 20
62.651963382959359
 30
0.0
  0
VERTEX
  5
1B0A2
  8
0
 10
353.46220090879251
 20
63.100756555795662
 30
0.0
  0
VERTEX
  5
1B0A3
  8
0
 10
353.46251383317741
 20
63.825392574071877
 30
0.0
  0
VERTEX
  5
1B0A4
  8
0
 10
353.4627820540789
 20
64.7919861972332
 30
0.0
  0
VERTEX
  5
1B0A5
  8
0
 10
353.46297576917459
 20
65.955342203378663
 30
0.0
  0
VERTEX
  5
1B0A6
  8
0
 10
353.46312478078647
 20
67.261063903570118
 30
0.0
  0
VERTEX
  5
1B0A7
  8
0
 10
353.46318438543108
 20
68.648093789815903
 30
0.0
  0
VERTEX
  5
1B0A8
  8
0
 10
353.46315458310869
 20
70.051582008600235
 30
0.0
  0
VERTEX
  5
1B0A9
  8
0
 10
353.46306517614181
 20
71.405896395444813
 30
0.0
  0
VERTEX
  5
1B0AA
  8
0
 10
353.4628863622072
 20
72.647714465856552
 30
0.0
  0
VERTEX
  5
1B0AB
  8
0
 10
353.46264794362833
 20
73.718970119953156
 30
0.0
  0
VERTEX
  5
1B0AC
  8
0
 10
353.46236482156542
 20
74.569569379091263
 30
0.0
  0
VERTEX
  5
1B0AD
  8
0
 10
353.46202209485818
 20
75.159744769334793
 30
0.0
  0
VERTEX
  5
1B0AE
  8
0
 10
353.4616644669893
 20
75.461895614862442
 30
0.0
  0
VERTEX
  5
1B0AF
  8
0
 10
353.46148565305521
 20
75.49999788403511
 30
0.0
  0
SEQEND
  5
1B0B0
  8
0
  0
LINE
  5
18485
  8
0
 10
345.96148535503198
 20
62.499997615814202
 30
0.0
 11
346.54301807178291
 21
62.499997615814202
 31
0.0
  0
LINE
  5
18486
  8
0
 10
346.54301807178291
 20
75.49999788403511
 30
0.0
 11
345.96148535503198
 21
75.49999788403511
 31
0.0
  0
LINE
  5
18487
  8
0
 10
346.54301807178291
 20
109.4999982765876
 30
0.0
 11
352.86245897306247
 21
109.4999982765876
 31
0.0
  0
POLYLINE
  5
18488
  8
0
 66
     1
 10
0.0
 20
0.0
 30
0.0
 70
   128
  0
VERTEX
  5
1B0B1
  8
0
 10
346.54301807178291
 20
109.4999982765876
 30
0.0
  0
VERTEX
  5
1B0B2
  8
0
 10
346.12205281747612
 20
111.09226511558521
 30
0.0
  0
VERTEX
  5
1B0B3
  8
0
 10
345.96295311940941
 20
112.74999840185041
 30
0.0
  0
SEQEND
  5
1B0B4
  8
0
  0
POLYLINE
  5
18489
  8
0
 66
     1
 10
0.0
 20
0.0
 30
0.0
 70
   128
  0
VERTEX
  5
1B0B5
  8
0
 10
345.96295311940941
 20
112.74999840185041
 30
0.0
  0
VERTEX
  5
1B0B6
  8
0
 10
346.11643507970598
 20
114.3749984353781
 30
0.0
  0
VERTEX
  5
1B0B7
  8
0
 10
346.54400154842187
 20
115.9999984689056
 30
0.0
  0
SEQEND
  5
1B0B8
  8
0
  0
LINE
  5
1848A
  8
0
 10
346.54400154842187
 20
115.9999984689056
 30
0.0
 11
352.86344244970132
 21
115.9999984689056
 31
0.0
  0
LINE
  5
1848B
  8
0
 10
352.86295071138193
 20
112.74999840185041
 30
0.0
 11
352.86344244970132
 21
115.9999984689056
 31
0.0
  0
LINE
  5
1848C
  8
0
 10
352.86245897306247
 20
109.4999982765876
 30
0.0
 11
352.86295071138193
 21
112.74999840185041
 31
0.0
  0
POLYLINE
  5
1848D
  8
0
 66
     1
 10
0.0
 20
0.0
 30
0.0
 70
   128
  0
VERTEX
  5
1B0B9
  8
0
 10
345.96295311940941
 20
112.74999840185041
 30
0.0
  0
VERTEX
  5
1B0BA
  8
0
 10
345.96304997695728
 20
113.5125560127199
 30
0.0
  0
VERTEX
  5
1B0BB
  8
0
 10
345.96312448276331
 20
114.3176745995879
 30
0.0
  0
VERTEX
  5
1B0BC
  8
0
 10
345.96316918624672
 20
115.15157803893089
 30
0.0
  0
VERTEX
  5
1B0BD
  8
0
 10
345.96318408740808
 20
115.9999984689056
 30
0.0
  0
VERTEX
  5
1B0BE
  8
0
 10
345.96316918624672
 20
116.84841843321919
 30
0.0
  0
VERTEX
  5
1B0BF
  8
0
 10
345.96312448276331
 20
117.6823218725622
 30
0.0
  0
VERTEX
  5
1B0C0
  8
0
 10
345.96304997695728
 20
118.4874404594302
 30
0.0
  0
VERTEX
  5
1B0C1
  8
0
 10
345.96295311940941
 20
119.2499980702996
 30
0.0
  0
SEQEND
  5
1B0C2
  8
0
  0
LINE
  5
1848E
  8
0
 10
345.96286371244241
 20
112.22718836739659
 30
0.0
 11
345.96295311940941
 21
112.74999840185041
 31
0.0
  0
LINE
  5
1848F
  8
0
 10
345.96295311940941
 20
119.2499980702996
 30
0.0
 11
345.96286371244241
 21
119.77280810475349
 31
0.0
  0
POLYLINE
  5
18490
  8
0
 66
     1
 10
0.0
 20
0.0
 30
0.0
 70
   128
  0
VERTEX
  5
1B0C3
  8
0
 10
353.46148565305521
 20
109.4999982765876
 30
0.0
  0
VERTEX
  5
1B0C4
  8
0
 10
353.46154525769981
 20
109.5042356778867
 30
0.0
  0
VERTEX
  5
1B0C5
  8
0
 10
353.46190288556858
 20
109.70654917997309
 30
0.0
  0
VERTEX
  5
1B0C6
  8
0
 10
353.46224561227609
 20
110.20313736895331
 30
0.0
  0
VERTEX
  5
1B0C7
  8
0
 10
353.46255853666088
 20
110.97078031394619
 30
0.0
  0
VERTEX
  5
1B0C8
  8
0
 10
353.46281185640117
 20
111.9735839916393
 30
0.0
  0
VERTEX
  5
1B0C9
  8
0
 10
353.46300557149681
 20
113.16465813666581
 30
0.0
  0
VERTEX
  5
1B0CA
  8
0
 10
353.46313968194772
 20
114.4883096590638
 30
0.0
  0
VERTEX
  5
1B0CB
  8
0
 10
353.46318438543108
 20
115.8826462365687
 30
0.0
  0
VERTEX
  5
1B0CC
  8
0
 10
353.46315458310869
 20
117.2824701666832
 30
0.0
  0
VERTEX
  5
1B0CD
  8
0
 10
353.4630353738192
 20
118.6223267018795
 30
0.0
  0
VERTEX
  5
1B0CE
  8
0
 10
353.46285655988481
 20
119.83956623822451
 30
0.0
  0
VERTEX
  5
1B0CF
  8
0
 10
353.4626032401448
 20
120.8772719278931
 30
0.0
  0
VERTEX
  5
1B0D0
  8
0
 10
353.46230521692092
 20
121.6869218647479
 30
0.0
  0
VERTEX
  5
1B0D1
  8
0
 10
353.46196249021318
 20
122.23065778613091
 30
0.0
  0
VERTEX
  5
1B0D2
  8
0
 10
353.46160486234481
 20
122.4830545857549
 30
0.0
  0
VERTEX
  5
1B0D3
  8
0
 10
353.46148565305521
 20
122.49999813735479
 30
0.0
  0
SEQEND
  5
1B0D4
  8
0
  0
POLYLINE
  5
18491
  8
0
 66
     1
 10
0.0
 20
0.0
 30
0.0
 70
   128
  0
VERTEX
  5
1B0D5
  8
0
 10
346.54400154842187
 20
115.9999984689056
 30
0.0
  0
VERTEX
  5
1B0D6
  8
0
 10
346.12255200637628
 20
117.5922653079033
 30
0.0
  0
VERTEX
  5
1B0D7
  8
0
 10
345.96295311940941
 20
119.2499980702996
 30
0.0
  0
SEQEND
  5
1B0D8
  8
0
  0
POLYLINE
  5
18492
  8
0
 66
     1
 10
0.0
 20
0.0
 30
0.0
 70
   128
  0
VERTEX
  5
1B0D9
  8
0
 10
345.96295311940941
 20
119.2499980702996
 30
0.0
  0
VERTEX
  5
1B0DA
  8
0
 10
346.11594334138658
 20
120.8749985694885
 30
0.0
  0
VERTEX
  5
1B0DB
  8
0
 10
346.54301807178291
 20
122.49999813735479
 30
0.0
  0
SEQEND
  5
1B0DC
  8
0
  0
LINE
  5
18493
  8
0
 10
346.54301807178291
 20
122.49999813735479
 30
0.0
 11
352.86245897306247
 21
122.49999813735479
 31
0.0
  0
LINE
  5
18494
  8
0
 10
352.86295071138193
 20
119.2499980702996
 30
0.0
 11
352.86245897306247
 21
122.49999813735479
 31
0.0
  0
LINE
  5
18495
  8
0
 10
352.86344244970132
 20
115.9999984689056
 30
0.0
 11
352.86295071138193
 21
119.2499980702996
 31
0.0
  0
LINE
  5
18496
  8
0
 10
345.96148535503198
 20
109.4999982765876
 30
0.0
 11
346.54301807178291
 21
109.4999982765876
 31
0.0
  0
LINE
  5
18497
  8
0
 10
346.54301807178291
 20
122.49999813735479
 30
0.0
 11
345.96148535503198
 21
122.49999813735479
 31
0.0
  0
LINE
  5
1849A
  8
0
 10
296.00000038636972
 20
76.998649807646899
 30
0.0
 11
373.99997964395328
 21
76.998649807646899
 31
0.0
  0
CIRCLE
  5
1849C
  8
0
 10
359.50000358388797
 20
92.500000501998144
 30
0.0
 40
4.2499999999999432
  0
CIRCLE
  5
1849D
  8
0
 10
321.50000358388797
 20
92.500000501998059
 30
0.0
 40
4.25
  0
LINE
  5
184A0
  8
0
 10
373.99997964395328
 20
108.00134932156649
 30
0.0
 11
296.00000038636972
 21
108.00134932156649
 31
0.0
  0
LINE
  5
184A1
  8
0
 10
296.00000038636949
 20
76.998649807646899
 30
0.0
 11
296.00000038636972
 21
108.00134932156649
 31
0.0
  0
LINE
  5
184A2
  8
0
 10
373.99997964395328
 20
108.00134932156649
 30
0.0
 11
373.99997964395328
 21
76.998649807646899
 31
0.0
  0
LINE
  5
184B4
  8
0
 10
412.17082016957318
 20
105.4999994096721
 30
0.0
 11
474.61146732638218
 21
105.4993213704436
 31
0.0
  0
ARC
  5
184B5
  8
0
 10
474.61147027233721
 20
104.4993215282007
 30
0.0
 40
1.0
 50
0.0
 51
90.0
  0
LINE
  5
184B6
  8
0
 10
412.171381871211
 20
98.999999567429157
 30
0.0
 11
474.61146732638218
 21
98.999321236333174
 31
0.0
  0
ARC
  5
184B7
  8
0
 10
474.61147027233721
 20
99.999321528200653
 30
0.0
 40
1.0
 50
270.0
 51
0.0
  0
LINE
  5
184B8
  8
0
 10
412.17138186392731
 20
79.499999567429143
 30
0.0
 11
474.61146732638218
 21
79.499320834001821
 31
0.0
  0
ARC
  5
184B9
  8
0
 10
474.61147027233721
 20
80.499321528200653
 30
0.0
 40
1.0
 50
270.0
 51
0.0
  0
LINE
  5
184BA
  8
0
 10
474.61146732638218
 20
85.999320968112215
 30
0.0
 11
412.17032349077272
 21
85.999999007340705
 31
0.0
  0
ARC
  5
184BB
  8
0
 10
474.61147027233721
 20
84.999321528200696
 30
0.0
 40
1.0
 50
0.0
 51
90.0
  0
LINE
  5
184C4
  8
0
 10
475.61146935294022
 20
80.499320997914523
 30
0.0
 11
475.61146935294028
 21
104.5006775492222
 31
0.0
  0
LINE
  5
184E3
  8
0
 10
411.17138817800321
 20
104.4999997114206
 30
0.0
 11
411.17138817800321
 21
80.496449341502398
 31
0.0
  0
ARC
  5
184E6
  8
0
 10
412.1713818759315
 20
99.999999567429143
 30
0.0
 40
1.0
 50
180.0
 51
270.0
  0
ARC
  5
184E7
  8
0
 10
412.1713818759315
 20
84.999999567429143
 30
0.0
 40
1.000000000001291
 50
90.0
 51
180.0
  0
ARC
  5
184E8
  8
0
 10
412.1713818759315
 20
80.499999567429128
 30
0.0
 40
1.0
 50
180.0
 51
270.0
  0
ARC
  5
184E9
  8
0
 10
412.1713818759315
 20
104.4999995674291
 30
0.0
 40
1.0
 50
90.0
 51
180.0
  0
LINE
  5
184F0
  8
0
 10
303.96148501291123
 20
73.998649886326774
 30
0.0
 11
313.96148501291123
 21
73.998649886326547
 31
0.0
  0
LINE
  5
184F1
  8
0
 10
313.96148517006083
 20
109.9986498863267
 30
0.0
 11
303.96148495076551
 21
109.9986498863267
 31
0.0
  0
LINE
  5
18506
  8
0
 10
286.00006569176912
 20
205.0185108803891
 30
0.0
 11
286.00006569176912
 21
197.01851088782291
 31
0.0
  0
LINE
  5
1850E
  8
3
 10
286.00006569176912
 20
204.32349854713601
 30
0.0
 11
327.16062653375911
 21
204.32349854713601
 31
0.0
  0
LINE
  5
1850F
  8
3
 10
286.00006569176912
 20
197.67649854713599
 30
0.0
 11
327.16236291147561
 21
197.67649854713599
 31
0.0
  0
LINE
  5
18510
  8
3
 10
353.46236021658609
 20
197.67649854713599
 30
0.0
 11
356.00006569176912
 21
197.67649854713599
 31
0.0
  0
LINE
  5
18511
  8
3
 10
353.46063052721451
 20
204.32349854713601
 30
0.0
 11
356.00006569176912
 21
204.32349854713601
 31
0.0
  0
LINE
  5
18516
  8
0
 10
355.49895454198122
 20
296.023114738554
 30
0.0
 11
353.46044469591828
 21
296.02258315676448
 31
0.0
  0
LINE
  5
18517
  8
0
 10
353.46252633136419
 20
288.02258277560441
 30
0.0
 11
355.50104070454842
 21
288.02311435857439
 31
0.0
  0
LINE
  5
18518
  8
0
 10
355.50104070454842
 20
288.02311435857439
 30
0.0
 11
356.0009150579574
 21
288.52324482569122
 31
0.0
  0
LINE
  5
18519
  8
0
 10
355.99908221513027
 20
295.52324411043543
 30
0.0
 11
355.49895454198122
 21
296.023114738554
 31
0.0
  0
POLYLINE
  5
1851A
  8
0
 66
     1
 10
0.0
 20
0.0
 30
0.0
 70
   128
  0
VERTEX
  5
1B0DD
  8
0
 10
355.50104070454842
 20
288.02311435857439
 30
0.0
  0
VERTEX
  5
1B0DE
  8
0
 10
355.500996001065
 20
288.18514213481569
 30
0.0
  0
VERTEX
  5
1B0DF
  8
0
 10
355.50087679177551
 20
288.65810033449549
 30
0.0
  0
VERTEX
  5
1B0E0
  8
0
 10
355.50068307667988
 20
289.4036715529266
 30
0.0
  0
VERTEX
  5
1B0E1
  8
0
 10
355.50042975693958
 20
290.36145393320942
 30
0.0
  0
VERTEX
  5
1B0E2
  8
0
 10
355.50014663487673
 20
291.45385526636261
 30
0.0
  0
VERTEX
  5
1B0E3
  8
0
 10
355.49984861165291
 20
292.59237383076572
 30
0.0
  0
VERTEX
  5
1B0E4
  8
0
 10
355.4995654895904
 20
293.6847742325964
 30
0.0
  0
VERTEX
  5
1B0E5
  8
0
 10
355.4993121698501
 20
294.64255754420179
 30
0.0
  0
VERTEX
  5
1B0E6
  8
0
 10
355.49911845475458
 20
295.38812783131021
 30
0.0
  0
VERTEX
  5
1B0E7
  8
0
 10
355.4989992454648
 20
295.8610850996676
 30
0.0
  0
VERTEX
  5
1B0E8
  8
0
 10
355.49895454198122
 20
296.023114738554
 30
0.0
  0
VERTEX
  5
1B0E9
  8
0
 10
355.49895454198122
 20
296.023114738554
 30
0.0
  0
SEQEND
  5
1B0EA
  8
0
  0
POLYLINE
  5
1851B
  8
0
 66
     1
 10
0.0
 20
0.0
 30
0.0
 70
   128
  0
VERTEX
  5
1B0EB
  8
0
 10
356.0009150579574
 20
288.52324482569122
 30
0.0
  0
VERTEX
  5
1B0EC
  8
0
 10
356.00090015679598
 20
288.56233709076071
 30
0.0
  0
VERTEX
  5
1B0ED
  8
0
 10
356.00081074982899
 20
288.86985328564077
 30
0.0
  0
VERTEX
  5
1B0EE
  8
0
 10
356.0006617382171
 20
289.45756346502918
 30
0.0
  0
VERTEX
  5
1B0EF
  8
0
 10
356.00045312196022
 20
290.27324464687729
 30
0.0
  0
VERTEX
  5
1B0F0
  8
0
 10
356.00019980221992
 20
291.24442130842829
 30
0.0
  0
VERTEX
  5
1B0F1
  8
0
 10
355.99993158131838
 20
292.28480082520861
 30
0.0
  0
VERTEX
  5
1B0F2
  8
0
 10
355.99966336041712
 20
293.3019373244943
 30
0.0
  0
VERTEX
  5
1B0F3
  8
0
 10
355.99942494183802
 20
294.20545805761242
 30
0.0
  0
VERTEX
  5
1B0F4
  8
0
 10
355.99924612790369
 20
294.91507929334063
 30
0.0
  0
VERTEX
  5
1B0F5
  8
0
 10
355.99912691861408
 20
295.36774863073248
 30
0.0
  0
VERTEX
  5
1B0F6
  8
0
 10
355.99908221513027
 20
295.52324411043543
 30
0.0
  0
VERTEX
  5
1B0F7
  8
0
 10
355.99908221513027
 20
295.52324411043543
 30
0.0
  0
SEQEND
  5
1B0F8
  8
0
  0
LINE
  5
1851C
  8
0
 10
286.00006569176912
 20
296.00499301404602
 30
0.0
 11
286.00006569176912
 21
288.00499302147978
 31
0.0
  0
LINE
  5
1851D
  8
3
 10
286.00006569176912
 20
295.30998068079288
 30
0.0
 11
327.16062653375911
 21
295.30998068079288
 31
0.0
  0
LINE
  5
1851E
  8
3
 10
353.46063052721451
 20
295.30998068079288
 30
0.0
 11
356.00006569176912
 21
295.30998068079288
 31
0.0
  0
LINE
  5
1851F
  8
3
 10
286.00006569176912
 20
288.66298068079288
 30
0.0
 11
327.16236291147561
 21
288.66298068079288
 31
0.0
  0
LINE
  5
18520
  8
3
 10
353.46236021658609
 20
288.66298068079288
 30
0.0
 11
356.00006569176912
 21
288.66298068079288
 31
0.0
  0
LINE
  5
18521
  8
0
 10
355.49895454198122
 20
343.02311545753503
 30
0.0
 11
353.46044469591828
 21
343.02258387574562
 31
0.0
  0
LINE
  5
18522
  8
0
 10
353.46252633136419
 20
335.02258349458538
 30
0.0
 11
355.50104070454842
 21
335.02311507755542
 31
0.0
  0
LINE
  5
18523
  8
0
 10
355.50104070454842
 20
335.02311507755542
 30
0.0
 11
356.0009150579574
 21
335.52324554467219
 31
0.0
  0
LINE
  5
18524
  8
0
 10
355.99908221513027
 20
342.52324482941651
 30
0.0
 11
355.49895454198122
 21
343.02311545753503
 31
0.0
  0
POLYLINE
  5
18525
  8
0
 66
     1
 10
0.0
 20
0.0
 30
0.0
 70
   128
  0
VERTEX
  5
1B0F9
  8
0
 10
355.50104070454842
 20
335.02311507755542
 30
0.0
  0
VERTEX
  5
1B0FA
  8
0
 10
355.500996001065
 20
335.18514285379672
 30
0.0
  0
VERTEX
  5
1B0FB
  8
0
 10
355.50087679177551
 20
335.65810105347651
 30
0.0
  0
VERTEX
  5
1B0FC
  8
0
 10
355.50068307667988
 20
336.40367227190762
 30
0.0
  0
VERTEX
  5
1B0FD
  8
0
 10
355.50042975693958
 20
337.36145465219039
 30
0.0
  0
VERTEX
  5
1B0FE
  8
0
 10
355.50014663487673
 20
338.45385598534358
 30
0.0
  0
VERTEX
  5
1B0FF
  8
0
 10
355.49984861165291
 20
339.59237454974669
 30
0.0
  0
VERTEX
  5
1B100
  8
0
 10
355.4995654895904
 20
340.68477495157742
 30
0.0
  0
VERTEX
  5
1B101
  8
0
 10
355.4993121698501
 20
341.64255826318282
 30
0.0
  0
VERTEX
  5
1B102
  8
0
 10
355.49911845475458
 20
342.3881285502913
 30
0.0
  0
VERTEX
  5
1B103
  8
0
 10
355.4989992454648
 20
342.86108581864858
 30
0.0
  0
VERTEX
  5
1B104
  8
0
 10
355.49895454198122
 20
343.02311545753503
 30
0.0
  0
VERTEX
  5
1B105
  8
0
 10
355.49895454198122
 20
343.02311545753503
 30
0.0
  0
SEQEND
  5
1B106
  8
0
  0
POLYLINE
  5
18526
  8
0
 66
     1
 10
0.0
 20
0.0
 30
0.0
 70
   128
  0
VERTEX
  5
1B107
  8
0
 10
356.0009150579574
 20
335.52324554467219
 30
0.0
  0
VERTEX
  5
1B108
  8
0
 10
356.00090015679598
 20
335.56233780974168
 30
0.0
  0
VERTEX
  5
1B109
  8
0
 10
356.00081074982899
 20
335.8698540046218
 30
0.0
  0
VERTEX
  5
1B10A
  8
0
 10
356.0006617382171
 20
336.45756418401021
 30
0.0
  0
VERTEX
  5
1B10B
  8
0
 10
356.00045312196022
 20
337.27324536585837
 30
0.0
  0
VERTEX
  5
1B10C
  8
0
 10
356.00019980221992
 20
338.24442202740943
 30
0.0
  0
VERTEX
  5
1B10D
  8
0
 10
355.99993158131838
 20
339.28480154418958
 30
0.0
  0
VERTEX
  5
1B10E
  8
0
 10
355.99966336041712
 20
340.30193804347527
 30
0.0
  0
VERTEX
  5
1B10F
  8
0
 10
355.99942494183802
 20
341.20545877659339
 30
0.0
  0
VERTEX
  5
1B110
  8
0
 10
355.99924612790369
 20
341.91508001232171
 30
0.0
  0
VERTEX
  5
1B111
  8
0
 10
355.99912691861408
 20
342.36774934971351
 30
0.0
  0
VERTEX
  5
1B112
  8
0
 10
355.99908221513027
 20
342.52324482941651
 30
0.0
  0
VERTEX
  5
1B113
  8
0
 10
355.99908221513027
 20
342.52324482941651
 30
0.0
  0
SEQEND
  5
1B114
  8
0
  0
LINE
  5
18527
  8
0
 10
286.00006569176912
 20
343.00499373302711
 30
0.0
 11
286.00006569176912
 21
335.0049937404608
 31
0.0
  0
LINE
  5
18528
  8
3
 10
286.00006569176912
 20
342.3099813997739
 30
0.0
 11
327.16062653375911
 21
342.3099813997739
 31
0.0
  0
LINE
  5
18529
  8
3
 10
353.46063052721451
 20
342.3099813997739
 30
0.0
 11
356.00006569176912
 21
342.3099813997739
 31
0.0
  0
LINE
  5
1852A
  8
3
 10
286.00006569176912
 20
335.66298139977391
 30
0.0
 11
327.16236291147561
 21
335.66298139977391
 31
0.0
  0
LINE
  5
1852B
  8
3
 10
353.46236021658609
 20
335.66298139977391
 30
0.0
 11
356.00006569176912
 21
335.66298139977391
 31
0.0
  0
LINE
  5
1852C
  8
1
 10
358.00000378521008
 20
339.00499373674393
 30
0.0
 11
284.00006569176912
 21
339.00499373674393
 31
0.0
  0
LINE
  5
1852F
  8
0
 10
355.49895454198122
 20
120.01812158668049
 30
0.0
 11
353.46044469591828
 21
120.0175900048911
 31
0.0
  0
LINE
  5
18530
  8
0
 10
353.46252633136419
 20
112.017589623731
 30
0.0
 11
355.50104070454842
 21
112.0181212067009
 31
0.0
  0
LINE
  5
18531
  8
0
 10
355.50104070454842
 20
112.0181212067009
 30
0.0
 11
356.0009150579574
 21
112.5182516738177
 31
0.0
  0
LINE
  5
18532
  8
0
 10
355.99908221513027
 20
119.51825095856201
 30
0.0
 11
355.49895454198122
 21
120.01812158668049
 31
0.0
  0
POLYLINE
  5
18533
  8
0
 66
     1
 10
0.0
 20
0.0
 30
0.0
 70
   128
  0
VERTEX
  5
1B115
  8
0
 10
355.50104070454842
 20
112.0181212067009
 30
0.0
  0
VERTEX
  5
1B116
  8
0
 10
355.500996001065
 20
112.1801489829422
 30
0.0
  0
VERTEX
  5
1B117
  8
0
 10
355.50087679177551
 20
112.65310718262209
 30
0.0
  0
VERTEX
  5
1B118
  8
0
 10
355.50068307667988
 20
113.3986784010532
 30
0.0
  0
VERTEX
  5
1B119
  8
0
 10
355.50042975693958
 20
114.3564607813359
 30
0.0
  0
VERTEX
  5
1B11A
  8
0
 10
355.50014663487673
 20
115.4488621144892
 30
0.0
  0
VERTEX
  5
1B11B
  8
0
 10
355.49984861165291
 20
116.5873806788922
 30
0.0
  0
VERTEX
  5
1B11C
  8
0
 10
355.4995654895904
 20
117.6797810807229
 30
0.0
  0
VERTEX
  5
1B11D
  8
0
 10
355.4993121698501
 20
118.6375643923284
 30
0.0
  0
VERTEX
  5
1B11E
  8
0
 10
355.49911845475458
 20
119.38313467943679
 30
0.0
  0
VERTEX
  5
1B11F
  8
0
 10
355.4989992454648
 20
119.8560919477942
 30
0.0
  0
VERTEX
  5
1B120
  8
0
 10
355.49895454198122
 20
120.01812158668049
 30
0.0
  0
VERTEX
  5
1B121
  8
0
 10
355.49895454198122
 20
120.01812158668049
 30
0.0
  0
SEQEND
  5
1B122
  8
0
  0
POLYLINE
  5
18534
  8
0
 66
     1
 10
0.0
 20
0.0
 30
0.0
 70
   128
  0
VERTEX
  5
1B123
  8
0
 10
356.0009150579574
 20
112.5182516738177
 30
0.0
  0
VERTEX
  5
1B124
  8
0
 10
356.00090015679598
 20
112.5573439388872
 30
0.0
  0
VERTEX
  5
1B125
  8
0
 10
356.00081074982899
 20
112.86486013376729
 30
0.0
  0
VERTEX
  5
1B126
  8
0
 10
356.0006617382171
 20
113.4525703131558
 30
0.0
  0
VERTEX
  5
1B127
  8
0
 10
356.00045312196022
 20
114.2682514950039
 30
0.0
  0
VERTEX
  5
1B128
  8
0
 10
356.00019980221992
 20
115.23942815655489
 30
0.0
  0
VERTEX
  5
1B129
  8
0
 10
355.99993158131838
 20
116.2798076733352
 30
0.0
  0
VERTEX
  5
1B12A
  8
0
 10
355.99966336041712
 20
117.2969441726209
 30
0.0
  0
VERTEX
  5
1B12B
  8
0
 10
355.99942494183802
 20
118.2004649057389
 30
0.0
  0
VERTEX
  5
1B12C
  8
0
 10
355.99924612790369
 20
118.9100861414672
 30
0.0
  0
VERTEX
  5
1B12D
  8
0
 10
355.99912691861408
 20
119.3627554788591
 30
0.0
  0
VERTEX
  5
1B12E
  8
0
 10
355.99908221513027
 20
119.51825095856201
 30
0.0
  0
VERTEX
  5
1B12F
  8
0
 10
355.99908221513027
 20
119.51825095856201
 30
0.0
  0
SEQEND
  5
1B130
  8
0
  0
LINE
  5
18535
  8
0
 10
286.00006569176912
 20
119.9999998621726
 30
0.0
 11
286.00006569176912
 21
111.9999998696064
 31
0.0
  0
LINE
  5
18536
  8
3
 10
286.00006569176912
 20
119.3049875289195
 30
0.0
 11
327.16062653375911
 21
119.3049875289195
 31
0.0
  0
LINE
  5
18537
  8
3
 10
353.46063052721451
 20
119.3049875289195
 30
0.0
 11
356.00006569176912
 21
119.3049875289195
 31
0.0
  0
LINE
  5
18538
  8
3
 10
286.00006569176912
 20
112.65798752891951
 30
0.0
 11
327.16236291147561
 21
112.65798752891951
 31
0.0
  0
LINE
  5
18539
  8
3
 10
353.46236021658609
 20
112.65798752891951
 30
0.0
 11
356.00006569176912
 21
112.65798752891951
 31
0.0
  0
LINE
  5
1853A
  8
1
 10
358.00000378521008
 20
115.99999986588951
 30
0.0
 11
284.00006569176912
 21
115.99999986588951
 31
0.0
  0
LINE
  5
18541
  8
0
 10
286.00006569176912
 20
72.999999143191573
 30
0.0
 11
286.00006569176912
 21
64.999999150625342
 31
0.0
  0
LINE
  5
18542
  8
3
 10
286.00006569176912
 20
72.304986809938498
 30
0.0
 11
327.16062653375911
 21
72.304986809938498
 31
0.0
  0
LINE
  5
18544
  8
3
 10
286.00006569176912
 20
65.65798680993845
 30
0.0
 11
327.16236291147561
 21
65.65798680993845
 31
0.0
  0
LINE
  5
18546
  8
1
 10
358.00000378521008
 20
68.999999146908465
 30
0.0
 11
284.00006569176912
 21
68.999999146908465
 31
0.0
  0
LINE
  5
1854E
  8
1
 10
358.00000378521008
 20
201.01851088410601
 30
0.0
 11
284.00006569176912
 21
201.01851088410601
 31
0.0
  0
LINE
  5
1854F
  8
1
 10
358.00000378521008
 20
292.0049930177629
 30
0.0
 11
284.00006569176912
 21
292.0049930177629
 31
0.0
  0
LINE
  5
18550
  8
1
 10
195.00000038636949
 20
182.99999854713579
 30
0.0
 11
195.00000038636949
 21
190.99999873712659
 31
0.0
  0
LINE
  5
18551
  8
1
 10
220.00000038636949
 20
182.99999854713579
 30
0.0
 11
220.00000038636949
 21
190.99999873712659
 31
0.0
  0
LINE
  5
18552
  8
1
 10
321.50000358388797
 20
182.99999854713579
 30
0.0
 11
321.50000358388797
 21
190.99999873712659
 31
0.0
  0
LINE
  5
18553
  8
1
 10
359.50000358388797
 20
182.99999854713579
 30
0.0
 11
359.50000358388797
 21
190.99999873712659
 31
0.0
  0
LINE
  5
18564
  8
1
 10
480.61146935294028
 20
92.499321234339916
 30
0.0
 11
179.99999854713701
 21
92.499999273568392
 31
0.0
  0
LINE
  5
18573
  8
1
 10
195.00000038636949
 20
86.249999273568392
 30
0.0
 11
195.00000038636949
 21
98.749999273568392
 31
0.0
  0
LINE
  5
18575
  8
1
 10
220.00000038636949
 20
86.249999273568392
 30
0.0
 11
220.00000038636949
 21
98.749999273568392
 31
0.0
  0
LINE
  5
18576
  8
1
 10
321.50000358388797
 20
86.250000501998059
 30
0.0
 11
321.50000358388797
 21
98.750000501998073
 31
0.0
  0
LINE
  5
18577
  8
1
 10
359.50000358388797
 20
86.250000501998144
 30
0.0
 11
359.50000358388797
 21
98.750000501998144
 31
0.0
  0
LINE
  5
18658
  8
0
 10
211.21234435588141
 20
303.0049931909889
 30
0.0
 11
211.21234435588141
 21
307.00499384663999
 31
0.0
  0
LINE
  5
18659
  8
0
 10
230.00000033527641
 20
307.00499384663999
 30
0.0
 11
211.21234435588141
 21
307.00499384663999
 31
0.0
  0
LINE
  5
1865A
  8
0
 10
230.00000033527641
 20
303.00499319098878
 30
0.0
 11
211.21234435588141
 21
303.0049931909889
 31
0.0
  0
LINE
  5
1865B
  8
0
 10
211.00000094622399
 20
307.00499384663999
 30
0.0
 11
184.99999854713701
 21
307.00499384663988
 31
0.0
  0
LINE
  5
1865C
  8
0
 10
184.99999854713701
 20
303.0049931909889
 30
0.0
 11
211.00000094622399
 21
303.0049931909889
 31
0.0
  0
LINE
  5
1865D
  8
0
 10
219.000000394881
 20
329.0049930289386
 30
0.0
 11
219.000000394881
 21
328.0049930978567
 31
0.0
  0
LINE
  5
1867D
  8
1
 10
480.6114693529405
 20
315.50499314442283
 30
0.0
 11
179.99999854713701
 21
315.50499314442283
 31
0.0
  0
LINE
  5
1867E
  8
1
 10
195.00000038636949
 20
309.25499314442283
 30
0.0
 11
195.00000038636949
 21
321.75499314442283
 31
0.0
  0
LINE
  5
1867F
  8
1
 10
220.00000038636949
 20
309.25499314442283
 30
0.0
 11
220.00000038636949
 21
321.75499314442283
 31
0.0
  0
LINE
  5
18757
  8
1
 10
92.499999273568619
 20
179.9999985471359
 30
0.0
 11
92.499999273568619
 21
228.0049929395318
 31
0.0
  0
ARC
  5
1876D
  8
0
 10
108.4999996595588
 20
210.86134731460831
 30
0.0
 40
1.0
 50
90.0
 51
119.91076641755809
  0
LINE
  5
1877A
  8
1
 10
567.50146603105713
 20
179.99999854713681
 30
0.0
 11
567.50146603105713
 21
228.0049929395318
 31
0.0
  0
CIRCLE
  5
1877B
  8
0
 10
544.00146668767809
 20
201.03637073028619
 30
0.0
 40
4.0
  0
CIRCLE
  5
1877C
  8
3
 10
544.00146668767809
 20
201.03637073028619
 30
0.0
 40
3.3235000000000001
  0
LINE
  5
18780
  8
0
 10
595.00146634770681
 20
201.03663194924599
 30
0.0
 11
595.00146634770681
 21
201.03637117892509
 31
0.0
  0
LINE
  5
18781
  8
0
 10
587.0014659677272
 20
201.03637117892509
 30
0.0
 11
587.0014659677272
 21
201.03663194924599
 31
0.0
  0
LINE
  5
18782
  8
0
 10
583.00281677754765
 20
209.0313489362598
 30
0.0
 11
599.50146615399171
 21
209.0313489362598
 31
0.0
  0
LINE
  5
18783
  8
0
 10
599.50146615399171
 20
193.0313491076231
 30
0.0
 11
583.00281677754731
 21
193.0313491076231
 31
0.0
  0
LINE
  5
18784
  8
0
 10
600.0014662359481
 20
193.53134918957949
 30
0.0
 11
599.50146615399171
 21
193.0313491076231
 31
0.0
  0
LINE
  5
18785
  8
0
 10
599.50146615399171
 20
209.0313489362598
 30
0.0
 11
600.0014662359481
 21
208.5313479229809
 31
0.0
  0
LINE
  5
18786
  8
0
 10
597.50146582616605
 20
201.03637117892509
 30
0.0
 11
597.50146582616605
 21
201.03621471673259
 31
0.0
  0
LINE
  5
18787
  8
0
 10
599.50146615399171
 20
209.0313489362598
 30
0.0
 11
599.50146615399194
 21
193.03134910762341
 31
0.0
  0
LINE
  5
18788
  8
0
 10
583.00281677754731
 20
195.74141118675479
 30
0.0
 11
587.16924535935868
 21
195.74141118675479
 31
0.0
  0
LINE
  5
18789
  8
0
 10
594.83368672324468
 20
195.74141118675479
 30
0.0
 11
599.50146615399171
 21
195.74141118675479
 31
0.0
  0
LINE
  5
1878A
  8
0
 10
599.50146615399171
 20
206.32441516965631
 30
0.0
 11
594.84203323615839
 21
206.32441516965631
 31
0.0
  0
LINE
  5
1878B
  8
0
 10
587.16089861361445
 20
206.32441516965631
 30
0.0
 11
583.0028167775472
 21
206.32441516965631
 31
0.0
  0
LINE
  5
1878C
  8
0
 10
600.0014662359481
 20
195.9337637573482
 30
0.0
 11
599.50146615399171
 21
195.74141118675479
 31
0.0
  0
LINE
  5
1878D
  8
0
 10
600.0014662359481
 20
206.1318027600646
 30
0.0
 11
599.50146615399171
 21
206.32441516965631
 31
0.0
  0
LINE
  5
1878E
  8
0
 10
600.0014662359481
 20
208.5313479229809
 30
0.0
 11
600.0014662359481
 21
193.53134918957949
 31
0.0
  0
CIRCLE
  5
1878F
  8
0
 10
591.00146537443607
 20
201.03637073028619
 30
0.0
 40
6.50000000744632
  0
LINE
  5
18790
  8
0
 10
584.50146596539901
 20
197.28179078549161
 30
0.0
 11
584.50146596539901
 21
197.2834382951259
 31
0.0
  0
POLYLINE
  5
18791
  8
0
 66
     1
 10
0.0
 20
0.0
 30
0.0
 70
   128
  0
VERTEX
  5
1B131
  8
0
 10
584.50146596539901
 20
197.28179078549161
 30
0.0
  0
VERTEX
  5
1B132
  8
0
 10
586.0937328043965
 20
196.36238541454071
 30
0.0
  0
VERTEX
  5
1B133
  8
0
 10
587.75146609066178
 20
195.40525123476979
 30
0.0
  0
SEQEND
  5
1B134
  8
0
  0
POLYLINE
  5
18792
  8
0
 66
     1
 10
0.0
 20
0.0
 30
0.0
 70
   128
  0
VERTEX
  5
1B135
  8
0
 10
587.75146609066178
 20
195.40525123476979
 30
0.0
  0
VERTEX
  5
1B136
  8
0
 10
589.37646612418951
 20
194.46709647774711
 30
0.0
  0
VERTEX
  5
1B137
  8
0
 10
591.001466157717
 20
193.52901436388501
 30
0.0
  0
SEQEND
  5
1B138
  8
0
  0
LINE
  5
18793
  8
0
 10
591.001466157717
 20
193.52901436388501
 30
0.0
 11
591.001466157717
 21
193.53066187351939
 31
0.0
  0
LINE
  5
18794
  8
0
 10
587.75146609066178
 20
195.40704961866149
 30
0.0
 11
591.001466157717
 21
193.53066187351939
 31
0.0
  0
LINE
  5
18795
  8
0
 10
584.50146596539901
 20
197.2834382951259
 30
0.0
 11
587.75146609066178
 21
195.40704961866149
 31
0.0
  0
LINE
  5
18796
  8
0
 10
591.001466157717
 20
193.53066187351939
 30
0.0
 11
594.25146575911094
 21
195.40704961866149
 31
0.0
  0
POLYLINE
  5
18797
  8
0
 66
     1
 10
0.0
 20
0.0
 30
0.0
 70
   128
  0
VERTEX
  5
1B139
  8
0
 10
591.001466157717
 20
193.52901436388501
 30
0.0
  0
VERTEX
  5
1B13A
  8
0
 10
592.59373299671483
 20
194.4481999427081
 30
0.0
  0
VERTEX
  5
1B13B
  8
0
 10
594.25146575911094
 20
195.40525123476979
 30
0.0
  0
SEQEND
  5
1B13C
  8
0
  0
POLYLINE
  5
18798
  8
0
 66
     1
 10
0.0
 20
0.0
 30
0.0
 70
   128
  0
VERTEX
  5
1B13D
  8
0
 10
594.25146575911094
 20
195.40525123476979
 30
0.0
  0
VERTEX
  5
1B13E
  8
0
 10
595.87646625829984
 20
196.34348515421161
 30
0.0
  0
VERTEX
  5
1B13F
  8
0
 10
597.50146582616605
 20
197.28179078549161
 30
0.0
  0
SEQEND
  5
1B140
  8
0
  0
LINE
  5
18799
  8
0
 10
597.50146582616605
 20
197.28179078549161
 30
0.0
 11
597.50146582616605
 21
197.2834382951259
 31
0.0
  0
LINE
  5
1879A
  8
0
 10
594.25146575911094
 20
195.40704961866149
 30
0.0
 11
597.50146582616605
 21
197.2834382951259
 31
0.0
  0
LINE
  5
1879B
  8
0
 10
584.50146596539901
 20
201.03621471673259
 30
0.0
 11
584.50146596539901
 21
197.2834382951259
 31
0.0
  0
LINE
  5
1879C
  8
0
 10
597.50146582616605
 20
197.2834382951259
 30
0.0
 11
597.50146582616605
 21
201.03621471673259
 31
0.0
  0
LINE
  5
1879D
  8
0
 10
584.50146596539901
 20
204.78899206966159
 30
0.0
 11
587.71518898090471
 21
206.64443437010061
 31
0.0
  0
LINE
  5
1879E
  8
0
 10
584.50146596539901
 20
204.78899206966159
 30
0.0
 11
584.50146596539901
 21
201.03637117892509
 31
0.0
  0
LINE
  5
1879F
  8
0
 10
597.50146582616605
 20
204.78899206966159
 30
0.0
 11
594.28774263603725
 21
206.64443437010061
 31
0.0
  0
LINE
  5
187A0
  8
0
 10
597.50146582616605
 20
201.03637117892509
 30
0.0
 11
597.50146582616605
 21
204.78899206966159
 31
0.0
  0
LINE
  5
187A1
  8
0
 10
587.78787847502281
 20
206.686403490603
 30
0.0
 11
591.001466157717
 21
208.54176755994561
 31
0.0
  0
LINE
  5
187A2
  8
0
 10
594.21505384041143
 20
206.686403490603
 30
0.0
 11
591.001466157717
 21
208.54176755994561
 31
0.0
  0
CIRCLE
  5
187A3
  8
0
 10
591.00146537443607
 20
201.03637073028619
 30
0.0
 40
4.0
  0
CIRCLE
  5
187A4
  8
3
 10
591.00146537443607
 20
201.03637073028619
 30
0.0
 40
3.3235000000000001
  0
LINE
  5
187A5
  8
0
 10
575.51971823802376
 20
196.37677062302859
 30
0.0
 11
578.01971818214452
 21
196.37677062302859
 31
0.0
  0
LINE
  5
187A7
  8
0
 10
583.00281677754731
 20
218.9897707477212
 30
0.0
 11
583.0028167775472
 21
189.00999834761021
 31
0.0
  0
ARC
  5
187AA
  8
0
 10
551.50146538272327
 20
210.86134731460831
 30
0.0
 40
1.0
 50
60.089281649583612
 51
90.0
  0
LINE
  5
187AD
  8
1
 10
544.00146668767809
 20
211.54176755994561
 30
0.0
 11
544.00146668767809
 21
190.5309739006268
 31
0.0
  0
LINE
  5
187AE
  8
1
 10
533.4960698804199
 20
201.03705678232589
 30
0.0
 11
554.50686349493628
 21
201.03568467824641
 31
0.0
  0
LINE
  5
187B1
  8
1
 10
591.00146537443607
 20
211.54176755994561
 30
0.0
 11
591.00146537443607
 21
190.5309739006268
 31
0.0
  0
LINE
  5
187B2
  8
1
 10
580.49606856717787
 20
201.03705678232589
 30
0.0
 11
601.50686218169426
 21
201.03568467824641
 31
0.0
  0
ARC
  5
194B2
  8
0
 10
376.51278463432999
 20
217.19874742773951
 30
0.0
 40
4.8560849704617839
 50
94.719554140397051
 51
130.43452205537059
  0
ARC
  5
194B3
  8
0
 10
375.7136732219758
 20
217.1987480283174
 30
0.0
 40
4.8560849704617661
 50
49.565391822528291
 51
85.280359737490826
  0
LINE
  5
194B4
  8
0
 10
374.1132204281173
 20
208.3611930678772
 30
0.0
 11
374.1132204281173
 21
208.26119137510531
 31
0.0
  0
LINE
  5
194B5
  8
0
 10
378.11322108376839
 20
208.26118764981501
 30
0.0
 11
378.11322108376839
 21
208.36118934258701
 31
0.0
  0
LINE
  5
194BE
  8
0
 10
371.72519758809432
 20
208.26119510039561
 30
0.0
 11
371.36789009440758
 21
208.3611930678772
 31
0.0
  0
LINE
  5
194BF
  8
0
 10
369.7249849187217
 20
208.36119679316749
 30
0.0
 11
369.79000613559111
 21
208.26119510039561
 31
0.0
  0
LINE
  5
194F7
  8
0
 10
383.61322477925643
 20
211.46118593916171
 30
0.0
 11
388.7472559558235
 21
211.46118221387141
 31
0.0
  0
LINE
  5
194F8
  8
0
 10
388.7472559558235
 20
208.26118019923439
 30
0.0
 11
368.61323742863442
 21
208.26119544028211
 31
0.0
  0
ARC
  5
194F9
  8
0
 10
388.74725546212471
 20
209.8611808548317
 30
0.0
 40
1.600000000000247
 50
269.99995693893811
 51
89.999956938938126
  0
POLYLINE
  5
19506
  8
0
 66
     1
 10
0.0
 20
0.0
 30
0.0
 70
   128
  0
VERTEX
  5
1B141
  8
0
 10
368.61323163379052
 20
216.1111975978302
 30
0.0
  0
VERTEX
  5
1B142
  8
0
 10
368.77712205518111
 20
216.1111975978302
 30
0.0
  0
VERTEX
  5
1B143
  8
0
 10
369.26164076197961
 20
216.1111938725399
 30
0.0
  0
VERTEX
  5
1B144
  8
0
 10
370.04559830296847
 20
216.1111938725399
 30
0.0
  0
VERTEX
  5
1B145
  8
0
 10
371.09475180972441
 20
216.1111938725399
 30
0.0
  0
VERTEX
  5
1B146
  8
0
 10
372.36322805751178
 20
216.1111938725399
 30
0.0
  0
VERTEX
  5
1B147
  8
0
 10
373.7956021772705
 20
216.1111938725399
 30
0.0
  0
VERTEX
  5
1B148
  8
0
 10
375.32926694024422
 20
216.11119014724969
 30
0.0
  0
VERTEX
  5
1B149
  8
0
 10
376.89718947280272
 20
216.11119014724969
 30
0.0
  0
VERTEX
  5
1B14A
  8
0
 10
378.43085423577651
 20
216.11119014724969
 30
0.0
  0
VERTEX
  5
1B14B
  8
0
 10
379.86322835553511
 20
216.1111864219593
 30
0.0
  0
VERTEX
  5
1B14C
  8
0
 10
381.13170460332248
 20
216.1111864219593
 30
0.0
  0
VERTEX
  5
1B14D
  8
0
 10
382.18085811007842
 20
216.1111864219593
 30
0.0
  0
VERTEX
  5
1B14E
  8
0
 10
382.96481565106728
 20
216.1111864219593
 30
0.0
  0
VERTEX
  5
1B14F
  8
0
 10
383.44933435786589
 20
216.1111864219593
 30
0.0
  0
VERTEX
  5
1B150
  8
0
 10
383.61322477925643
 20
216.1111864219593
 30
0.0
  0
SEQEND
  5
1B151
  8
0
  0
POLYLINE
  5
19508
  8
0
 66
     1
 10
0.0
 20
0.0
 30
0.0
 70
   128
  0
VERTEX
  5
1B152
  8
0
 10
383.61323222983702
 20
219.11118505105259
 30
0.0
  0
VERTEX
  5
1B153
  8
0
 10
383.44933435786589
 20
219.11118505105259
 30
0.0
  0
VERTEX
  5
1B154
  8
0
 10
382.96482310164788
 20
219.11118505105259
 30
0.0
  0
VERTEX
  5
1B155
  8
0
 10
382.18085811007842
 20
219.11118505105259
 30
0.0
  0
VERTEX
  5
1B156
  8
0
 10
381.13171205390307
 20
219.11118505105259
 30
0.0
  0
VERTEX
  5
1B157
  8
0
 10
379.86322835553511
 20
219.1111887763428
 30
0.0
  0
VERTEX
  5
1B158
  8
0
 10
378.43085423577651
 20
219.1111887763428
 30
0.0
  0
VERTEX
  5
1B159
  8
0
 10
376.89719692338332
 20
219.1111887763428
 30
0.0
  0
VERTEX
  5
1B15A
  8
0
 10
375.32926694024422
 20
219.1111925016331
 30
0.0
  0
VERTEX
  5
1B15B
  8
0
 10
373.7956021772705
 20
219.1111925016331
 30
0.0
  0
VERTEX
  5
1B15C
  8
0
 10
372.36322805751178
 20
219.1111925016331
 30
0.0
  0
VERTEX
  5
1B15D
  8
0
 10
371.09475180972441
 20
219.1111925016331
 30
0.0
  0
VERTEX
  5
1B15E
  8
0
 10
370.04560575354913
 20
219.1111962269234
 30
0.0
  0
VERTEX
  5
1B15F
  8
0
 10
369.26164076197961
 20
219.1111962269234
 30
0.0
  0
VERTEX
  5
1B160
  8
0
 10
368.77712205518111
 20
219.1111962269234
 30
0.0
  0
VERTEX
  5
1B161
  8
0
 10
368.61323163379052
 20
219.1111962269234
 30
0.0
  0
SEQEND
  5
1B162
  8
0
  0
LINE
  5
1950D
  8
0
 10
383.61322477925643
 20
208.3611856172966
 30
0.0
 11
368.61322418320992
 21
208.36119679316749
 31
0.0
  0
LINE
  5
1950E
  8
0
 10
383.61322477925643
 20
208.3611856172966
 30
0.0
 11
383.61322477925643
 21
219.11118505105259
 31
0.0
  0
LINE
  5
1950F
  8
0
 10
368.61323163379052
 20
219.1111962269234
 30
0.0
 11
368.61322418320992
 21
208.36119679316749
 31
0.0
  0
CIRCLE
  5
196F3
  8
0
 10
376.1132319318138
 20
315.50499314442283
 30
0.0
 40
2.7500000000001128
  0
LINE
  5
1975E
  8
0
 10
368.61322418320981
 20
304.00364322820678
 30
0.0
 11
368.61322418320992
 21
304.9867409933359
 31
0.0
  0
LINE
  5
19762
  8
0
 10
368.61323163379052
 20
288.00499306060379
 30
0.0
 11
368.61323163379052
 21
300.003643387463
 31
0.0
  0
LINE
  5
19767
  8
0
 10
383.61323222983702
 20
304.98674099333579
 30
0.0
 11
383.61323222983702
 21
288.00499306060379
 31
0.0
  0
ARC
  5
19768
  8
0
 10
376.11323036546293
 20
288.00499307440941
 30
0.0
 40
7.5000000000509059
 50
179.99978469471671
 51
0.0002153052832366
  0
LINE
  5
1976C
  8
0
 10
371.61322281230309
 20
326.02324576117098
 30
0.0
 11
371.61322281230309
 21
326.50499285198748
 31
0.0
  0
LINE
  5
1976D
  8
0
 10
371.61322281230309
 20
326.50499285198748
 30
0.0
 11
383.61322477925643
 21
326.50499285198748
 31
0.0
  0
LINE
  5
1976E
  8
0
 10
383.61322477925643
 20
326.50499285198748
 30
0.0
 11
383.61322477925643
 21
326.02324576117098
 31
0.0
  0
LINE
  5
19813
  8
0
 10
368.61323163379052
 20
295.44136714380647
 30
0.0
 11
383.61323222983702
 21
295.44136714380647
 31
0.0
  0
LINE
  5
1996F
  8
0
 10
374.93801460135802
 20
90.17856623046103
 30
0.0
 11
373.99997964395328
 21
90.04014262011475
 31
0.0
  0
LINE
  5
19970
  8
0
 10
373.99997964395328
 20
89.282023264000784
 30
0.0
 11
375.04750088322982
 21
89.43660016171637
 31
0.0
  0
LINE
  5
19971
  8
0
 10
391.64019719231942
 20
87.088387636467786
 30
0.0
 11
388.46673414576873
 21
86.620090706273885
 31
0.0
  0
LINE
  5
19972
  8
0
 10
388.57622042764052
 20
85.878124637529226
 30
0.0
 11
391.74968347419122
 21
86.346421567723127
 31
0.0
  0
ARC
  5
19973
  8
0
 10
388.22950473997662
 20
88.227681435759465
 30
0.0
 40
1.6250000000018801
 50
247.04008890031261
 51
278.39435632342412
  0
ARC
  5
19974
  8
0
 10
388.22950473997707
 20
88.227681435759465
 30
0.0
 40
2.3750000000024678
 50
247.0400889002984
 51
278.39435632342412
  0
LINE
  5
19975
  8
0
 10
387.59561226237628
 20
86.731417281553135
 30
0.0
 11
383.61322477925643
 21
88.418552828952699
 31
0.0
  0
LINE
  5
19976
  8
0
 10
383.61322477925643
 20
87.604025555774555
 30
0.0
 11
387.30305031407693
 21
86.040834141895147
 31
0.0
  0
ARC
  5
19991
  8
0
 10
376.11322114270092
 20
92.49999934358172
 30
0.0
 40
2.2500000000082538
 50
200.07928420875689
 51
159.92071579124311
  0
LINE
  5
199FF
  8
0
 10
383.61322477925643
 20
100.5182519461959
 30
0.0
 11
383.61322477925643
 21
84.481746135279508
 31
0.0
  0
LINE
  5
19A00
  8
0
 10
383.61322477925643
 20
81.981746656820164
 30
0.0
 11
383.61322477925643
 21
81.499999566003709
 31
0.0
  0
LINE
  5
19A04
  8
0
 10
383.61322477925643
 20
119.9999993573874
 30
0.0
 11
383.61322477925643
 21
103.0182514246553
 31
0.0
  0
LINE
  5
19A05
  8
0
 10
383.61323222983702
 20
103.0182514246553
 30
0.0
 11
383.61323222983702
 21
119.9999993573874
 31
0.0
  0
LINE
  5
19A0A
  8
0
 10
383.61322477925643
 20
81.499999566003709
 30
0.0
 11
373.99997964395328
 21
81.499999566003709
 31
0.0
  0
ARC
  5
19A0E
  8
0
 10
376.1132281107914
 20
119.99999934358171
 30
0.0
 40
7.5000000000509059
 50
359.99978469471682
 51
179.99978469471671
  0
LINE
  5
19A0F
  8
0
 10
368.61323163379058
 20
108.00134932156649
 30
0.0
 11
368.61323163379052
 21
119.9999993573874
 31
0.0
  0
POLYLINE
  5
19A62
  8
0
 66
     1
 10
0.0
 20
0.0
 30
0.0
 70
   128
  0
VERTEX
  5
1B163
  8
0
 10
375.09174988139489
 20
89.822190059348927
 30
0.0
  0
VERTEX
  5
1B164
  8
0
 10
375.10516092646941
 20
89.679109109565587
 30
0.0
  0
VERTEX
  5
1B165
  8
0
 10
375.10146543849328
 20
89.555587796494336
 30
0.0
  0
VERTEX
  5
1B166
  8
0
 10
375.0812147604309
 20
89.470429522916646
 30
0.0
  0
VERTEX
  5
1B167
  8
0
 10
375.04750088322982
 20
89.43660016171637
 30
0.0
  0
VERTEX
  5
1B168
  8
0
 10
375.00544980634072
 20
89.459249926731019
 30
0.0
  0
VERTEX
  5
1B169
  8
0
 10
374.96146902907708
 20
89.534929199144273
 30
0.0
  0
VERTEX
  5
1B16A
  8
0
 10
374.92224917281487
 20
89.652117518708138
 30
0.0
  0
VERTEX
  5
1B16B
  8
0
 10
374.89376560319278
 20
89.792974470183225
 30
0.0
  0
VERTEX
  5
1B16C
  8
0
 10
374.88035455811843
 20
89.936055419966564
 30
0.0
  0
VERTEX
  5
1B16D
  8
0
 10
374.8840500460945
 20
90.059578595682964
 30
0.0
  0
VERTEX
  5
1B16E
  8
0
 10
374.90429327357629
 20
90.144736869260655
 30
0.0
  0
VERTEX
  5
1B16F
  8
0
 10
374.93801460135802
 20
90.17856623046103
 30
0.0
  0
VERTEX
  5
1B170
  8
0
 10
374.9800582276664
 20
90.155916465446381
 30
0.0
  0
VERTEX
  5
1B171
  8
0
 10
375.0240464555107
 20
90.080237193033128
 30
0.0
  0
VERTEX
  5
1B172
  8
0
 10
375.06326631177291
 20
89.963047010824056
 30
0.0
  0
VERTEX
  5
1B173
  8
0
 10
375.09174988139489
 20
89.822190059348927
 30
0.0
  0
SEQEND
  5
1B174
  8
0
  0
POLYLINE
  5
19A63
  8
0
 66
     1
 10
0.0
 20
0.0
 30
0.0
 70
   128
  0
VERTEX
  5
1B175
  8
0
 10
391.64019719231942
 20
87.088387636467786
 30
0.0
  0
VERTEX
  5
1B176
  8
0
 10
391.6443620668731
 20
87.060148073360295
 30
0.0
  0
VERTEX
  5
1B177
  8
0
 10
391.656230841764
 20
86.979728369042249
 30
0.0
  0
VERTEX
  5
1B178
  8
0
 10
391.67398557532653
 20
86.859373552724705
 30
0.0
  0
VERTEX
  5
1B179
  8
0
 10
391.69493660796502
 20
86.717404602095456
 30
0.0
  0
VERTEX
  5
1B17A
  8
0
 10
391.71588764060363
 20
86.575435651466236
 30
0.0
  0
VERTEX
  5
1B17B
  8
0
 10
391.73364982474658
 20
86.455080835148664
 30
0.0
  0
VERTEX
  5
1B17C
  8
0
 10
391.74551859963748
 20
86.374661130830617
 30
0.0
  0
VERTEX
  5
1B17D
  8
0
 10
391.74968347419122
 20
86.346421567723127
 30
0.0
  0
VERTEX
  5
1B17E
  8
0
 10
391.74551859963748
 20
86.374661130830617
 30
0.0
  0
VERTEX
  5
1B17F
  8
0
 10
391.73364982474658
 20
86.455080835148664
 30
0.0
  0
VERTEX
  5
1B180
  8
0
 10
391.71588764060363
 20
86.575435651466236
 30
0.0
  0
VERTEX
  5
1B181
  8
0
 10
391.69493660796502
 20
86.717404602095456
 30
0.0
  0
VERTEX
  5
1B182
  8
0
 10
391.67398557532653
 20
86.859373552724705
 30
0.0
  0
VERTEX
  5
1B183
  8
0
 10
391.656230841764
 20
86.979728369042249
 30
0.0
  0
VERTEX
  5
1B184
  8
0
 10
391.6443620668731
 20
87.060148073360295
 30
0.0
  0
VERTEX
  5
1B185
  8
0
 10
391.64019719231942
 20
87.088387636467786
 30
0.0
  0
SEQEND
  5
1B186
  8
0
  0
ARC
  5
19BE5
  8
0
 10
92.899554816928685
 20
217.1987927895882
 30
0.0
 40
4.8560849704944911
 50
94.719597201425614
 51
130.43456511623569
  0
ARC
  5
19BE6
  8
0
 10
92.100443404573994
 20
217.1987927895882
 30
0.0
 40
4.8560849704944911
 50
49.565434883780249
 51
85.280402798574372
  0
LINE
  5
19BE7
  8
0
 10
90.49999941140436
 20
218.39498717337861
 30
0.0
 11
90.49999941140436
 21
217.23938488181179
 31
0.0
  0
LINE
  5
19BE8
  8
0
 10
90.499999411404346
 20
216.52036554731589
 30
0.0
 11
90.499999411404346
 21
216.22578184638991
 31
0.0
  0
LINE
  5
19BE9
  8
0
 10
90.49999941140436
 20
215.5036100731264
 30
0.0
 11
90.49999941140436
 21
215.2358146091828
 31
0.0
  0
LINE
  5
19BEA
  8
0
 10
90.49999941140436
 20
214.53362989537911
 30
0.0
 11
90.49999941140436
 21
214.26631384667121
 31
0.0
  0
LINE
  5
19BEB
  8
0
 10
90.49999941140436
 20
213.5511061240374
 30
0.0
 11
90.49999941140436
 21
213.25801710391681
 31
0.0
  0
LINE
  5
19BEC
  8
0
 10
90.49999941140436
 20
212.5073632970452
 30
0.0
 11
90.49999941140436
 21
211.3612404838205
 31
0.0
  0
LINE
  5
19BED
  8
0
 10
94.499999135732878
 20
211.3612404838205
 30
0.0
 11
94.499999135732878
 21
212.199538834393
 31
0.0
  0
LINE
  5
19BEE
  8
0
 10
94.499999135732878
 20
212.8834434119974
 30
0.0
 11
94.499999135732878
 21
213.20025239139801
 31
0.0
  0
LINE
  5
19BEF
  8
0
 10
94.499999135732878
 20
213.88337144955659
 30
0.0
 11
94.499999135732878
 21
214.20000109821561
 31
0.0
  0
LINE
  5
19BF0
  8
0
 10
94.499999135732878
 20
214.88892324857889
 30
0.0
 11
94.499999135732878
 21
215.21844503456151
 31
0.0
  0
LINE
  5
19BF1
  8
0
 10
94.499999135732878
 20
215.9317097440362
 30
0.0
 11
94.499999135732878
 21
216.19785938411951
 31
0.0
  0
LINE
  5
19BF2
  8
0
 10
94.499999135732878
 20
216.9323748722673
 30
0.0
 11
94.499999135732878
 21
218.39498717337861
 31
0.0
  0
LINE
  5
19BF3
  8
0
 10
127.4999994225803
 20
216.11123520880949
 30
0.0
 11
127.4999994225803
 21
219.1112338379026
 31
0.0
  0
POLYLINE
  5
19BF4
  8
0
 66
     1
 10
0.0
 20
0.0
 30
0.0
 70
   128
  0
VERTEX
  5
1B187
  8
0
 10
88.841887600720156
 20
211.59234259277579
 30
0.0
  0
VERTEX
  5
1B188
  8
0
 10
88.77965662628435
 20
211.38066414743659
 30
0.0
  0
VERTEX
  5
1B189
  8
0
 10
88.728094883263338
 20
211.06329549103981
 30
0.0
  0
VERTEX
  5
1B18A
  8
0
 10
88.689668513834704
 20
210.70027712732551
 30
0.0
  0
VERTEX
  5
1B18B
  8
0
 10
88.664535842836131
 20
210.31084273010489
 30
0.0
  0
VERTEX
  5
1B18C
  8
0
 10
88.651774860918749
 20
209.86139390617609
 30
0.0
  0
SEQEND
  5
1B18D
  8
0
  0
ARC
  5
19BF5
  8
0
 10
100.89497981905809
 20
209.73650338154999
 30
0.0
 40
11.493639848046589
 50
171.8734680437075
 51
179.37740864704861
  0
LINE
  5
19BF7
  8
0
 10
89.516755603254069
 20
211.3612404838205
 30
0.0
 11
90.163657565935637
 21
211.64334052851291
 31
0.0
  0
LINE
  5
19BF8
  8
0
 10
89.898271895945527
 20
212.34503004699951
 30
0.0
 11
89.148432426154841
 21
212.01883245259521
 31
0.0
  0
POLYLINE
  5
19BF9
  8
0
 66
     1
 10
0.0
 20
0.0
 30
0.0
 70
   128
  0
VERTEX
  5
1B18E
  8
0
 10
90.163657565935608
 20
211.64334052851291
 30
0.0
  0
VERTEX
  5
1B18F
  8
0
 10
90.277724377811182
 20
211.66817832738161
 30
0.0
  0
VERTEX
  5
1B190
  8
0
 10
90.49999941140436
 20
211.69313777238131
 30
0.0
  0
SEQEND
  5
1B191
  8
0
  0
ARC
  5
19BFA
  8
0
 10
94.344691261825105
 20
214.7808442664213
 30
0.0
 40
2.789428081950867
 50
273.19172581652663
 51
285.0723781565917
  0
ARC
  5
19BFB
  8
0
 10
90.659885510941379
 20
212.8955017858575
 30
0.0
 40
2.5568580491939912
 50
93.585173395980874
 51
106.8567090864253
  0
POLYLINE
  5
19BFC
  8
0
 66
     1
 10
0.0
 20
0.0
 30
0.0
 70
   128
  0
VERTEX
  5
1B192
  8
0
 10
90.126907862723101
 20
217.28703740984199
 30
0.0
  0
VERTEX
  5
1B193
  8
0
 10
89.974860139191321
 20
217.3020093515515
 30
0.0
  0
VERTEX
  5
1B194
  8
0
 10
89.974860139191321
 20
217.3020093515515
 30
0.0
  0
SEQEND
  5
1B195
  8
0
  0
ARC
  5
19BFD
  8
0
 10
94.400316074519466
 20
215.27541607887241
 30
0.0
 40
2.2814659878587982
 50
272.50419577134932
 51
287.38291734531919
  0
ARC
  5
19BFE
  8
0
 10
90.015613549731256
 20
214.9663311264766
 30
0.0
 40
0.3885140812986063
 50
104.4828581342577
 51
257.26187679934299
  0
ARC
  5
19BFF
  8
0
 10
90.005420042087579
 20
215.9816072646355
 30
0.0
 40
0.3781435754064748
 50
101.5582364888085
 51
243.86800695748079
  0
ARC
  5
19C01
  8
0
 10
90.656028246818096
 20
213.6506706859781
 30
0.0
 40
2.797364235907378
 50
93.197451209994711
 51
105.050120062286
  0
POLYLINE
  5
19C02
  8
0
 66
     1
 10
0.0
 20
0.0
 30
0.0
 70
   128
  0
VERTEX
  5
1B196
  8
0
 10
90.6305726990106
 20
217.22637478262189
 30
0.0
  0
VERTEX
  5
1B197
  8
0
 10
90.364855192601908
 20
217.25285042077309
 30
0.0
  0
VERTEX
  5
1B198
  8
0
 10
90.126907862723101
 20
217.28703740984199
 30
0.0
  0
SEQEND
  5
1B199
  8
0
  0
ARC
  5
19C03
  8
0
 10
94.440021714320892
 20
258.27042866349149
 30
0.0
 40
41.220459249940212
 50
264.69736027738833
 51
266.77970678685381
  0
ARC
  5
19C04
  8
0
 10
91.866356298640056
 20
198.52042392703629
 30
0.0
 40
18.596426637774108
 50
80.037744111431763
 51
89.204763738700976
  0
ARC
  5
19C05
  8
0
 10
90.117881911261193
 20
216.93675486497639
 30
0.0
 40
0.3922576541628229
 50
111.3836945970301
 51
262.66311305892867
  0
ARC
  5
19C06
  8
0
 10
90.816779308408158
 20
218.73595338023881
 30
0.0
 40
2.5300811513647061
 50
250.0234834761601
 51
271.2594230367979
  0
POLYLINE
  5
19C07
  8
0
 66
     1
 10
0.0
 20
0.0
 30
0.0
 70
   128
  0
VERTEX
  5
1B19A
  8
0
 10
94.499999135732878
 20
215.0073609128595
 30
0.0
  0
VERTEX
  5
1B19B
  8
0
 10
94.932246431708563
 20
215.06858978420499
 30
0.0
  0
VERTEX
  5
1B19C
  8
0
 10
95.273611545562972
 20
215.21873015910401
 30
0.0
  0
VERTEX
  5
1B19D
  8
0
 10
95.348723642528384
 20
215.3313829377295
 30
0.0
  0
VERTEX
  5
1B19E
  8
0
 10
95.368375480175246
 20
215.39898205548531
 30
0.0
  0
VERTEX
  5
1B19F
  8
0
 10
95.374985076487292
 20
215.47223243862391
 30
0.0
  0
VERTEX
  5
1B1A0
  8
0
 10
95.367499105632646
 20
215.54523695260289
 30
0.0
  0
VERTEX
  5
1B1A1
  8
0
 10
95.346935503185136
 20
215.6123666837812
 30
0.0
  0
VERTEX
  5
1B1A2
  8
0
 10
95.270458087325324
 20
215.7232424989343
 30
0.0
  0
VERTEX
  5
1B1A3
  8
0
 10
94.930451773107279
 20
215.8699332550168
 30
0.0
  0
VERTEX
  5
1B1A4
  8
0
 10
94.275057725608676
 20
215.96399310976281
 30
0.0
  0
VERTEX
  5
1B1A5
  8
0
 10
93.489474095404375
 20
216.02793771773591
 30
0.0
  0
VERTEX
  5
1B1A6
  8
0
 10
92.637202180922259
 20
216.0852885618807
 30
0.0
  0
VERTEX
  5
1B1A7
  8
0
 10
92.138572074473132
 20
216.1162047460675
 30
0.0
  0
VERTEX
  5
1B1A8
  8
0
 10
91.579046510160296
 20
216.1523475125432
 30
0.0
  0
VERTEX
  5
1B1A9
  8
0
 10
90.99443297833227
 20
216.19565401226279
 30
0.0
  0
VERTEX
  5
1B1AA
  8
0
 10
90.872388742864359
 20
216.20648343116051
 30
0.0
  0
VERTEX
  5
1B1AB
  8
0
 10
90.872388742864359
 20
216.20648343116051
 30
0.0
  0
SEQEND
  5
1B1AC
  8
0
  0
ARC
  5
19C08
  8
0
 10
93.900380837358497
 20
209.08863931438009
 30
0.0
 40
5.149994493657708
 50
76.815914926104
 51
87.192421724767385
  0
ARC
  5
19C09
  8
0
 10
107.15454023417701
 20
394.21742922730789
 30
0.0
 40
180.4539871334913
 50
264.52269673624801
 51
265.86819751937998
  0
ARC
  5
19C0A
  8
0
 10
101.4872289634974
 20
344.2202564755973
 30
0.0
 40
129.19090035964049
 50
265.79041581603371
 51
267.20696874922118
  0
ARC
  5
19C0B
  8
0
 10
91.989121112137909
 20
224.25870260150339
 30
0.0
 40
8.8808292754696172
 50
255.9881391052553
 51
270.09578674328122
  0
ARC
  5
19C0C
  8
0
 10
94.314116248071755
 20
219.12123147472241
 30
0.0
 40
3.1319140148346438
 50
273.40257349421978
 51
283.48129617930027
  0
ARC
  5
19C0D
  8
0
 10
94.971347024648239
 20
216.46081016264989
 30
0.0
 40
0.392034895745085
 50
280.71755960381552
 51
73.37256051008157
  0
POLYLINE
  5
19C0E
  8
0
 66
     1
 10
0.0
 20
0.0
 30
0.0
 70
   128
  0
VERTEX
  5
1B1AD
  8
0
 10
94.07956566661619
 20
216.23440820723769
 30
0.0
  0
VERTEX
  5
1B1AE
  8
0
 10
94.441604278981913
 20
216.20479214936501
 30
0.0
  0
VERTEX
  5
1B1AF
  8
0
 10
94.722825512290228
 20
216.1714060977101
 30
0.0
  0
VERTEX
  5
1B1B0
  8
0
 10
94.913227893412454
 20
216.13807965070009
 30
0.0
  0
VERTEX
  5
1B1B1
  8
0
 10
95.000834614038695
 20
216.10631037503481
 30
0.0
  0
VERTEX
  5
1B1B2
  8
0
 10
95.086913577531135
 20
216.08619605274919
 30
0.0
  0
SEQEND
  5
1B1B3
  8
0
  0
ARC
  5
19C0F
  8
0
 10
82.601838028887073
 20
95.105314471883617
 30
0.0
 40
121.6716712339981
 50
84.587033931185957
 51
86.482037324482178
  0
ARC
  5
19C10
  8
0
 10
94.984385874974123
 20
212.46632978619061
 30
0.0
 40
0.3885140939497607
 50
282.73813090632012
 51
57.298710820544237
  0
ARC
  5
19C11
  8
0
 10
94.984857200882402
 20
213.47371258965089
 30
0.0
 40
0.3879061717601808
 50
284.49041938348131
 51
66.531358726709314
  0
ARC
  5
19C12
  8
0
 10
94.078148158085696
 20
209.736703146667
 30
0.0
 40
3.4982582739118269
 50
73.615674217705987
 51
89.154952690702544
  0
ARC
  5
19C13
  8
0
 10
85.235741686823189
 20
132.21316506006801
 30
0.0
 40
81.508116564649967
 50
83.73552730094525
 51
86.703813613189752
  0
POLYLINE
  5
19C14
  8
0
 66
     1
 10
0.0
 20
0.0
 30
0.0
 70
   128
  0
VERTEX
  5
1B1B4
  8
0
 10
94.499999135732878
 20
213.99956930428741
 30
0.0
  0
VERTEX
  5
1B1B5
  8
0
 10
94.561572596431006
 20
214.00574211031201
 30
0.0
  0
VERTEX
  5
1B1B6
  8
0
 10
94.920703619718779
 20
214.05627939850089
 30
0.0
  0
VERTEX
  5
1B1B7
  8
0
 10
95.083386115730065
 20
214.1054271534085
 30
0.0
  0
VERTEX
  5
1B1B8
  8
0
 10
95.083386115730065
 20
214.1054271534085
 30
0.0
  0
SEQEND
  5
1B1B9
  8
0
  0
ARC
  5
19C15
  8
0
 10
94.972734787789932
 20
214.47942127712031
 30
0.0
 40
0.3900196417436488
 50
286.48157915241808
 51
73.288917424083081
  0
ARC
  5
19C16
  8
0
 10
85.263106150577727
 20
136.42235914097151
 30
0.0
 40
77.013916830817152
 50
82.590903777341225
 51
86.548558852049482
  0
ARC
  5
19C17
  8
0
 10
90.699899544129934
 20
209.28185545472999
 30
0.0
 40
3.1663299684428119
 50
93.619665735811537
 51
104.6653236562415
  0
ARC
  5
19C18
  8
0
 10
93.727641387457879
 20
207.2135723822185
 30
0.0
 40
5.0467586024554496
 50
74.766999725025343
 51
89.457309025471304
  0
POLYLINE
  5
19C19
  8
0
 66
     1
 10
0.0
 20
0.0
 30
0.0
 70
   128
  0
VERTEX
  5
1B1BA
  8
0
 10
90.49999941140436
 20
213.4317084029318
 30
0.0
  0
VERTEX
  5
1B1BB
  8
0
 10
90.069545842707385
 20
213.3699319139123
 30
0.0
  0
VERTEX
  5
1B1BC
  8
0
 10
89.729540459811915
 20
213.2232411578299
 30
0.0
  0
VERTEX
  5
1B1BD
  8
0
 10
89.65306397527479
 20
213.11236906796699
 30
0.0
  0
VERTEX
  5
1B1BE
  8
0
 10
89.63250037282728
 20
213.04523561149841
 30
0.0
  0
VERTEX
  5
1B1BF
  8
0
 10
89.625014401972521
 20
212.9722348228097
 30
0.0
  0
VERTEX
  5
1B1C0
  8
0
 10
89.631624929607142
 20
212.8989844396711
 30
0.0
  0
VERTEX
  5
1B1C1
  8
0
 10
89.651275835931528
 20
212.83138159662491
 30
0.0
  0
VERTEX
  5
1B1C2
  8
0
 10
89.726387001574267
 20
212.71873254328969
 30
0.0
  0
VERTEX
  5
1B1C3
  8
0
 10
90.067752115428775
 20
212.56859216839081
 30
0.0
  0
VERTEX
  5
1B1C4
  8
0
 10
90.713600106537569
 20
212.47710648924109
 30
0.0
  0
VERTEX
  5
1B1C5
  8
0
 10
91.516122631728877
 20
212.4095222726464
 30
0.0
  0
VERTEX
  5
1B1C6
  8
0
 10
92.353010959923495
 20
212.35536400228739
 30
0.0
  0
VERTEX
  5
1B1C7
  8
0
 10
92.858387567103136
 20
212.3231886699796
 30
0.0
  0
VERTEX
  5
1B1C8
  8
0
 10
93.428463153541315
 20
212.28494483977559
 30
0.0
  0
VERTEX
  5
1B1C9
  8
0
 10
93.775442279875506
 20
212.2601046040655
 30
0.0
  0
SEQEND
  5
1B1CA
  8
0
  0
ARC
  5
19C1A
  8
0
 10
111.9263353113115
 20
416.99136320364352
 30
0.0
 40
203.85419668695209
 50
263.79675245084348
 51
265.27645543269739
  0
ARC
  5
19C1B
  8
0
 10
90.026578653611494
 20
213.9622722198369
 30
0.0
 40
0.3900426922300832
 50
106.3971870842128
 51
254.4872898755626
  0
ARC
  5
19C1C
  8
0
 10
90.551758043593168
 20
216.92975673001729
 30
0.0
 40
1.694732682384799
 50
248.8593397725229
 51
269.48829656981371
  0
ARC
  5
19C1D
  8
0
 10
100.23593783300829
 20
303.42322569212882
 30
0.0
 40
88.719917165791287
 50
263.72358715582709
 51
266.6715506578297
  0
POLYLINE
  5
19C1E
  8
0
 66
     1
 10
0.0
 20
0.0
 30
0.0
 70
   128
  0
VERTEX
  5
1B1CB
  8
0
 10
90.49999941140436
 20
214.4396564736962
 30
0.0
  0
VERTEX
  5
1B1CC
  8
0
 10
90.438176356256335
 20
214.43342033773669
 30
0.0
  0
VERTEX
  5
1B1CD
  8
0
 10
90.071948654949892
 20
214.3797314539552
 30
0.0
  0
VERTEX
  5
1B1CE
  8
0
 10
89.916471801698449
 20
214.3364510312679
 30
0.0
  0
SEQEND
  5
1B1CF
  8
0
  0
LINE
  5
19C1F
  8
0
 10
90.205053277313937
 20
217.3677570000292
 30
0.0
 11
90.026785098016489
 21
217.3677570000292
 31
0.0
  0
ARC
  5
19C20
  8
0
 10
90.226478233468129
 20
216.99275715942821
 30
0.0
 40
0.375000000002534
 50
43.164699288506128
 51
90.000000000091191
  0
LINE
  5
19C21
  8
0
 10
90.226477421820505
 20
217.3677570000292
 30
0.0
 11
90.205051414668787
 21
217.3677570000292
 31
0.0
  0
LINE
  5
19C22
  8
0
 10
90.226477421820505
 20
217.3677570000292
 30
0.0
 11
90.068033374846209
 21
217.3677570000292
 31
0.0
  0
LINE
  5
19C23
  8
0
 10
86.386125944555033
 20
216.6177517548204
 30
0.0
 11
89.889615736562831
 21
216.61775545943161
 31
0.0
  0
LINE
  5
19C24
  8
0
 10
90.068033374846209
 20
217.3677570000292
 30
0.0
 11
86.386124081909884
 21
217.36774954944849
 31
0.0
  0
ARC
  5
19C25
  8
0
 10
86.227681668590321
 20
216.99274945500269
 30
0.0
 40
0.375000000002534
 50
89.999999999908809
 51
270.00000000009118
  0
POLYLINE
  5
19C26
  8
0
 66
     1
 10
0.0
 20
0.0
 30
0.0
 70
   128
  0
VERTEX
  5
1B1D0
  8
0
 10
86.227681897580851
 20
216.61774802953011
 30
0.0
  0
VERTEX
  5
1B1D1
  8
0
 10
86.230190880596965
 20
216.61774802953011
 30
0.0
  0
VERTEX
  5
1B1D2
  8
0
 10
86.23771037906431
 20
216.61774802953011
 30
0.0
  0
VERTEX
  5
1B1D3
  8
0
 10
86.250221766531695
 20
216.61774802953011
 30
0.0
  0
VERTEX
  5
1B1D4
  8
0
 10
86.267693378031481
 20
216.61774802953011
 30
0.0
  0
VERTEX
  5
1B1D5
  8
0
 10
86.290082372725237
 20
216.61774802953011
 30
0.0
  0
VERTEX
  5
1B1D6
  8
0
 10
86.317331008613337
 20
216.6177517548204
 30
0.0
  0
VERTEX
  5
1B1D7
  8
0
 10
86.349372230470507
 20
216.6177517548204
 30
0.0
  0
VERTEX
  5
1B1D8
  8
0
 10
86.386125944555033
 20
216.6177517548204
 30
0.0
  0
SEQEND
  5
1B1D9
  8
0
  0
LINE
  5
19C27
  8
0
 10
86.386125944555033
 20
217.36774954944849
 30
0.0
 11
86.227681897580851
 21
217.36774954944849
 31
0.0
  0
LINE
  5
19C28
  8
0
 10
86.717406697571505
 20
217.36774582415819
 30
0.0
 11
86.249109767377604
 21
217.36774954944849
 31
0.0
  0
LINE
  5
19C29
  8
0
 10
86.249106042087405
 20
216.61774802953011
 30
0.0
 11
86.717402972281306
 21
216.61774802953011
 31
0.0
  0
LINE
  5
19C8D
  8
0
  6
CENTER
 62
     4
 10
109.685346108163
 20
211.8612414970994
 30
0.0
 11
109.6761241156788
 21
211.8457150832937
 31
0.0
  0
LINE
  5
19C8E
  8
0
 10
112.7164349332454
 20
217.1112409606576
 30
0.0
 11
109.685346108163
 21
211.8612414970994
 31
0.0
  0
ARC
  5
19C8F
  8
0
 10
116.1805366346412
 20
215.11124104826709
 30
0.0
 40
4.0000000000271037
 50
90.0
 51
149.99999999982819
  0
LINE
  5
19C90
  8
0
 10
127.4999994225803
 20
219.1112338379026
 30
0.0
 11
116.180536746979
 21
219.1112412884832
 31
0.0
  0
LINE
  5
19C91
  8
0
 10
116.180536746979
 20
216.11124265939
 30
0.0
 11
127.4999994225803
 21
216.11124265939
 31
0.0
  0
ARC
  5
19C92
  8
0
 10
116.1805366346412
 20
215.11124104826709
 30
0.0
 40
1.0000000000068321
 50
90.0
 51
149.99999999983771
  0
LINE
  5
19C93
  8
0
 10
112.28342232294401
 20
210.36124218255279
 30
0.0
 11
115.31451106071491
 21
215.61124164611101
 31
0.0
  0
ARC
  5
19C94
  8
0
 10
108.8193207024735
 20
212.3612410482678
 30
0.0
 40
4.000000000018642
 50
303.64637776909092
 51
329.99999999983118
  0
LINE
  5
19C9C
  8
0
 10
100.5182517133655
 20
211.3612404838205
 30
0.0
 11
89.516755603254154
 21
211.3612404838205
 31
0.0
  0
LINE
  5
19CA7
  8
0
 10
87.219998650253046
 20
211.3612404838205
 30
0.0
 11
87.219998650253046
 21
214.78496108204129
 31
0.0
  0
LINE
  5
19CA8
  8
0
 10
97.779999896884192
 20
214.78496108204129
 30
0.0
 11
97.779999896884192
 21
211.3612404838205
 31
0.0
  0
LINE
  5
19CA9
  8
0
 10
88.219998814165919
 20
215.78495938330889
 30
0.0
 11
89.682430608218667
 21
215.78495938330889
 31
0.0
  0
LINE
  5
19CAA
  8
0
 10
95.127407966502247
 20
215.78495938330889
 30
0.0
 11
96.779999732971419
 21
215.78495938330889
 31
0.0
  0
ARC
  5
19CAB
  8
0
 10
88.219999440415791
 20
214.78496116580499
 30
0.0
 40
1.0000000000068321
 50
90.0
 51
180.0
  0
ARC
  5
19CAC
  8
0
 10
96.779999440415736
 20
214.78496116580499
 30
0.0
 40
1.0000000000068321
 50
0.0
 51
90.0
  0
ARC
  5
19CBA
  8
0
 10
89.568951863189568
 20
211.39316758263729
 30
0.0
 40
0.7538521913636993
 50
123.90568341021149
 51
164.68000569338679
  0
LINE
  5
19E17
  8
0
 10
88.776500933585282
 20
211.3612404838205
 30
0.0
 11
84.481746833771439
 21
211.3612404838205
 31
0.0
  0
LINE
  5
1A06C
  8
0
 10
565.25146566225351
 20
206.839777417481
 30
0.0
 11
565.25146566225351
 21
206.33977640420201
 31
0.0
  0
LINE
  5
1A06D
  8
0
 10
569.75146639986076
 20
206.33977640420201
 30
0.0
 11
569.75146639986076
 21
206.839777417481
 31
0.0
  0
LINE
  5
1A06E
  8
0
 10
565.50146616889288
 20
215.28499189764261
 30
0.0
 11
565.50146616889288
 21
215.236954279244
 31
0.0
  0
LINE
  5
1A06F
  8
0
 10
565.50146616889288
 20
214.5074381306768
 30
0.0
 11
565.50146616889288
 21
214.23340729376619
 31
0.0
  0
LINE
  5
1A070
  8
0
 10
565.50146616889276
 20
213.57353745602589
 30
0.0
 11
565.50146616889288
 21
213.225856381536
 31
0.0
  0
LINE
  5
1A071
  8
0
 10
565.50146616889288
 20
212.50368463546761
 30
0.0
 11
565.50146616889288
 21
212.22291217102429
 31
0.0
  0
LINE
  5
1A072
  8
0
 10
565.50146616889288
 20
211.55649513419189
 30
0.0
 11
565.50146616889288
 21
210.8613177016378
 31
0.0
  0
LINE
  5
1A073
  8
0
 10
565.50146616889288
 20
207.86130789667371
 30
0.0
 11
565.50146616889288
 21
206.839777417481
 31
0.0
  0
LINE
  5
1A074
  8
0
 10
569.50146589322128
 20
206.839777417481
 30
0.0
 11
569.50146589322128
 21
207.86130789667371
 31
0.0
  0
LINE
  5
1A075
  8
0
 10
569.50146589322128
 20
210.8613177016378
 30
0.0
 11
569.50146589322128
 21
211.1676856535432
 31
0.0
  0
LINE
  5
1A076
  8
0
 10
569.50146589322128
 20
211.9412421062589
 30
0.0
 11
569.50146589322128
 21
212.21852202253081
 31
0.0
  0
LINE
  5
1A077
  8
0
 10
569.50146589322128
 20
212.93178562074911
 30
0.0
 11
569.50146589322139
 21
213.2161798373904
 31
0.0
  0
LINE
  5
1A078
  8
0
 10
569.50146589322128
 20
213.90767805286961
 30
0.0
 11
569.50146589322128
 21
214.1996136680246
 31
0.0
  0
LINE
  5
1A079
  8
0
 10
569.50146589322105
 20
214.90548180736971
 30
0.0
 11
569.50146589322128
 21
215.2095073272294
 31
0.0
  0
LINE
  5
1A07E
  8
0
 10
532.50146596099285
 20
219.11118877634291
 30
0.0
 11
532.50146596099285
 21
216.11118642195939
 31
0.0
  0
ARC
  5
1A08B
  8
0
 10
565.69865970111493
 20
214.40909939004521
 30
0.0
 40
2.1950626063418599
 50
249.8110828097586
 51
271.92124870471889
  0
POLYLINE
  5
1A08C
  8
0
 66
     1
 10
0.0
 20
0.0
 30
0.0
 70
   128
  0
VERTEX
  5
1B1DA
  8
0
 10
570.12458030028381
 20
211.83657262474301
 30
0.0
  0
VERTEX
  5
1B1DB
  8
0
 10
569.84569016737987
 20
211.90173540264371
 30
0.0
  0
VERTEX
  5
1B1DC
  8
0
 10
569.33317404134334
 20
211.96055773645639
 30
0.0
  0
VERTEX
  5
1B1DD
  8
0
 10
568.60979903383293
 20
212.01705921441331
 30
0.0
  0
VERTEX
  5
1B1DE
  8
0
 10
567.71035563094654
 20
212.07848180085421
 30
0.0
  0
VERTEX
  5
1B1DF
  8
0
 10
566.77291240437091
 20
212.137978412211
 30
0.0
  0
VERTEX
  5
1B1E0
  8
0
 10
565.89602935953201
 20
212.202921397984
 30
0.0
  0
VERTEX
  5
1B1E1
  8
0
 10
565.77225100142994
 20
212.2152707353234
 30
0.0
  0
SEQEND
  5
1B1E2
  8
0
  0
ARC
  5
1A08D
  8
0
 10
565.62054250607184
 20
210.03451522501001
 30
0.0
 40
2.4120568274632448
 50
92.829678702853684
 51
106.8860119841287
  0
ARC
  5
1A08E
  8
0
 10
569.40270838488698
 20
217.27029198600781
 30
0.0
 40
2.2762242497521572
 50
272.48664653612917
 51
287.39978606094218
  0
ARC
  5
1A08F
  8
0
 10
559.92849241893782
 20
123.6853717631073
 30
0.0
 40
91.721046099718436
 50
83.643700418200837
 51
86.516560974129419
  0
ARC
  5
1A090
  8
0
 10
565.72076724764827
 20
211.13728434053209
 30
0.0
 40
3.314886835324073
 50
93.79325463611822
 51
103.36591161460851
  0
ARC
  5
1A091
  8
0
 10
568.72911634079367
 20
209.21369380314169
 30
0.0
 40
5.046711930811858
 50
74.749805581067847
 51
89.457407632789995
  0
POLYLINE
  5
1A092
  8
0
 66
     1
 10
0.0
 20
0.0
 30
0.0
 70
   128
  0
VERTEX
  5
1B1E3
  8
0
 10
564.87395126266517
 20
215.28499189764261
 30
0.0
  0
VERTEX
  5
1B1E4
  8
0
 10
564.73100721730032
 20
215.2233197167516
 30
0.0
  0
VERTEX
  5
1B1E5
  8
0
 10
564.65452980144084
 20
215.11244390159851
 30
0.0
  0
VERTEX
  5
1B1E6
  8
0
 10
564.63396619899333
 20
215.0453141704202
 30
0.0
  0
VERTEX
  5
1B1E7
  8
0
 10
564.62648022813835
 20
214.97230965644121
 30
0.0
  0
VERTEX
  5
1B1E8
  8
0
 10
564.63308982445039
 20
214.89905927330261
 30
0.0
  0
VERTEX
  5
1B1E9
  8
0
 10
564.65274166209747
 20
214.83146015554681
 30
0.0
  0
VERTEX
  5
1B1EA
  8
0
 10
564.72785375906278
 20
214.71880737692129
 30
0.0
  0
VERTEX
  5
1B1EB
  8
0
 10
565.06921887291708
 20
214.56866700202229
 30
0.0
  0
VERTEX
  5
1B1EC
  8
0
 10
565.7150659327034
 20
214.4771813228727
 30
0.0
  0
VERTEX
  5
1B1ED
  8
0
 10
566.5175884578947
 20
214.409597106278
 30
0.0
  0
VERTEX
  5
1B1EE
  8
0
 10
567.35447864873447
 20
214.3554388359189
 30
0.0
  0
VERTEX
  5
1B1EF
  8
0
 10
567.85985339326908
 20
214.32326350361109
 30
0.0
  0
VERTEX
  5
1B1F0
  8
0
 10
568.42993084235252
 20
214.28501967340711
 30
0.0
  0
VERTEX
  5
1B1F1
  8
0
 10
568.77690810604145
 20
214.26017943769691
 30
0.0
  0
SEQEND
  5
1B1F2
  8
0
  0
ARC
  5
1A093
  8
0
 10
569.98585175489438
 20
214.46640834429391
 30
0.0
 40
0.38851408129859
 50
282.73812320071028
 51
75.517141865755804
  0
ARC
  5
1A094
  8
0
 10
570.00751858338924
 20
215.43721377664249
 30
0.0
 40
0.3473749262506993
 50
282.6148904724389
 51
334.01050847717943
  0
ARC
  5
1A095
  8
0
 10
569.07959281876595
 20
211.73652204911639
 30
0.0
 40
3.498514489456904
 50
73.616361772711429
 51
89.154667914118505
  0
POLYLINE
  5
1A096
  8
0
 66
     1
 10
0.0
 20
0.0
 30
0.0
 70
   128
  0
VERTEX
  5
1B1F3
  8
0
 10
568.43707781179012
 20
215.28499189764261
 30
0.0
  0
VERTEX
  5
1B1F4
  8
0
 10
569.10364959282936
 20
215.23712564259779
 30
0.0
  0
VERTEX
  5
1B1F5
  8
0
 10
569.13120742781223
 20
215.2346557751298
 30
0.0
  0
SEQEND
  5
1B1F6
  8
0
  0
ARC
  5
1A097
  8
0
 10
565.81822645871114
 20
215.73582807955191
 30
0.0
 40
2.5298804331522109
 50
250.02578544538761
 51
271.25994604044701
  0
POLYLINE
  5
1A098
  8
0
 66
     1
 10
0.0
 20
0.0
 30
0.0
 70
   128
  0
VERTEX
  5
1B1F7
  8
0
 10
569.50146589322128
 20
212.00744051486251
 30
0.0
  0
VERTEX
  5
1B1F8
  8
0
 10
569.93371318919708
 20
212.06866938620809
 30
0.0
  0
VERTEX
  5
1B1F9
  8
0
 10
570.27507830305137
 20
212.218809761107
 30
0.0
  0
VERTEX
  5
1B1FA
  8
0
 10
570.35018946869411
 20
212.33145881444219
 30
0.0
  0
VERTEX
  5
1B1FB
  8
0
 10
570.3698403750185
 20
212.3990616574884
 30
0.0
  0
VERTEX
  5
1B1FC
  8
0
 10
570.37645090265335
 20
212.472312040627
 30
0.0
  0
VERTEX
  5
1B1FD
  8
0
 10
570.36896493179836
 20
212.54531282931569
 30
0.0
  0
VERTEX
  5
1B1FE
  8
0
 10
570.34840132935085
 20
212.6124462857843
 30
0.0
  0
VERTEX
  5
1B1FF
  8
0
 10
570.27192484481373
 20
212.72331837564721
 30
0.0
  0
VERTEX
  5
1B200
  8
0
 10
569.93191946191826
 20
212.8700091317296
 30
0.0
  0
VERTEX
  5
1B201
  8
0
 10
569.2765235517744
 20
212.9640689864755
 30
0.0
  0
VERTEX
  5
1B202
  8
0
 10
568.4909399215702
 20
213.02800986915841
 30
0.0
  0
VERTEX
  5
1B203
  8
0
 10
567.63866800708809
 20
213.0853607133032
 30
0.0
  0
VERTEX
  5
1B204
  8
0
 10
567.14003790063896
 20
213.11628062278041
 30
0.0
  0
VERTEX
  5
1B205
  8
0
 10
566.58051233632602
 20
213.1524196639657
 30
0.0
  0
VERTEX
  5
1B206
  8
0
 10
565.9958988044981
 20
213.19572988897559
 30
0.0
  0
VERTEX
  5
1B207
  8
0
 10
565.87385456903041
 20
213.20655930787331
 30
0.0
  0
VERTEX
  5
1B208
  8
0
 10
565.87385456903041
 20
213.20655930787331
 30
0.0
  0
SEQEND
  5
1B209
  8
0
  0
ARC
  5
1A099
  8
0
 10
547.70354648607258
 20
7.6847711317277003
 30
0.0
 40
204.6471250537692
 50
83.780479805273458
 51
85.186107112371758
  0
ARC
  5
1A09A
  8
0
 10
576.49425305854299
 20
341.3112996758249
 30
0.0
 40
129.28203399769939
 50
265.79091859012749
 51
266.99363796252129
  0
ARC
  5
1A09B
  8
0
 10
566.99057195582907
 20
221.25841661255919
 30
0.0
 40
8.8804711606647384
 50
255.98765595700891
 51
270.09588727133428
  0
ARC
  5
1A09C
  8
0
 10
569.3155247147248
 20
216.1218443179215
 30
0.0
 40
3.1324497757577068
 50
273.40305893065272
 51
283.48004329412498
  0
ARC
  5
1A09E
  8
0
 10
569.97281288921215
 20
213.4608860854546
 30
0.0
 40
0.3920351070894628
 50
280.71768657523887
 51
73.372433538668403
  0
ARC
  5
1A09F
  8
0
 10
569.51601861632878
 20
215.8041212751055
 30
0.0
 40
1.8043051858640411
 50
269.53787271598651
 51
287.93115427685302
  0
ARC
  5
1A0A0
  8
0
 10
569.34020347966089
 20
211.56739663691951
 30
0.0
 40
1.6566507200319249
 50
65.303575522298942
 51
93.017088751266144
  0
ARC
  5
1A0A1
  8
0
 10
570.11777044634221
 20
242.62340406078519
 30
0.0
 40
29.41436749169204
 50
259.59531148444898
 51
268.31529954303801
  0
ARC
  5
1A0A2
  8
0
 10
565.01279479286393
 20
211.96967366857891
 30
0.0
 40
0.3842941301363354
 50
103.9861514530236
 51
249.3745216809896
  0
ARC
  5
1A0A3
  8
0
 10
565.00688410732084
 20
212.98168492939661
 30
0.0
 40
0.378141470792321
 50
101.5580293672228
 51
243.86799052789129
  0
ARC
  5
1A0A4
  8
0
 10
565.67367999949158
 20
210.5500783136078
 30
0.0
 40
2.8988014192180231
 50
93.405869401076799
 51
104.8424022248193
  0
ARC
  5
1A0A5
  8
0
 10
565.54365934049395
 20
215.5651780464371
 30
0.0
 40
1.332438967232358
 50
244.26567727421161
 51
271.32033992228293
  0
ARC
  5
1A0A6
  8
0
 10
562.70291272918155
 20
155.72161653193069
 30
0.0
 40
58.581892086571983
 50
82.760740199523852
 51
87.190465299815699
  0
ARC
  5
1A0A7
  8
0
 10
565.00546162888384
 20
213.99964608581641
 30
0.0
 40
0.3663035288374886
 50
98.002243946534463
 51
236.9231493494664
  0
LINE
  5
1A0A8
  8
0
 10
570.8530328784708
 20
211.5189096704126
 30
0.0
 11
570.12458030028381
 21
211.83657262474301
 31
0.0
  0
LINE
  5
1A0A9
  8
0
 10
569.87461662147689
 20
211.1273660862357
 30
0.0
 11
570.48471528930702
 21
210.8613139763475
 31
0.0
  0
LINE
  5
1A0AA
  8
0
 10
570.52559662504245
 20
206.2825075164437
 30
0.0
 11
571.20509516341735
 21
207.5712344422937
 31
0.0
  0
LINE
  5
1A0AB
  8
0
 10
570.51017392320693
 20
207.86130789667371
 30
0.0
 11
569.86216712636985
 21
206.632308550179
 31
0.0
  0
POLYLINE
  5
1A0AC
  8
0
 66
     1
 10
0.0
 20
0.0
 30
0.0
 70
   128
  0
VERTEX
  5
1B20A
  8
0
 10
571.22496399922431
 20
210.8613177016378
 30
0.0
  0
VERTEX
  5
1B20B
  8
0
 10
571.22180867834129
 20
210.8807413652539
 30
0.0
  0
VERTEX
  5
1B20C
  8
0
 10
571.15957770390548
 20
211.0924198105931
 30
0.0
  0
SEQEND
  5
1B20D
  8
0
  0
ARC
  5
1A0AE
  8
0
 10
570.93981765297826
 20
207.75139185450351
 30
0.0
 40
0.3145479375582652
 50
336.02802780224681
 51
20.243263329171771
  0
LINE
  5
1A105
  8
0
 10
551.18214464153198
 20
208.36118561729671
 30
0.0
 11
554.45815096016076
 21
208.36118561729671
 31
0.0
  0
LINE
  5
1A106
  8
0
 10
562.13652902176716
 20
207.86130789667371
 30
0.0
 11
572.86640350600828
 21
207.86130789667371
 31
0.0
  0
ARC
  5
1A107
  8
0
 10
551.1821446810992
 20
212.3611847133501
 30
0.0
 40
4.0000000000271037
 50
210.00000000017201
 51
270.0
  0
LINE
  5
1A108
  8
0
 10
544.68695432285813
 20
215.6111854086804
 30
0.0
 11
547.71804306062882
 21
210.3611859451224
 31
0.0
  0
ARC
  5
1A109
  8
0
 10
543.82092874893135
 20
215.11118471334919
 30
0.0
 40
1.0000000000067191
 50
30.00000000016874
 51
90.0
  0
LINE
  5
1A10A
  8
0
 10
532.50146596099285
 20
216.11118642195939
 30
0.0
 11
543.82092863659375
 21
216.11118642195939
 31
0.0
  0
LINE
  5
1A10B
  8
0
 10
543.82092863659375
 20
219.1111850510527
 30
0.0
 11
532.50146596099285
 21
219.1111850510527
 31
0.0
  0
ARC
  5
1A10C
  8
0
 10
543.82092874893135
 20
215.11118471334919
 30
0.0
 40
4.0000000000271037
 50
30.00000000016874
 51
90.0
  0
LINE
  5
1A10D
  8
0
 10
550.31611927541007
 20
211.86118525966879
 30
0.0
 11
547.28503045032744
 21
217.11118472322701
 31
0.0
  0
ARC
  5
1A10E
  8
0
 10
551.1821446810992
 20
212.3611847133501
 30
0.0
 40
1.0000000000068321
 50
210.00000000016871
 51
270.0
  0
LINE
  5
1A10F
  8
0
 10
572.78146688720335
 20
210.86130652576699
 30
0.0
 11
562.22146564057221
 21
210.86130652576699
 31
0.0
  0
LINE
  5
1A115
  8
0
 10
551.18214464153198
 20
211.36119542226081
 30
0.0
 11
554.50146599566665
 21
211.36119542226081
 31
0.0
  0
LINE
  5
1A119
  8
0
 10
563.22146580448486
 20
215.28499189764261
 30
0.0
 11
571.78146672329069
 21
215.28499189764261
 31
0.0
  0
ARC
  5
1A11C
  8
0
 10
555.50146609704075
 20
208.26660559058271
 30
0.0
 40
1.0000000000068321
 50
180.0
 51
270.0
  0
LINE
  5
1A11D
  8
0
 10
554.50146599566676
 20
208.2666045799852
 30
0.0
 11
554.50146599566676
 21
222.00499091297399
 31
0.0
  0
LINE
  5
1A11E
  8
0
 10
580.50146606644739
 20
208.2666045799852
 30
0.0
 11
580.50146606644751
 21
222.00523884222559
 31
0.0
  0
ARC
  5
1A11F
  8
0
 10
579.50146609704075
 20
208.26660559058271
 30
0.0
 40
1.0000000000068321
 50
270.0
 51
0.0
  0
LINE
  5
1A120
  8
0
 10
562.22146564057221
 20
208.2666045799852
 30
0.0
 11
562.22146564057221
 21
214.28499145632631
 31
0.0
  0
ARC
  5
1A121
  8
0
 10
561.22146609704066
 20
208.26660559058271
 30
0.0
 40
1.0000000000068321
 50
269.99999999998698
 51
0.0
  0
ARC
  5
1A122
  8
0
 10
573.78146609704072
 20
208.2666055905824
 30
0.0
 40
1.0000000000058109
 50
180.0
 51
270.0
  0
LINE
  5
1A123
  8
0
 10
572.78146688720335
 20
214.28499145632631
 30
0.0
 11
572.78146688720335
 21
208.2666045799852
 31
0.0
  0
ARC
  5
1A124
  8
0
 10
571.78146609704072
 20
214.28499145632631
 30
0.0
 40
1.0000000000067191
 50
0.0
 51
90.0
  0
ARC
  5
1A125
  8
0
 10
563.22146609704055
 20
214.28499145632631
 30
0.0
 40
1.0000000000067191
 50
90.0
 51
180.0
  0
LINE
  5
1A126
  8
0
 10
579.50146590253485
 20
223.0049929395318
 30
0.0
 11
555.50146615957976
 21
223.0049929395318
 31
0.0
  0
LINE
  5
1A129
  8
0
 10
573.78146518847086
 20
207.2666062787176
 30
0.0
 11
579.50146590253485
 21
207.2666062787176
 31
0.0
  0
LINE
  5
1A12A
  8
0
 10
555.50146615957976
 20
207.2666062787176
 30
0.0
 11
561.22146640798223
 21
207.2666062787176
 31
0.0
  0
ARC
  5
1A12B
  8
0
 10
555.50146609704075
 20
222.00499145632421
 30
0.0
 40
1.0000000000066049
 50
90.0
 51
180.0
  0
ARC
  5
1A12C
  8
0
 10
579.50146609704075
 20
222.00499145632421
 30
0.0
 40
1.0000000000066049
 50
0.0
 51
90.0
  0
ARC
  5
1A12D
  8
0
 10
555.50146609704075
 20
222.00503838362019
 30
0.0
 40
1.0000000000068321
 50
90.0
 51
180.0
  0
LINE
  5
1A12E
  8
0
 10
554.50146599566676
 20
222.00503934174779
 30
0.0
 11
554.50146599566676
 21
222.00499091297399
 31
0.0
  0
ARC
  5
1A12F
  8
0
 10
579.50146609704075
 20
222.00503838362019
 30
0.0
 40
1.0000000000068321
 50
0.0
 51
90.0
  0
LINE
  5
1A130
  8
0
 10
580.50146606644739
 20
222.00499091297399
 30
0.0
 11
580.50146606644739
 21
222.00503934174779
 31
0.0
  0
LINE
  5
1A131
  8
0
 10
555.50146615957976
 20
223.00503764301541
 30
0.0
 11
579.50146590253485
 21
223.00503764301541
 31
0.0
  0
LINE
  5
1A139
  8
0
 10
569.71381861611906
 20
212.2071943059556
 30
0.0
 11
570.05968821450926
 21
212.1240761538028
 31
0.0
  0
ARC
  5
1A13A
  8
0
 10
570.43251344144016
 20
210.89324480045769
 30
0.0
 40
0.7538521913589412
 50
15.31999430646856
 51
56.094316589917121
  0
POLYLINE
  5
1A13B
  8
0
 66
     1
 10
0.0
 20
0.0
 30
0.0
 70
   128
  0
VERTEX
  5
1B20E
  8
0
 10
570.17927501244606
 20
206.8188114836812
 30
0.0
  0
VERTEX
  5
1B20F
  8
0
 10
570.32235596222915
 20
206.79130021482709
 30
0.0
  0
VERTEX
  5
1B210
  8
0
 10
570.4458772753004
 20
206.71295735985041
 30
0.0
  0
VERTEX
  5
1B211
  8
0
 10
570.53103554887832
 20
206.59571129828689
 30
0.0
  0
VERTEX
  5
1B212
  8
0
 10
570.56486491007843
 20
206.45740989595649
 30
0.0
  0
VERTEX
  5
1B213
  8
0
 10
570.54221514506378
 20
206.31910476833579
 30
0.0
  0
VERTEX
  5
1B214
  8
0
 10
570.46653587265052
 20
206.2018587067723
 30
0.0
  0
VERTEX
  5
1B215
  8
0
 10
570.34934755308666
 20
206.1235158517957
 30
0.0
  0
VERTEX
  5
1B216
  8
0
 10
570.20849060161174
 20
206.0960045829415
 30
0.0
  0
VERTEX
  5
1B217
  8
0
 10
570.06540965182819
 20
206.1235158517957
 30
0.0
  0
VERTEX
  5
1B218
  8
0
 10
569.94188647611202
 20
206.2018587067723
 30
0.0
  0
VERTEX
  5
1B219
  8
0
 10
569.8567282025341
 20
206.31910476833579
 30
0.0
  0
VERTEX
  5
1B21A
  8
0
 10
569.82289884133377
 20
206.45740989595649
 30
0.0
  0
VERTEX
  5
1B21B
  8
0
 10
569.84554860634842
 20
206.59571129828689
 30
0.0
  0
VERTEX
  5
1B21C
  8
0
 10
569.92122787876167
 20
206.71295735985041
 30
0.0
  0
VERTEX
  5
1B21D
  8
0
 10
570.03841806097091
 20
206.79130021482709
 30
0.0
  0
VERTEX
  5
1B21E
  8
0
 10
570.17927501244606
 20
206.8188114836812
 30
0.0
  0
SEQEND
  5
1B21F
  8
0
  0
ARC
  5
1A13C
  8
0
 10
570.89557471698527
 20
207.73296677607749
 30
0.0
 40
0.3492280838518161
 50
332.41178349870802
 51
341.74880533511077
  0
LINE
  5
1A780
  8
0
 10
464.94082977841248
 20
207.26657817581091
 30
0.0
 11
470.00145783493872
 21
207.26657445052069
 31
0.0
  0
LINE
  5
1A781
  8
0
 10
475.61146190235968
 20
212.8765747926513
 30
0.0
 11
475.61147680352082
 21
222.00495908477711
 31
0.0
  0
LINE
  5
1A782
  8
0
 10
412.17137744496222
 20
209.80250249126351
 30
0.0
 11
413.09438517163147
 21
209.80250249126351
 31
0.0
  0
ARC
  5
1A783
  8
0
 10
470.0014609633763
 20
212.87658017642809
 30
0.0
 40
5.6100064140437018
 50
269.99995693893811
 51
359.99995693894471
  0
ARC
  5
1A784
  8
0
 10
413.0943841801481
 20
204.9125008331585
 30
0.0
 40
4.8900000000309163
 50
57.926586381899817
 51
89.999996842408009
  0
ARC
  5
1A785
  8
0
 10
421.05946587024681
 20
217.62302710090739
 30
0.0
 40
10.110000144404561
 50
237.9265863819306
 51
296.6738044965432
  0
ARC
  5
1A786
  8
0
 10
450.52514154542291
 20
217.37561870448241
 30
0.0
 40
10.11000002444222
 50
243.26004017759061
 51
298.7233826121572
  0
ARC
  5
1A787
  8
0
 10
457.73386291602333
 20
204.221367036891
 30
0.0
 40
4.8900000000005166
 50
61.284237110939848
 51
118.7233826121572
  0
ARC
  5
1A788
  8
0
 10
464.94083484779549
 20
217.37657726892169
 30
0.0
 40
10.110000022475321
 50
241.2842371109399
 51
269.99995693895119
  0
ARC
  5
1A789
  8
0
 10
435.00009546214068
 20
217.37458634779949
 30
0.0
 40
10.11000000001847
 50
241.28423713853931
 51
296.747579565487
  0
ARC
  5
1A78A
  8
0
 10
427.79312352233433
 20
204.21937608606271
 30
0.0
 40
4.8900000523707403
 50
61.284237138539297
 51
116.67380449655769
  0
ARC
  5
1A78B
  8
0
 10
442.76364283282618
 20
201.97037159261711
 30
0.0
 40
7.1400000000005894
 50
63.260040177590582
 51
116.7475795654869
  0
LINE
  5
1A78C
  8
0
 10
474.61147477696289
 20
223.00496111133489
 30
0.0
 11
412.17139234612341
 21
223.0050058148185
 31
0.0
  0
LINE
  5
1A78D
  8
0
 10
411.17139031956549
 20
222.00500751355091
 30
0.0
 11
411.1713754184043
 21
210.80250079253111
 31
0.0
  0
ARC
  5
1A78E
  8
0
 10
474.61147423792062
 20
222.0049596281273
 30
0.0
 40
1.0000000000000551
 50
359.99995693893811
 51
89.999956938938126
  0
ARC
  5
1A78F
  8
0
 10
412.17138936830651
 20
222.00500655542331
 30
0.0
 40
1.0000000000000551
 50
89.999956938951172
 51
179.99995693894459
  0
ARC
  5
1A790
  8
0
 10
412.17138094898257
 20
210.80250088405609
 30
0.0
 40
1.0000000000000551
 50
179.9999569389511
 51
269.99999684239498
  0
LINE
  5
1ACBB
  8
0
 10
552.00011668155082
 20
208.36118561729671
 30
0.0
 11
552.00011668155094
 21
189.00999834761021
 31
0.0
  0
LINE
  5
1ACC1
  8
0
 10
565.25146566225351
 20
206.33977640420201
 30
0.0
 11
569.75146639986076
 21
206.33977640420201
 31
0.0
  0
LINE
  5
1ACC2
  8
0
 10
569.75146639986076
 20
206.839777417481
 30
0.0
 11
565.25146566225351
 21
206.839777417481
 31
0.0
  0
LINE
  5
1ACCD
  8
0
 10
355.49895454198122
 20
73.018120867699508
 30
0.0
 11
353.46044469591828
 21
73.017589285910105
 31
0.0
  0
LINE
  5
1ACCE
  8
0
 10
353.46252633136419
 20
65.017588904749971
 30
0.0
 11
355.50104070454842
 21
65.018120487719898
 31
0.0
  0
LINE
  5
1ACCF
  8
0
 10
355.50104070454842
 20
65.018120487719898
 30
0.0
 11
356.0009150579574
 21
65.518250954836731
 31
0.0
  0
LINE
  5
1ACD0
  8
0
 10
355.99908221513027
 20
72.518250239580993
 30
0.0
 11
355.49895454198122
 21
73.018120867699508
 31
0.0
  0
POLYLINE
  5
1ACD1
  8
0
 66
     1
 10
0.0
 20
0.0
 30
0.0
 70
   128
  0
VERTEX
  5
1B220
  8
0
 10
355.50104070454842
 20
65.018120487719898
 30
0.0
  0
VERTEX
  5
1B221
  8
0
 10
355.500996001065
 20
65.1801482639612
 30
0.0
  0
VERTEX
  5
1B222
  8
0
 10
355.50087679177551
 20
65.653106463641052
 30
0.0
  0
VERTEX
  5
1B223
  8
0
 10
355.50068307667988
 20
66.398677682072162
 30
0.0
  0
VERTEX
  5
1B224
  8
0
 10
355.50042975693958
 20
67.356460062354927
 30
0.0
  0
VERTEX
  5
1B225
  8
0
 10
355.50014663487673
 20
68.448861395508175
 30
0.0
  0
VERTEX
  5
1B226
  8
0
 10
355.49984861165291
 20
69.587379959911232
 30
0.0
  0
VERTEX
  5
1B227
  8
0
 10
355.4995654895904
 20
70.679780361741905
 30
0.0
  0
VERTEX
  5
1B228
  8
0
 10
355.4993121698501
 20
71.637563673347358
 30
0.0
  0
VERTEX
  5
1B229
  8
0
 10
355.49911845475458
 20
72.38313396045578
 30
0.0
  0
VERTEX
  5
1B22A
  8
0
 10
355.4989992454648
 20
72.85609122881317
 30
0.0
  0
VERTEX
  5
1B22B
  8
0
 10
355.49895454198122
 20
73.018120867699508
 30
0.0
  0
VERTEX
  5
1B22C
  8
0
 10
355.49895454198122
 20
73.018120867699508
 30
0.0
  0
SEQEND
  5
1B22D
  8
0
  0
POLYLINE
  5
1ACD2
  8
0
 66
     1
 10
0.0
 20
0.0
 30
0.0
 70
   128
  0
VERTEX
  5
1B22E
  8
0
 10
356.0009150579574
 20
65.518250954836731
 30
0.0
  0
VERTEX
  5
1B22F
  8
0
 10
356.00090015679598
 20
65.557343219906215
 30
0.0
  0
VERTEX
  5
1B230
  8
0
 10
356.00081074982899
 20
65.864859414786338
 30
0.0
  0
VERTEX
  5
1B231
  8
0
 10
356.0006617382171
 20
66.452569594174747
 30
0.0
  0
VERTEX
  5
1B232
  8
0
 10
356.00045312196022
 20
67.26825077602291
 30
0.0
  0
VERTEX
  5
1B233
  8
0
 10
356.00019980221992
 20
68.239427437573909
 30
0.0
  0
VERTEX
  5
1B234
  8
0
 10
355.99993158131838
 20
69.279806954354171
 30
0.0
  0
VERTEX
  5
1B235
  8
0
 10
355.99966336041712
 20
70.296943453639869
 30
0.0
  0
VERTEX
  5
1B236
  8
0
 10
355.99942494183802
 20
71.200464186757927
 30
0.0
  0
VERTEX
  5
1B237
  8
0
 10
355.99924612790369
 20
71.910085422486191
 30
0.0
  0
VERTEX
  5
1B238
  8
0
 10
355.99912691861408
 20
72.362754759878044
 30
0.0
  0
VERTEX
  5
1B239
  8
0
 10
355.99908221513027
 20
72.518250239580993
 30
0.0
  0
VERTEX
  5
1B23A
  8
0
 10
355.99908221513027
 20
72.518250239580993
 30
0.0
  0
SEQEND
  5
1B23B
  8
0
  0
LINE
  5
1ACD3
  8
3
 10
353.46063052721451
 20
72.304986809938498
 30
0.0
 11
356.00006569176912
 21
72.304986809938498
 31
0.0
  0
LINE
  5
1ACD4
  8
3
 10
353.46236021658609
 20
65.65798680993845
 30
0.0
 11
356.00006569176912
 21
65.65798680993845
 31
0.0
  0
ENDSEC
  0
EOF
