  0
SECTION
  2
HEADER
  9
$ACADVER
  1
AC1009
  9
$INSBASE
 10
0.0
 20
0.0
 30
0.0
  9
$EXTMIN
 10
0.0
 20
-2.960436562073669
 30
0.0
  9
$EXTMAX
 10
614.2000000000117552
 20
307.0
 30
0.0
  9
$LIMMIN
 10
0.0
 20
0.0
  9
$LIMMAX
 10
375.0
 20
270.0
  9
$ORTHOMODE
 70
     1
  9
$REGENMODE
 70
     1
  9
$FILLMODE
 70
     1
  9
$QTEXTMODE
 70
     0
  9
$MIRRTEXT
 70
     0
  9
$DRAGMODE
 70
     2
  9
$LTSCALE
 40
10.0
  9
$OSMODE
 70
    37
  9
$ATTMODE
 70
     1
  9
$TEXTSIZE
 40
0.2
  9
$TRACEWID
 40
0.05
  9
$TEXTSTYLE
  7
K90
  9
$CLAYER
  8
0
  9
$CELTYPE
  6
BYLAYER
  9
$CECOLOR
 62
   256
  9
$DIMSCALE
 40
1.0
  9
$DIMASZ
 40
3.0
  9
$DIMEXO
 40
2.0
  9
$DIMDLI
 40
0.38
  9
$DIMRND
 40
0.0
  9
$DIMDLE
 40
0.0
  9
$DIMEXE
 40
2.0
  9
$DIMTP
 40
0.0
  9
$DIMTM
 40
0.0
  9
$DIMTXT
 40
3.2000000000000002
  9
$DIMCEN
 40
0.0
  9
$DIMTSZ
 40
0.0
  9
$DIMTOL
 70
     0
  9
$DIMLIM
 70
     0
  9
$DIMTIH
 70
     0
  9
$DIMTOH
 70
     0
  9
$DIMSE1
 70
     0
  9
$DIMSE2
 70
     0
  9
$DIMTAD
 70
     1
  9
$DIMZIN
 70
     8
  9
$DIMBLK
  1

  9
$DIMASO
 70
     1
  9
$DIMSHO
 70
     0
  9
$DIMPOST
  1

  9
$DIMAPOST
  1

  9
$DIMALT
 70
     0
  9
$DIMALTD
 70
     2
  9
$DIMALTF
 40
25.3999999999999986
  9
$DIMLFAC
 40
1.0
  9
$DIMTOFL
 70
     1
  9
$DIMTVP
 40
1.6000000000000001
  9
$DIMTIX
 70
     0
  9
$DIMSOXD
 70
     0
  9
$DIMSAH
 70
     0
  9
$DIMBLK1
  1

  9
$DIMBLK2
  1

  9
$DIMSTYLE
  2
STANDARD
  9
$DIMCLRD
 70
     0
  9
$DIMCLRE
 70
     0
  9
$DIMCLRT
 70
     0
  9
$DIMTFAC
 40
1.0
  9
$DIMGAP
 40
0.09
  9
$LUNITS
 70
     2
  9
$LUPREC
 70
     1
  9
$SKETCHINC
 40
0.1
  9
$FILLETRAD
 40
0.0
  9
$AUNITS
 70
     0
  9
$AUPREC
 70
     0
  9
$MENU
  1
E:\r13\win\SUPPORT\ACAD
  9
$ELEVATION
 40
0.0
  9
$PELEVATION
 40
0.0
  9
$THICKNESS
 40
0.0
  9
$LIMCHECK
 70
     0
  9
$BLIPMODE
 70
     0
  9
$CHAMFERA
 40
0.0
  9
$CHAMFERB
 40
0.0
  9
$SKPOLY
 70
     0
  9
$TDCREATE
 40
2449840.6031828699633479
  9
$TDUPDATE
 40
2460381.4557523149996996
  9
$TDINDWG
 40
0.2305837616
  9
$TDUSRTIMER
 40
0.2305837616
  9
$USRTIMER
 70
     1
  9
$ANGBASE
 50
0.0
  9
$ANGDIR
 70
     0
  9
$PDMODE
 70
     0
  9
$PDSIZE
 40
0.0
  9
$PLINEWID
 40
0.0
  9
$COORDS
 70
     1
  9
$SPLFRAME
 70
     0
  9
$SPLINETYPE
 70
     6
  9
$SPLINESEGS
 70
     8
  9
$ATTDIA
 70
     1
  9
$ATTREQ
 70
     1
  9
$HANDLING
 70
     1
  9
$HANDSEED
  5
3395
  9
$SURFTAB1
 70
     6
  9
$SURFTAB2
 70
     6
  9
$SURFTYPE
 70
     6
  9
$SURFU
 70
     6
  9
$SURFV
 70
     6
  9
$UCSNAME
  2

  9
$UCSORG
 10
0.0
 20
0.0
 30
0.0
  9
$UCSXDIR
 10
1.0
 20
0.0
 30
0.0
  9
$UCSYDIR
 10
0.0
 20
1.0
 30
0.0
  9
$PUCSNAME
  2

  9
$PUCSORG
 10
0.0
 20
0.0
 30
0.0
  9
$PUCSXDIR
 10
1.0
 20
0.0
 30
0.0
  9
$PUCSYDIR
 10
0.0
 20
1.0
 30
0.0
  9
$USERI1
 70
     0
  9
$USERI2
 70
     1
  9
$USERI3
 70
     1
  9
$USERI4
 70
     0
  9
$USERI5
 70
     0
  9
$USERR1
 40
0.0
  9
$USERR2
 40
0.0
  9
$USERR3
 40
0.0
  9
$USERR4
 40
0.0
  9
$USERR5
 40
0.0
  9
$WORLDVIEW
 70
     1
  9
$SHADEDGE
 70
     3
  9
$SHADEDIF
 70
    70
  9
$TILEMODE
 70
     1
  9
$MAXACTVP
 70
    16
  9
$PLIMCHECK
 70
     0
  9
$PEXTMIN
 10
1.0000000000000000E+20
 20
1.0000000000000000E+20
 30
1.0000000000000000E+20
  9
$PEXTMAX
 10
-1.0000000000000000E+20
 20
-1.0000000000000000E+20
 30
-1.0000000000000000E+20
  9
$PLIMMIN
 10
0.0
 20
0.0
  9
$PLIMMAX
 10
12.0
 20
9.0
  9
$UNITMODE
 70
     0
  9
$VISRETAIN
 70
     0
  9
$PLINEGEN
 70
     0
  9
$PSLTSCALE
 70
     0
  0
ENDSEC
  0
SECTION
  2
TABLES
  0
TABLE
  2
VPORT
 70
     1
  0
VPORT
  2
*ACTIVE
 70
     0
 10
0.0
 20
0.0
 11
1.0
 21
1.0
 12
587.130541871921082
 22
250.0
 13
0.0
 23
0.0
 14
10.0
 24
10.0
 15
10.0
 25
10.0
 16
0.0
 26
0.0
 36
1.0
 17
0.0
 27
0.0
 37
0.0
 40
500.0
 41
2.3485221674876842
 42
50.0
 43
0.0
 44
0.0
 50
0.0
 51
0.0
 71
     0
 72
   500
 73
     1
 74
     0
 75
     0
 76
     0
 77
     0
 78
     0
  0
ENDTAB
  0
TABLE
  2
LTYPE
 70
     4
  0
LTYPE
  2
CONTINUOUS
 70
     0
  3
Solid Line
 72
    65
 73
     0
 40
0.0
  0
LTYPE
  2
CENTER
 70
     0
  3
____ _ ____ _ ____ _ ____ _ ____ _ ____ _ ____
 72
    65
 73
     4
 40
2.0
 49
1.25
 49
-0.25
 49
0.25
 49
-0.25
  0
LTYPE
  2
HIDDEN
 70
     0
  3
_ _ _ _ _ _ _ _ _ _ _ _ _ _ _ _ _ _ _ _ _ _ _
 72
    65
 73
     2
 40
0.375
 49
0.25
 49
-0.125
  0
LTYPE
  2
PHANTOM2
 70
     0
  3
___ _ _ ___ _ _ ___ _ _ ___ _ _
 72
    65
 73
     6
 40
1.25
 49
0.625
 49
-0.125
 49
0.125
 49
-0.125
 49
0.125
 49
-0.125
  0
ENDTAB
  0
TABLE
  2
LAYER
 70
     5
  0
LAYER
  2
0
 70
     0
 62
     7
  6
CONTINUOUS
  0
LAYER
  2
1
 70
     0
 62
     1
  6
CENTER
  0
LAYER
  2
2
 70
     0
 62
     2
  6
HIDDEN
  0
LAYER
  2
DEFPOINTS
 70
     0
 62
     7
  6
CONTINUOUS
  0
LAYER
  2
3
 70
     0
 62
     3
  6
CONTINUOUS
  0
ENDTAB
  0
TABLE
  2
STYLE
 70
     3
  0
STYLE
  2
STANDARD
 70
     0
 40
0.0
 41
1.0
 50
0.0
 71
     0
 42
0.2
  3
romans.shx
  4

  0
STYLE
  2
K90
 70
     0
 40
0.0
 41
1.0
 50
0.0
 71
     0
 42
0.2
  3
romans.shx
  4

  0
STYLE
  2
STANDARD1
 70
     0
 40
0.0
 41
1.0
 50
0.0
 71
     0
 42
3.0
  3
txt
  4

  0
ENDTAB
  0
TABLE
  2
VIEW
 70
     1
  0
VIEW
  2
ALL
 70
     0
 40
179.538466448915301
 10
135.0
 20
89.7692332244576647
 41
0.0
 11
0.0
 21
0.0
 31
1.0
 12
0.0
 22
0.0
 32
0.0
 42
0.0
 43
0.0
 44
0.0
 50
0.0
 71
     0
  0
ENDTAB
  0
TABLE
  2
UCS
 70
     0
  0
ENDTAB
  0
TABLE
  2
APPID
 70
     7
  0
APPID
  2
ACAD
 70
     0
  0
APPID
  2
ACAD_MLEADERVER
 70
     0
  0
APPID
  2
ACAD_NAV_VCDISPLAY
 70
     0
  0
APPID
  2
ACAD_EXEMPT_FROM_CAD_STANDARDS
 70
     0
  0
APPID
  2
ACAD_DSTYLE_DIMRADIAL_EXTENSION
 70
     0
  0
APPID
  2
ACAD_DSTYLE_DIMJAG
 70
     0
  0
APPID
  2
ACAD_DSTYLE_DIMTALN
 70
     0
  0
ENDTAB
  0
TABLE
  2
DIMSTYLE
 70
     1
  0
DIMSTYLE
  2
STANDARD
 70
     0
  3

  4

  5

  6

  7

 40
1.0
 41
0.18
 42
0.0625
 43
0.38
 44
0.18
 45
0.0
 46
0.0
 47
0.0
 48
0.0
140
0.18
141
0.09
142
0.0
143
25.3999999999999986
144
1.0
145
0.0
146
1.0
147
0.09
 71
     0
 72
     0
 73
     1
 74
     1
 75
     0
 76
     0
 77
     0
 78
     0
170
     0
171
     2
172
     0
173
     0
174
     0
175
     0
176
     0
177
     0
178
     0
  0
ENDTAB
  0
ENDSEC
  0
SECTION
  2
BLOCKS
  0
BLOCK
  8
0
  2
$MODEL_SPACE
 70
     0
 10
0.0
 20
0.0
 30
0.0
  3
$MODEL_SPACE
  1

  0
ENDBLK
  5
2DF
  8
0
  0
BLOCK
 67
     1
  8
0
  2
$PAPER_SPACE
 70
     0
 10
0.0
 20
0.0
 30
0.0
  3
$PAPER_SPACE
  1

  0
ENDBLK
  5
2DB
 67
     1
  8
0
  0
ENDSEC
  0
SECTION
  2
ENTITIES
  0
TEXT
  5
67C
  8
0
 62
     3
 10
0.0
 20
0.0
 30
0.0
 40
10.0
  1
SSR-MP5000
  7
STANDARD1
  0
LINE
  5
1B66
  8
0
 10
135.9000000000000909
 20
179.9983901895554084
 30
0.0
 11
135.9000000000000909
 21
183.0
 31
0.0
  0
LINE
  5
1B67
  8
0
 10
135.9000000000000909
 20
163.0
 30
0.0
 11
135.9000000000000909
 21
166.0016098104445916
 31
0.0
  0
LINE
  5
1B68
  8
0
 10
72.8999999999999773
 20
166.0016098104445916
 30
0.0
 11
72.8999999999999773
 21
163.0
 31
0.0
  0
LINE
  5
1B69
  8
0
 10
72.8999999999999773
 20
183.0
 30
0.0
 11
72.8999999999999773
 21
179.9983901895554084
 31
0.0
  0
LINE
  5
1B6A
  8
0
 10
120.1500000000000057
 20
183.0
 30
0.0
 11
120.1500000000000057
 21
189.0
 31
0.0
  0
LINE
  5
1B6B
  8
0
 10
88.6499999999999773
 20
189.0
 30
0.0
 11
88.6499999999999773
 21
183.0
 31
0.0
  0
LINE
  5
1B88
  8
0
 10
135.149999999999892
 20
171.4793093674254862
 30
0.0
 11
135.149999999999892
 21
174.520690632574599
 31
0.0
  0
ARC
  5
1B89
  8
0
 10
168.0552427304484979
 20
173.1923736684217943
 30
0.0
 40
32.9498040729999104
 50
182.9801580874834883
 51
192.6053219012804902
  0
POLYLINE
  5
1B8A
  8
0
 66
     1
 10
0.0
 20
0.0
 30
0.0
 70
   128
  0
VERTEX
  5
3315
  8
0
 10
135.149999999999892
 20
174.520690632574599
 30
0.0
  0
VERTEX
  5
3316
  8
0
 10
135.2245942740080125
 20
175.6278531460498016
 30
0.0
  0
VERTEX
  5
3317
  8
0
 10
135.3332505078080032
 20
176.6899846854429939
 30
0.0
  0
VERTEX
  5
3318
  8
0
 10
135.4576243976526086
 20
177.6180118260641052
 30
0.0
  0
VERTEX
  5
3319
  8
0
 10
135.590551182566287
 20
178.4406325985391106
 30
0.0
  0
VERTEX
  5
331A
  8
0
 10
135.7118806691985071
 20
179.0978579060299865
 30
0.0
  0
VERTEX
  5
331B
  8
0
 10
135.8129746507844118
 20
179.5973461642410882
 30
0.0
  0
VERTEX
  5
331C
  8
0
 10
135.8765523483496054
 20
179.8937179909241877
 30
0.0
  0
VERTEX
  5
331D
  8
0
 10
135.8999936152515033
 20
179.999971268576104
 30
0.0
  0
VERTEX
  5
331E
  8
0
 10
135.8996444062391902
 20
179.9983901895554084
 30
0.0
  0
SEQEND
  5
331F
  8
0
  0
LINE
  5
1B8B
  8
0
 10
135.9000000000000909
 20
163.0
 30
0.0
 11
72.8999999999999773
 21
163.0
 31
0.0
  0
POLYLINE
  5
1B8C
  8
0
 66
     1
 10
0.0
 20
0.0
 30
0.0
 70
   128
  0
VERTEX
  5
3320
  8
0
 10
73.6499999999999773
 20
171.4793093674254862
 30
0.0
  0
VERTEX
  5
3321
  8
0
 10
73.5754057259920131
 20
170.3721468539501984
 30
0.0
  0
VERTEX
  5
3322
  8
0
 10
73.4667494921919797
 20
169.3100153145570914
 30
0.0
  0
VERTEX
  5
3323
  8
0
 10
73.3423756023473743
 20
168.3819881739358948
 30
0.0
  0
VERTEX
  5
3324
  8
0
 10
73.2094488174337812
 20
167.5593674014610031
 30
0.0
  0
VERTEX
  5
3325
  8
0
 10
73.088119330801419
 20
166.9021420939700135
 30
0.0
  0
VERTEX
  5
3326
  8
0
 10
72.9870253492155143
 20
166.4026538357589118
 30
0.0
  0
VERTEX
  5
3327
  8
0
 10
72.9234476516504628
 20
166.1062820090758123
 30
0.0
  0
VERTEX
  5
3328
  8
0
 10
72.9000063847483943
 20
166.000028731423896
 30
0.0
  0
VERTEX
  5
3329
  8
0
 10
72.9003555937607644
 20
166.0016098104445916
 30
0.0
  0
SEQEND
  5
332A
  8
0
  0
LINE
  5
1B8D
  8
0
 10
73.6499999999999773
 20
174.5206906325745138
 30
0.0
 11
73.6499999999999773
 21
171.4793093674254862
 31
0.0
  0
ARC
  5
1B8E
  8
0
 10
40.7447572695601821
 20
172.8076263315793142
 30
0.0
 40
32.9498040729911708
 50
2.980158087481505
 51
12.6053219012811493
  0
LINE
  5
1B8F
  8
0
 10
135.9000000000000909
 20
183.0
 30
0.0
 11
72.8999999999999773
 21
183.0
 31
0.0
  0
LINE
  5
1B90
  8
0
 10
120.1500000000000057
 20
189.0
 30
0.0
 11
88.6499999999999773
 21
189.0
 31
0.0
  0
LINE
  5
1BDF
  8
2
 10
120.1500000000000057
 20
169.5
 30
0.0
 11
88.6499999999999773
 21
169.5
 31
0.0
  0
LINE
  5
1C26
  8
2
 10
120.1500000000000057
 20
163.0
 30
0.0
 11
120.1500000000000057
 21
169.5
 31
0.0
  0
LINE
  5
1C27
  8
2
 10
88.6499999999999773
 20
169.5
 30
0.0
 11
88.6499999999999773
 21
163.0
 31
0.0
  0
CIRCLE
  5
1CC0
  8
0
 10
80.8999999999999773
 20
270.5
 30
0.0
 40
6.8000000000000114
  0
CIRCLE
  5
1CC1
  8
0
 10
127.8999999999999062
 20
270.5
 30
0.0
 40
6.8000000000000114
  0
CIRCLE
  5
1CC2
  8
0
 10
104.4000000000000057
 20
270.5
 30
0.0
 40
15.75
  0
CIRCLE
  5
1CC3
  8
0
 10
104.4000000000000057
 20
295.5
 30
0.0
 40
2.9999999999999711
  0
CIRCLE
  5
1CC4
  8
0
 10
104.4000000000000057
 20
245.5
 30
0.0
 40
3.0
  0
CIRCLE
  5
1CC5
  8
0
 10
86.7223304703362743
 20
288.1776695296636035
 30
0.0
 40
3.1999999999999882
  0
CIRCLE
  5
1CC6
  8
0
 10
122.077669529663595
 20
252.8223304703363112
 30
0.0
 40
3.1999999999999882
  0
CIRCLE
  5
1CC7
  8
0
 10
122.077669529663595
 20
288.1776695296636035
 30
0.0
 40
3.1999999999999882
  0
CIRCLE
  5
1CC8
  8
0
 10
86.7223304703362743
 20
252.8223304703363112
 30
0.0
 40
3.1999999999999882
  0
CIRCLE
  5
1CCB
  8
0
 10
104.4000000000000057
 20
270.5
 30
0.0
 40
31.5
  0
CIRCLE
  5
1CCC
  8
0
 10
80.8999999999999773
 20
270.5
 30
0.0
 40
3.1999999999999602
  0
CIRCLE
  5
1CCD
  8
0
 10
80.8999999999999773
 20
270.5
 30
0.0
 40
5.0
  0
CIRCLE
  5
1CCE
  8
0
 10
127.8999999999999062
 20
270.5
 30
0.0
 40
3.1999999999999602
  0
CIRCLE
  5
1CCF
  8
0
 10
127.8999999999999062
 20
270.5
 30
0.0
 40
5.0
  0
CIRCLE
  5
1DD4
  8
0
 10
104.4000000000000057
 20
56.4999999999999929
 30
0.0
 40
2.9999999999999778
  0
CIRCLE
  5
1DD5
  8
0
 10
104.4000000000000057
 20
106.5
 30
0.0
 40
2.9999999999999849
  0
CIRCLE
  5
1DD6
  8
0
 10
86.7223304703362743
 20
63.822330470336297
 30
0.0
 40
3.1999999999999811
  0
CIRCLE
  5
1DD7
  8
0
 10
122.077669529663595
 20
99.1776695296636888
 30
0.0
 40
3.199999999999974
  0
CIRCLE
  5
1DD8
  8
0
 10
122.077669529663595
 20
63.822330470336297
 30
0.0
 40
3.1999999999999811
  0
CIRCLE
  5
1DD9
  8
0
 10
86.7223304703362743
 20
99.1776695296636888
 30
0.0
 40
3.199999999999974
  0
CIRCLE
  5
1DDA
  8
0
 10
104.4000000000000057
 20
81.5
 30
0.0
 40
15.75
  0
CIRCLE
  5
1DDB
  8
0
 10
104.4000000000000057
 20
81.5
 30
0.0
 40
31.5000000000000107
  0
LINE
  5
1F23
  8
0
 10
248.9000000000000909
 20
163.0
 30
0.0
 11
248.9000000000000909
 21
183.0
 31
0.0
  0
LINE
  5
1F24
  8
0
 10
185.9000000000000909
 20
183.0
 30
0.0
 11
185.9000000000000909
 21
163.0
 31
0.0
  0
LINE
  5
1F25
  8
0
 10
233.1500000000000909
 20
183.0
 30
0.0
 11
233.1500000000000909
 21
189.0
 31
0.0
  0
LINE
  5
1F26
  8
0
 10
201.6500000000000909
 20
189.0
 30
0.0
 11
201.6500000000000909
 21
183.0
 31
0.0
  0
LINE
  5
1F4A
  8
0
 10
248.9000000000000909
 20
163.0
 30
0.0
 11
185.9000000000000909
 21
163.0
 31
0.0
  0
LINE
  5
1F4B
  8
0
 10
248.9000000000000909
 20
183.0
 30
0.0
 11
185.9000000000000909
 21
183.0
 31
0.0
  0
LINE
  5
1F4C
  8
0
 10
233.1500000000000909
 20
189.0
 30
0.0
 11
201.6500000000000909
 21
189.0
 31
0.0
  0
LINE
  5
1F79
  8
2
 10
233.1500000000000909
 20
169.5
 30
0.0
 11
201.6500000000000909
 21
169.5
 31
0.0
  0
LINE
  5
1FA8
  8
2
 10
233.1500000000000909
 20
163.0
 30
0.0
 11
233.1500000000000909
 21
169.5
 31
0.0
  0
LINE
  5
1FA9
  8
2
 10
201.6500000000000909
 20
169.5
 30
0.0
 11
201.6500000000000909
 21
163.0
 31
0.0
  0
LINE
  5
1FB8
  8
0
 10
361.8999999999999204
 20
179.9983901895554084
 30
0.0
 11
361.8999999999999204
 21
183.0
 31
0.0
  0
LINE
  5
1FB9
  8
0
 10
361.8999999999999204
 20
163.0
 30
0.0
 11
361.8999999999999204
 21
166.0016098104445916
 31
0.0
  0
LINE
  5
1FBA
  8
0
 10
298.9000000000000909
 20
166.0016098104445916
 30
0.0
 11
298.9000000000000909
 21
163.0
 31
0.0
  0
LINE
  5
1FBB
  8
0
 10
298.9000000000000909
 20
183.0
 30
0.0
 11
298.9000000000000909
 21
179.9983901895554084
 31
0.0
  0
LINE
  5
1FBC
  8
0
 10
346.1499999999999204
 20
183.0
 30
0.0
 11
346.1499999999999204
 21
189.0
 31
0.0
  0
LINE
  5
1FBD
  8
0
 10
314.6500000000000909
 20
189.0
 30
0.0
 11
314.6500000000000909
 21
183.0
 31
0.0
  0
POLYLINE
  5
1FDA
  8
0
 66
     1
 10
0.0
 20
0.0
 30
0.0
 70
   128
  0
VERTEX
  5
332B
  8
0
 10
299.6500000000000909
 20
171.4793093674254862
 30
0.0
  0
VERTEX
  5
332C
  8
0
 10
299.5754057259919136
 20
170.3721468539501984
 30
0.0
  0
VERTEX
  5
332D
  8
0
 10
299.4667494921919229
 20
169.3100153145570914
 30
0.0
  0
VERTEX
  5
332E
  8
0
 10
299.3423756023473743
 20
168.3819881739358948
 30
0.0
  0
VERTEX
  5
332F
  8
0
 10
299.2094488174337243
 20
167.5593674014610031
 30
0.0
  0
VERTEX
  5
3330
  8
0
 10
299.088119330801419
 20
166.9021420939700135
 30
0.0
  0
VERTEX
  5
3331
  8
0
 10
298.9870253492154006
 20
166.4026538357589118
 30
0.0
  0
VERTEX
  5
3332
  8
0
 10
298.923447651650406
 20
166.1062820090758123
 30
0.0
  0
VERTEX
  5
3333
  8
0
 10
298.9000063847483943
 20
166.000028731423896
 30
0.0
  0
VERTEX
  5
3334
  8
0
 10
298.9003555937607075
 20
166.0016098104445916
 30
0.0
  0
SEQEND
  5
3335
  8
0
  0
LINE
  5
1FDB
  8
0
 10
299.6500000000000909
 20
174.5206906325745138
 30
0.0
 11
299.6500000000000909
 21
171.4793093674254862
 31
0.0
  0
ARC
  5
1FDC
  8
0
 10
266.7447572695583062
 20
172.8076263315792005
 30
0.0
 40
32.9498040729930608
 50
2.980158087481902
 51
12.6053219012810906
  0
LINE
  5
1FDD
  8
0
 10
361.8999999999999204
 20
163.0
 30
0.0
 11
298.9000000000000909
 21
163.0
 31
0.0
  0
LINE
  5
1FDF
  8
0
 10
361.1499999999999204
 20
171.4793093674254862
 30
0.0
 11
361.1499999999999204
 21
174.520690632574599
 31
0.0
  0
ARC
  5
1FE0
  8
0
 10
394.0552427304504022
 20
173.1923736684219932
 30
0.0
 40
32.9498040730018005
 50
182.9801580874834031
 51
192.6053219012806892
  0
POLYLINE
  5
1FE1
  8
0
 66
     1
 10
0.0
 20
0.0
 30
0.0
 70
   128
  0
VERTEX
  5
3336
  8
0
 10
361.1499999999999204
 20
174.520690632574599
 30
0.0
  0
VERTEX
  5
3337
  8
0
 10
361.224594274007984
 20
175.6278531460498868
 30
0.0
  0
VERTEX
  5
3338
  8
0
 10
361.3332505078080885
 20
176.6899846854429939
 30
0.0
  0
VERTEX
  5
3339
  8
0
 10
361.4576243976525802
 20
177.6180118260641052
 30
0.0
  0
VERTEX
  5
333A
  8
0
 10
361.590551182566287
 20
178.4406325985391106
 30
0.0
  0
VERTEX
  5
333B
  8
0
 10
361.7118806691984787
 20
179.0978579060301001
 30
0.0
  0
VERTEX
  5
333C
  8
0
 10
361.812974650784497
 20
179.5973461642410882
 30
0.0
  0
VERTEX
  5
333D
  8
0
 10
361.8765523483496054
 20
179.8937179909241877
 30
0.0
  0
VERTEX
  5
333E
  8
0
 10
361.899993615251617
 20
179.999971268576104
 30
0.0
  0
VERTEX
  5
333F
  8
0
 10
361.8996444062393039
 20
179.9983901895554084
 30
0.0
  0
SEQEND
  5
3340
  8
0
  0
LINE
  5
1FE2
  8
0
 10
361.8999999999999204
 20
183.0000000000001137
 30
0.0
 11
298.9000000000000909
 21
183.0
 31
0.0
  0
LINE
  5
1FE4
  8
0
 10
346.1499999999999204
 20
189.0
 30
0.0
 11
314.6500000000000909
 21
189.0
 31
0.0
  0
LINE
  5
2022
  8
2
 10
346.1499999999999204
 20
169.5
 30
0.0
 11
314.6500000000000909
 21
169.5
 31
0.0
  0
LINE
  5
2074
  8
2
 10
346.1499999999999204
 20
163.0
 30
0.0
 11
346.1499999999999204
 21
169.5
 31
0.0
  0
LINE
  5
2075
  8
2
 10
314.6500000000000909
 20
169.5
 30
0.0
 11
314.6500000000000909
 21
163.0
 31
0.0
  0
LINE
  5
267B
  8
1
 10
104.4000000000000057
 20
307.0
 30
0.0
 11
104.4000000000000057
 21
234.0
 31
0.0
  0
LINE
  5
267C
  8
1
 10
67.8999999999999773
 20
270.5
 30
0.0
 11
140.899999999999892
 21
270.5
 31
0.0
  0
CIRCLE
  5
26CA
  8
1
 10
104.4000000000000057
 20
270.5
 30
0.0
 40
25.0
  0
LINE
  5
26CB
  8
1
 10
80.8999999999999773
 20
260.6999999999999886
 30
0.0
 11
80.8999999999999773
 21
280.3000000000000114
 31
0.0
  0
LINE
  5
26CC
  8
1
 10
127.8999999999999062
 20
260.6999999999999886
 30
0.0
 11
127.8999999999999062
 21
280.3000000000000114
 31
0.0
  0
LINE
  5
26E9
  8
1
 10
126.4617315730202023
 20
292.5617315730203245
 30
0.0
 11
117.6936074863068029
 21
283.7936074863072236
 31
0.0
  0
LINE
  5
26EA
  8
1
 10
82.3382684269796528
 20
292.5617315730203245
 30
0.0
 11
91.1063925136928674
 21
283.7936074863069962
 31
0.0
  0
LINE
  5
26FC
  8
1
 10
91.1063925136927537
 20
257.2063925136930038
 30
0.0
 11
82.3382684269796528
 21
248.4382684269797892
 31
0.0
  0
LINE
  5
26FD
  8
1
 10
117.6936074863071013
 20
257.2063925136930038
 30
0.0
 11
126.4617315730202023
 21
248.4382684269797892
 31
0.0
  0
CIRCLE
  5
278D
  8
1
 10
104.4000000000000057
 20
81.5
 30
0.0
 40
25.0
  0
LINE
  5
278E
  8
1
 10
104.4000000000000057
 20
118.0
 30
0.0
 11
104.4000000000000057
 21
44.9999999999999929
 31
0.0
  0
LINE
  5
278F
  8
1
 10
67.8999999999999773
 20
81.5
 30
0.0
 11
140.899999999999892
 21
81.5
 31
0.0
  0
LINE
  5
27C0
  8
1
 10
126.4617315730202023
 20
103.5617315730202961
 30
0.0
 11
117.6936074863069024
 21
94.7936074863071951
 31
0.0
  0
LINE
  5
27C1
  8
1
 10
82.3382684269796528
 20
103.5617315730202961
 30
0.0
 11
91.1063925136928674
 21
94.7936074863070957
 31
0.0
  0
LINE
  5
27C6
  8
1
 10
117.6936074863069024
 20
68.2063925136928901
 30
0.0
 11
126.4617315730202023
 21
59.4382684269796897
 31
0.0
  0
LINE
  5
27C7
  8
1
 10
91.1063925136927537
 20
68.2063925136929186
 30
0.0
 11
82.3382684269796528
 21
59.4382684269796897
 31
0.0
  0
LINE
  5
2816
  8
1
 10
104.4000000000001052
 20
194.0
 30
0.0
 11
104.4000000000001052
 21
158.0
 31
0.0
  0
LINE
  5
296F
  8
1
 10
217.4000000000000909
 20
194.0
 30
0.0
 11
217.4000000000000909
 21
158.0
 31
0.0
  0
LINE
  5
29FA
  8
1
 10
330.3999999999998067
 20
194.0
 30
0.0
 11
330.3999999999998067
 21
158.0
 31
0.0
  0
LINE
  5
2C0E
  8
0
 10
418.2999999999998977
 20
179.4999999999998863
 30
0.0
 11
418.0
 21
179.4999999999998863
 31
0.0
  0
LINE
  5
2C0F
  8
0
 10
418.0
 20
166.5
 30
0.0
 11
418.2999999999998977
 21
166.5
 31
0.0
  0
LINE
  5
2C10
  8
0
 10
418.0
 20
178.9999999999998863
 30
0.0
 11
417.6999999999999886
 21
178.9999999999998863
 31
0.0
  0
LINE
  5
2C11
  8
0
 10
417.6999999999999886
 20
167.0
 30
0.0
 11
418.0
 21
167.0
 31
0.0
  0
LINE
  5
2C12
  8
0
 10
423.2999999999998977
 20
178.25000000006861
 30
0.0
 11
422.9999999999732836
 21
177.7250000000076113
 31
0.0
  0
LINE
  5
2C13
  8
0
 10
422.9999999999732836
 20
168.2749999999923034
 30
0.0
 11
423.2999999999998977
 21
167.74999999993139
 31
0.0
  0
LINE
  5
2C14
  8
0
 10
429.0599999999998886
 20
178.2499999999998863
 30
0.0
 11
423.2999999999998977
 21
178.2499999999998863
 31
0.0
  0
LINE
  5
2C15
  8
0
 10
423.2999999999998977
 20
167.75
 30
0.0
 11
429.0599999999998886
 21
167.75
 31
0.0
  0
LINE
  5
2C16
  8
0
 10
429.0599999999998886
 20
167.7499999999326974
 30
0.0
 11
429.5041790538950863
 21
168.1941790538276962
 31
0.0
  0
LINE
  5
2C17
  8
0
 10
429.5041790538950863
 20
177.8058209461723038
 30
0.0
 11
429.0599999999998886
 21
178.2500000000673026
 31
0.0
  0
LINE
  5
2C18
  8
0
 10
423.0
 20
179.4999999999998863
 30
0.0
 11
422.7305627488066762
 21
180.50555351090469
 31
0.0
  0
LINE
  5
2C19
  8
0
 10
422.7305627488066762
 20
165.4944464890951963
 30
0.0
 11
423.0
 21
166.5
 31
0.0
  0
CIRCLE
  5
2C1A
  8
0
 10
433.4999999999998863
 20
172.9999999999998863
 30
0.0
 40
3.0
  0
CIRCLE
  5
2C1B
  8
0
 10
433.4999999999998863
 20
172.9999999999998863
 30
0.0
 40
5.9000000000000048
  0
CIRCLE
  5
2C1C
  8
0
 10
433.4999999999998863
 20
172.9999999999998863
 30
0.0
 40
6.2499999999999707
  0
LINE
  5
2C1D
  8
0
 10
427.3305186603736274
 20
171.9999999999998863
 30
0.0
 11
425.9038820320221816
 21
171.9999999999998863
 31
0.0
  0
ARC
  5
2C1E
  8
0
 10
420.75
 20
172.9999999999998863
 30
0.0
 40
5.249999999999992
 50
349.0194245723865833
 51
10.9805754276133598
  0
LINE
  5
2C1F
  8
0
 10
425.9038820320221816
 20
173.9999999999998863
 30
0.0
 11
427.3305186603736274
 21
173.9999999999998863
 31
0.0
  0
LINE
  5
2C20
  8
0
 10
418.2999999999998977
 20
176.7527767497325897
 30
0.0
 11
422.7305627488066762
 21
176.75277677261181
 31
0.0
  0
POLYLINE
  5
2C21
  8
0
 66
     1
 10
0.0
 20
0.0
 30
0.0
 70
   128
  0
VERTEX
  5
3341
  8
0
 10
422.7305627127258845
 20
176.752776791067987
 30
0.0
  0
VERTEX
  5
3342
  8
0
 10
422.9282541140536864
 20
174.8848251454286924
 30
0.0
  0
VERTEX
  5
3343
  8
0
 10
423.0
 20
172.9999999999998863
 30
0.0
  0
SEQEND
  5
3344
  8
0
  0
POLYLINE
  5
2C22
  8
0
 66
     1
 10
0.0
 20
0.0
 30
0.0
 70
   128
  0
VERTEX
  5
3345
  8
0
 10
423.0
 20
172.9999999999998863
 30
0.0
  0
VERTEX
  5
3346
  8
0
 10
422.9288824031208947
 20
171.1236116734480106
 30
0.0
  0
VERTEX
  5
3347
  8
0
 10
422.7305627648177051
 20
169.2472233468961065
 30
0.0
  0
SEQEND
  5
3348
  8
0
  0
LINE
  5
2C23
  8
0
 10
418.2999999999998977
 20
169.2472232502674103
 30
0.0
 11
422.7305627488066762
 21
169.2472232617070063
 31
0.0
  0
LINE
  5
2C24
  8
0
 10
422.7305627488066762
 20
180.50555351090469
 30
0.0
 11
418.2999999999998977
 21
180.5055534994650088
 31
0.0
  0
POLYLINE
  5
2C25
  8
0
 66
     1
 10
0.0
 20
0.0
 30
0.0
 70
   128
  0
VERTEX
  5
3349
  8
0
 10
422.7305627457415085
 20
180.505553522344286
 30
0.0
  0
VERTEX
  5
334A
  8
0
 10
422.9282541140561875
 20
179.5715776972967035
 30
0.0
  0
VERTEX
  5
334B
  8
0
 10
423.0
 20
178.6291651245988987
 30
0.0
  0
SEQEND
  5
334C
  8
0
  0
POLYLINE
  5
2C26
  8
0
 66
     1
 10
0.0
 20
0.0
 30
0.0
 70
   128
  0
VERTEX
  5
334D
  8
0
 10
423.0
 20
178.6291651245988987
 30
0.0
  0
VERTEX
  5
334E
  8
0
 10
422.9288824031208947
 20
177.6909709613229893
 30
0.0
  0
VERTEX
  5
334F
  8
0
 10
422.7305627648177051
 20
176.7527767980469946
 30
0.0
  0
SEQEND
  5
3350
  8
0
  0
POLYLINE
  5
2C27
  8
0
 66
     1
 10
0.0
 20
0.0
 30
0.0
 70
   128
  0
VERTEX
  5
3351
  8
0
 10
422.7305627127258845
 20
169.2472233071709127
 30
0.0
  0
VERTEX
  5
3352
  8
0
 10
422.9282541140536864
 20
168.3132474481155043
 30
0.0
  0
VERTEX
  5
3353
  8
0
 10
423.0
 20
167.3708348754011013
 30
0.0
  0
SEQEND
  5
3354
  8
0
  0
POLYLINE
  5
2C28
  8
0
 66
     1
 10
0.0
 20
0.0
 30
0.0
 70
   128
  0
VERTEX
  5
3355
  8
0
 10
423.0
 20
167.3708348754011013
 30
0.0
  0
VERTEX
  5
3356
  8
0
 10
422.9288824031208947
 20
166.4326407121251918
 30
0.0
  0
VERTEX
  5
3357
  8
0
 10
422.7305627648177051
 20
165.4944465488493108
 30
0.0
  0
SEQEND
  5
3358
  8
0
  0
LINE
  5
2C29
  8
0
 10
422.7305627488066762
 20
165.4944464890951963
 30
0.0
 11
418.2999999999998977
 21
165.4944465005349059
 31
0.0
  0
LINE
  5
2C2A
  8
0
 10
418.2999999999998977
 20
165.4944465005349059
 30
0.0
 11
418.2999999999998977
 21
180.5055534994650088
 31
0.0
  0
LINE
  5
2C2B
  8
0
 10
417.6999999999999886
 20
166.5
 30
0.0
 11
417.6999999999999886
 21
179.4999999999998863
 31
0.0
  0
LINE
  5
2C2C
  8
0
 10
417.9999999999997158
 20
179.5
 30
0.0
 11
418.0
 21
166.5
 31
0.0
  0
LINE
  5
2C2D
  8
0
 10
423.2999999999998977
 20
178.25000000006861
 30
0.0
 11
423.2999999999998977
 21
167.75
 31
0.0
  0
LINE
  5
2C2E
  8
0
 10
429.0599999999998886
 20
177.3987384555119888
 30
0.0
 11
429.0599999999998886
 21
178.2499999999998863
 31
0.0
  0
LINE
  5
2C2F
  8
0
 10
429.0599999999998886
 20
167.75
 30
0.0
 11
429.0599999999998886
 21
168.6012615444880112
 31
0.0
  0
CIRCLE
  5
2C30
  8
0
 10
433.4999999999998863
 20
172.9999999999998863
 30
0.0
 40
2.0999999999995111
  0
LINE
  5
2C31
  8
0
 10
423.0
 20
166.5
 30
0.0
 11
423.0
 21
179.4999999999996874
 31
0.0
  0
LINE
  5
2C32
  8
0
 10
422.9999999999997158
 20
227.3055535051908862
 30
0.0
 11
418.0
 21
227.3055535051909999
 31
0.0
  0
LINE
  5
2C33
  8
0
 10
418.0
 20
214.3055535051909999
 30
0.0
 11
423.0
 21
214.3055535051909999
 31
0.0
  0
LINE
  5
2C34
  8
0
 10
417.6999999999999886
 20
227.3055535051909999
 30
0.0
 11
416.3999999999999773
 21
227.3055535051909999
 31
0.0
  0
LINE
  5
2C35
  8
0
 10
416.3999999999999773
 20
214.3055535051909999
 30
0.0
 11
417.6999999999999886
 21
214.3055535051909999
 31
0.0
  0
LINE
  5
2C36
  8
0
 10
439.7500000000463274
 20
215.9555535051908066
 30
0.0
 11
437.3749999999935767
 21
218.3305535051869981
 31
0.0
  0
LINE
  5
2C37
  8
0
 10
439.7499999999998863
 20
206.5055535051909033
 30
0.0
 11
439.7499999999998863
 21
215.9555535051908066
 31
0.0
  0
LINE
  5
2C38
  8
0
 10
427.2499999999998863
 20
214.3055535051909999
 30
0.0
 11
427.2499999999998863
 21
206.5055535051909033
 31
0.0
  0
LINE
  5
2C39
  8
0
 10
427.2499999999994884
 20
206.5055535051909033
 30
0.0
 11
427.3548155585676227
 21
204.5055535051899085
 31
0.0
  0
LINE
  5
2C3A
  8
0
 10
439.6451844414323205
 20
204.5055535051899085
 30
0.0
 11
439.7500000000003979
 21
206.5055535051909033
 31
0.0
  0
LINE
  5
2C3B
  8
0
 10
416.3999999999999773
 20
226.8055535051909999
 30
0.0
 11
416.0999999999999091
 21
226.8055535051909999
 31
0.0
  0
LINE
  5
2C3C
  8
0
 10
416.0999999999999091
 20
214.8055535051909999
 30
0.0
 11
416.3999999999999773
 21
214.8055535051909999
 31
0.0
  0
LINE
  5
2C3D
  8
0
 10
418.0
 20
226.8055535051909999
 30
0.0
 11
417.6999999999999886
 21
226.8055535051909999
 31
0.0
  0
LINE
  5
2C3E
  8
0
 10
417.6999999999999886
 20
214.8055535051909999
 30
0.0
 11
418.0
 21
214.8055535051909999
 31
0.0
  0
LINE
  5
2C3F
  8
0
 10
439.3999999999998067
 20
201.131823581267696
 30
0.0
 11
439.3999999999998067
 21
202.0055535051909885
 31
0.0
  0
LINE
  5
2C40
  8
0
 10
427.6000000000000796
 20
202.0055535051909885
 30
0.0
 11
427.6000000000000796
 21
201.131823581267696
 31
0.0
  0
ARC
  5
2C41
  8
0
 10
439.2000000000008981
 20
201.131823581267696
 30
0.0
 40
0.1999999999990565
 50
280.0000000000051728
 51
0.0
  0
ARC
  5
2C42
  8
0
 10
427.7999999999989882
 20
201.131823581267696
 30
0.0
 40
0.1999999999990791
 50
180.0
 51
259.9999999999815259
  0
LINE
  5
2C43
  8
0
 10
439.250000000034504
 20
203.7555535052075868
 30
0.0
 11
439.1500000000028194
 21
203.8555535052394134
 31
0.0
  0
LINE
  5
2C44
  8
0
 10
427.8499999999971237
 20
203.8555535052394134
 30
0.0
 11
427.7499999999653824
 21
203.7555535052075868
 31
0.0
  0
LINE
  5
2C45
  8
0
 10
439.25
 20
203.3055535051909999
 30
0.0
 11
439.25
 21
203.7555535052075868
 31
0.0
  0
LINE
  5
2C46
  8
0
 10
427.7499999999998863
 20
203.7555535052075868
 30
0.0
 11
427.7499999999998863
 21
203.3055535051909999
 31
0.0
  0
LINE
  5
2C47
  8
0
 10
427.7500000000457021
 20
203.9555535051910908
 30
0.0
 11
427.8499999999971237
 21
203.8555535052394134
 31
0.0
  0
LINE
  5
2C48
  8
0
 10
439.1500000000028194
 20
203.8555535052394134
 30
0.0
 11
439.2499999999541842
 21
203.9555535051910908
 31
0.0
  0
LINE
  5
2C49
  8
0
 10
439.25
 20
203.9555535051910908
 30
0.0
 11
439.25
 21
204.4055535052150105
 31
0.0
  0
LINE
  5
2C4A
  8
0
 10
427.7499999999998863
 20
204.4055535052150105
 30
0.0
 11
427.7499999999998863
 21
203.9555535051910908
 31
0.0
  0
LINE
  5
2C4B
  8
0
 10
427.7500000000380851
 20
203.3055535051909999
 30
0.0
 11
428.0500000000038199
 21
203.0055535052254072
 31
0.0
  0
LINE
  5
2C4C
  8
0
 10
438.9499999999961233
 20
203.0055535052254072
 30
0.0
 11
439.2499999999618012
 21
203.3055535051909999
 31
0.0
  0
LINE
  5
2C4D
  8
0
 10
439.2499999999777174
 20
204.4055535052150105
 30
0.0
 11
439.1500000000028194
 21
204.5055535051899085
 31
0.0
  0
LINE
  5
2C4E
  8
0
 10
427.8499999999971237
 20
204.5055535051899085
 30
0.0
 11
427.7500000000222258
 21
204.4055535052150105
 31
0.0
  0
LINE
  5
2C4F
  8
0
 10
427.7652703643568088
 20
200.9348620306660962
 30
0.0
 11
430.1999999999757165
 21
200.5055535051849063
 31
0.0
  0
LINE
  5
2C50
  8
0
 10
436.8000000000242267
 20
200.5055535051849063
 30
0.0
 11
439.2347296356430775
 21
200.9348620306660962
 31
0.0
  0
LINE
  5
2C51
  8
0
 10
430.4350000000736145
 20
224.680553505184605
 30
0.0
 11
429.0599999999998886
 21
226.0555535052583025
 31
0.0
  0
LINE
  5
2C52
  8
0
 10
423.2999999999998977
 20
226.0555535052596099
 30
0.0
 11
422.9999999999732267
 21
225.5305535051986112
 31
0.0
  0
LINE
  5
2C53
  8
0
 10
422.9999999999732267
 20
216.0805535051833033
 30
0.0
 11
423.2999999999998977
 21
215.5555535051223046
 31
0.0
  0
LINE
  5
2C54
  8
0
 10
429.0599999999998886
 20
226.0555535051909999
 30
0.0
 11
423.2999999999998977
 21
226.0555535051909999
 31
0.0
  0
LINE
  5
2C55
  8
0
 10
423.2999999999998977
 20
215.5555535051908862
 30
0.0
 11
426.0
 21
215.5555535051908862
 31
0.0
  0
ARC
  5
2C56
  8
0
 10
437.5499999999998977
 20
202.3055535051906872
 30
0.0
 40
0.2999999999998977
 50
179.9999999999772058
 51
270.0
  0
ARC
  5
2C57
  8
0
 10
429.4499999999999886
 20
202.3055535051906872
 30
0.0
 40
0.2999999999998977
 50
270.0
 51
0.0000000000195413
  0
LINE
  5
2C58
  8
0
 10
433.4999999853603185
 20
224.6805535051909999
 30
0.0
 11
430.4350000000736145
 21
224.6805535051909999
 31
0.0
  0
LINE
  5
2C59
  8
0
 10
437.375
 20
218.3305535051869981
 30
0.0
 11
437.375
 21
220.8055535051909999
 31
0.0
  0
ARC
  5
2C5A
  8
0
 10
433.5000000000002274
 20
220.8055535051909999
 30
0.0
 40
3.8749999999997722
 50
0.0
 51
90.0000002164658071
  0
LINE
  5
2C5B
  8
0
 10
437.25
 20
202.3055535051909999
 30
0.0
 11
437.25
 21
203.0055535051909885
 31
0.0
  0
LINE
  5
2C5C
  8
0
 10
429.75
 20
203.0055535051909885
 30
0.0
 11
429.75
 21
202.3055535051909999
 31
0.0
  0
POLYLINE
  5
2C5D
  8
0
 66
     1
 10
0.0
 20
0.0
 30
0.0
 70
   128
  0
VERTEX
  5
3359
  8
0
 10
422.7305627127258845
 20
227.30555352006769
 30
0.0
  0
VERTEX
  5
335A
  8
0
 10
422.9282541140536864
 20
225.6878599628238078
 30
0.0
  0
VERTEX
  5
335B
  8
0
 10
423.0
 20
224.0555535051908862
 30
0.0
  0
SEQEND
  5
335C
  8
0
  0
POLYLINE
  5
2C5E
  8
0
 66
     1
 10
0.0
 20
0.0
 30
0.0
 70
   128
  0
VERTEX
  5
335D
  8
0
 10
423.0
 20
224.0555535051908862
 30
0.0
  0
VERTEX
  5
335E
  8
0
 10
422.9288824031208947
 20
222.4305535470323036
 30
0.0
  0
VERTEX
  5
335F
  8
0
 10
422.7305627648177051
 20
220.8055535888738063
 30
0.0
  0
SEQEND
  5
3360
  8
0
  0
LINE
  5
2C5F
  8
0
 10
422.7305627488066762
 20
220.8055535250049957
 30
0.0
 11
418.2999999999998977
 21
220.8055535051909999
 31
0.0
  0
POLYLINE
  5
2C60
  8
0
 66
     1
 10
0.0
 20
0.0
 30
0.0
 70
   128
  0
VERTEX
  5
3361
  8
0
 10
422.7305627457415085
 20
220.8055535448189914
 30
0.0
  0
VERTEX
  5
3362
  8
0
 10
422.9282541140561875
 20
219.1878599627953008
 30
0.0
  0
VERTEX
  5
3363
  8
0
 10
423.0
 20
217.5555535051909999
 30
0.0
  0
SEQEND
  5
3364
  8
0
  0
POLYLINE
  5
2C61
  8
0
 66
     1
 10
0.0
 20
0.0
 30
0.0
 70
   128
  0
VERTEX
  5
3365
  8
0
 10
423.0
 20
217.5555535051909999
 30
0.0
  0
VERTEX
  5
3366
  8
0
 10
422.9288824031208947
 20
215.9305535470323889
 30
0.0
  0
VERTEX
  5
3367
  8
0
 10
422.7305627648177051
 20
214.3055535888736927
 30
0.0
  0
SEQEND
  5
3368
  8
0
  0
LINE
  5
2C62
  8
0
 10
418.2999999999998977
 20
214.3055535051908009
 30
0.0
 11
418.2999999999998977
 21
227.3055535051909999
 31
0.0
  0
LINE
  5
2C63
  8
0
 10
418.0
 20
227.3055535051909999
 30
0.0
 11
418.0
 21
214.3055535051909999
 31
0.0
  0
LINE
  5
2C64
  8
0
 10
416.3999999999999773
 20
227.3055535051909999
 30
0.0
 11
416.4000000000003183
 21
214.3055535051909999
 31
0.0
  0
LINE
  5
2C65
  8
0
 10
417.6999999999999886
 20
214.3055535051909999
 30
0.0
 11
417.6999999999999886
 21
227.3055535051909999
 31
0.0
  0
ARC
  5
2C66
  8
0
 10
438.6308671226249771
 20
195.6342788491228077
 30
0.0
 40
23.1307425331530894
 50
110.7587642861832933
 51
118.5332979846158992
  0
ARC
  5
2C67
  8
0
 10
433.8181944574726003
 20
212.4737723870073864
 30
0.0
 40
5.8654183805556288
 50
93.1097787913044357
 51
125.2554152072061981
  0
LINE
  5
2C68
  8
0
 10
437.3749999999935767
 20
218.3305535051869981
 30
0.0
 11
433.4999999999998863
 21
218.3305535051839001
 31
0.0
  0
LINE
  5
2C69
  8
0
 10
439.7500000000463274
 20
215.9555535051908066
 30
0.0
 11
427.58201892532702
 21
215.9555535051956952
 31
0.0
  0
LINE
  5
2C6A
  8
0
 10
427.3305186603732864
 20
214.2250348448174009
 30
0.0
 11
427.3305186603732864
 21
215.6516714731687898
 31
0.0
  0
LINE
  5
2C6B
  8
0
 10
427.3305186603732864
 20
215.6516714731687898
 30
0.0
 11
427.5820189253432773
 21
215.9555535051914887
 31
0.0
  0
LINE
  5
2C6C
  8
0
 10
427.2499999999998863
 20
206.5055535051909033
 30
0.0
 11
439.7499999999998863
 21
206.5055535051909033
 31
0.0
  0
LINE
  5
2C6D
  8
0
 10
427.3548155585676227
 20
204.5055535051899085
 30
0.0
 11
439.645184441432491
 21
204.5055535051899085
 31
0.0
  0
LINE
  5
2C6E
  8
0
 10
439.3999999999998067
 20
202.0055535051909885
 30
0.0
 11
427.6000000000000796
 21
202.0055535051909885
 31
0.0
  0
LINE
  5
2C6F
  8
0
 10
427.8499999999971237
 20
203.8555535052394134
 30
0.0
 11
439.1500000000028194
 21
203.8555535052394134
 31
0.0
  0
LINE
  5
2C70
  8
0
 10
428.0500000000038199
 20
203.0055535052254072
 30
0.0
 11
438.9499999999961233
 21
203.0055535052254072
 31
0.0
  0
LINE
  5
2C71
  8
0
 10
430.1999999999757165
 20
200.5055535051849063
 30
0.0
 11
436.8000000000242267
 21
200.5055535051849063
 31
0.0
  0
LINE
  5
2C72
  8
0
 10
423.0
 20
214.3055535051908009
 30
0.0
 11
422.9999999999997158
 21
227.3055535051908862
 31
0.0
  0
LINE
  5
2C73
  8
0
 10
430.4350000000335967
 20
220.8055535051909999
 30
0.0
 11
430.4350000000736145
 21
224.680553505184605
 31
0.0
  0
ARC
  5
2C74
  8
0
 10
424.082207128076675
 20
221.2336373739225905
 30
0.0
 40
6.367199782715339
 50
321.4244673644590762
 51
356.1449435011717242
  0
LINE
  5
2C75
  8
0
 10
429.0600000000264913
 20
217.2633966763542901
 30
0.0
 11
429.0599999999998886
 21
226.0555535052583025
 31
0.0
  0
LINE
  5
2C76
  8
0
 10
423.2999999999998977
 20
226.0555535051908862
 30
0.0
 11
423.2999999999998977
 21
215.5555535051908862
 31
0.0
  0
LINE
  5
2C77
  8
0
 10
427.3305186603732864
 20
215.6516714731687898
 30
0.0
 11
425.9038820320220111
 21
215.6516714731687898
 31
0.0
  0
LINE
  5
2C78
  8
0
 10
430.4325436466211272
 20
217.2633967141391906
 30
0.0
 11
429.0600000000264913
 21
217.2633966763542901
 31
0.0
  0
LINE
  5
2C79
  8
0
 10
425.9038820320220111
 20
215.6516714731687898
 30
0.0
 11
427.3305186603732864
 21
214.2250348448174009
 31
0.0
  0
LINE
  5
2C7A
  8
0
 10
475.200000000005673
 20
166.7499999999535021
 30
0.0
 11
477.5750000000015802
 21
169.1250000000063949
 31
0.0
  0
LINE
  5
2C7B
  8
0
 10
477.5749999999987949
 20
176.8749999999965894
 30
0.0
 11
475.200000000005673
 21
179.2500000000464979
 31
0.0
  0
LINE
  5
2C7C
  8
0
 10
465.7500000000059117
 20
166.75
 30
0.0
 11
475.200000000005673
 21
166.75
 31
0.0
  0
LINE
  5
2C7D
  8
0
 10
475.200000000005673
 20
179.2499999999998863
 30
0.0
 11
465.7500000000059117
 21
179.2499999999998863
 31
0.0
  0
LINE
  5
2C7E
  8
0
 10
465.7500000000059117
 20
179.2500000000003979
 30
0.0
 11
463.7500000000044906
 21
179.1451844414322068
 31
0.0
  0
LINE
  5
2C7F
  8
0
 10
463.7500000000044906
 20
166.854815558567708
 30
0.0
 11
465.7500000000059117
 21
166.7499999999996021
 31
0.0
  0
LINE
  5
2C80
  8
0
 10
460.3762700760825055
 20
167.0999999999999943
 30
0.0
 11
461.2500000000059117
 21
167.0999999999999943
 31
0.0
  0
LINE
  5
2C81
  8
0
 10
461.2500000000059117
 20
178.9000000000000057
 30
0.0
 11
460.3762700760825055
 21
178.9000000000000057
 31
0.0
  0
ARC
  5
2C82
  8
0
 10
460.3762700760825055
 20
167.2999999999991019
 30
0.0
 40
0.1999999999990791
 50
190.0000000000067928
 51
270.0
  0
ARC
  5
2C83
  8
0
 10
460.3762700760825055
 20
178.7000000000008981
 30
0.0
 40
0.1999999999990791
 50
90.0
 51
169.9999999999930935
  0
LINE
  5
2C84
  8
0
 10
463.0000000000226805
 20
167.2499999999654108
 30
0.0
 11
463.100000000054024
 21
167.349999999997209
 31
0.0
  0
LINE
  5
2C85
  8
0
 10
463.100000000054024
 20
178.6500000000027057
 30
0.0
 11
463.0000000000226805
 21
178.750000000034504
 31
0.0
  0
LINE
  5
2C86
  8
0
 10
462.550000000005582
 20
167.25
 30
0.0
 11
463.0000000000226805
 21
167.25
 31
0.0
  0
LINE
  5
2C87
  8
0
 10
463.0000000000226805
 20
178.7499999999998863
 30
0.0
 11
462.550000000005582
 21
178.7499999999998863
 31
0.0
  0
LINE
  5
2C88
  8
0
 10
463.2000000000061277
 20
178.7499999999544116
 30
0.0
 11
463.100000000054024
 21
178.6500000000027057
 31
0.0
  0
LINE
  5
2C89
  8
0
 10
463.100000000054024
 20
167.349999999997209
 30
0.0
 11
463.2000000000061277
 21
167.2500000000455884
 31
0.0
  0
LINE
  5
2C8A
  8
0
 10
463.2000000000061277
 20
167.25
 30
0.0
 11
463.6500000000295927
 21
167.25
 31
0.0
  0
LINE
  5
2C8B
  8
0
 10
463.6500000000295927
 20
178.7499999999998863
 30
0.0
 11
463.2000000000061277
 21
178.7499999999998863
 31
0.0
  0
LINE
  5
2C8C
  8
0
 10
462.550000000005582
 20
178.7499999999616875
 30
0.0
 11
462.2500000000400178
 21
178.4499999999960949
 31
0.0
  0
LINE
  5
2C8D
  8
0
 10
462.2500000000400178
 20
167.5500000000037915
 30
0.0
 11
462.550000000005582
 21
167.2500000000381988
 31
0.0
  0
LINE
  5
2C8E
  8
0
 10
463.6500000000295927
 20
167.250000000022311
 30
0.0
 11
463.7500000000044906
 21
167.349999999997209
 31
0.0
  0
LINE
  5
2C8F
  8
0
 10
463.7500000000044906
 20
178.6500000000027057
 30
0.0
 11
463.6500000000295927
 21
178.7499999999776037
 31
0.0
  0
LINE
  5
2C90
  8
0
 10
460.1793085254811899
 20
178.7347296356429922
 30
0.0
 11
459.75
 21
176.3000000000241982
 31
0.0
  0
LINE
  5
2C91
  8
0
 10
459.75
 20
169.6999999999756028
 30
0.0
 11
460.1793085254811899
 21
167.2652703643568941
 31
0.0
  0
ARC
  5
2C92
  8
0
 10
461.550000000005582
 20
168.9500000000001023
 30
0.0
 40
0.2999999999998977
 50
89.9999999999739515
 51
180.0
  0
ARC
  5
2C93
  8
0
 10
461.550000000005582
 20
177.0499999999998977
 30
0.0
 40
0.2999999999998977
 50
180.0
 51
270.0000000000130171
  0
LINE
  5
2C94
  8
0
 10
461.550000000005582
 20
169.25
 30
0.0
 11
462.2500000000059117
 21
169.25
 31
0.0
  0
LINE
  5
2C95
  8
0
 10
462.2500000000059117
 20
176.7499999999998863
 30
0.0
 11
461.550000000005582
 21
176.7499999999998863
 31
0.0
  0
LINE
  5
2C96
  8
0
 10
477.5749999999987949
 20
169.1250000000032117
 30
0.0
 11
477.5749999999987949
 21
176.8749999999967031
 31
0.0
  0
LINE
  5
2C97
  8
0
 10
475.200000000005673
 20
166.7499999999535021
 30
0.0
 11
475.200000000005673
 21
179.2500000000464979
 31
0.0
  0
LINE
  5
2C98
  8
0
 10
465.7500000000059117
 20
179.2499999999998863
 30
0.0
 11
465.7500000000059117
 21
166.75
 31
0.0
  0
LINE
  5
2C99
  8
0
 10
463.7500000000044906
 20
179.1451844414322068
 30
0.0
 11
463.7500000000044906
 21
166.854815558567708
 31
0.0
  0
LINE
  5
2C9A
  8
0
 10
461.2500000000059117
 20
167.0999999999999943
 30
0.0
 11
461.2500000000059117
 21
178.9000000000000057
 31
0.0
  0
LINE
  5
2C9B
  8
0
 10
463.100000000054024
 20
178.6500000000027057
 30
0.0
 11
463.100000000054024
 21
167.349999999997209
 31
0.0
  0
LINE
  5
2C9C
  8
0
 10
462.2500000000400178
 20
178.4499999999960949
 30
0.0
 11
462.2500000000400178
 21
167.5500000000037915
 31
0.0
  0
LINE
  5
2C9D
  8
0
 10
459.75
 20
176.3000000000241982
 30
0.0
 11
459.75
 21
169.6999999999756028
 31
0.0
  0
LINE
  5
2C9E
  8
0
 10
480.050000000005582
 20
176.8749999999998863
 30
0.0
 11
477.5749999999987949
 21
176.8749999999967031
 31
0.0
  0
LINE
  5
2C9F
  8
0
 10
477.5749999999987949
 20
169.1250000000032117
 30
0.0
 11
480.050000000005582
 21
169.125
 31
0.0
  0
ARC
  5
2CA0
  8
0
 10
480.050000000005582
 20
172.9999999999996874
 30
0.0
 40
3.8749999999997442
 50
270.0
 51
90.0
  0
ARC
  5
2CA1
  8
0
 10
480.050000000005582
 20
172.9999999999998863
 30
0.0
 40
5.2499999999999867
 50
235.8688648656707016
 51
124.1311351343291989
  0
LINE
  5
2CA2
  8
0
 10
486.550000000005582
 20
169.2472232502674103
 30
0.0
 11
486.550000000005582
 21
176.7527766531038083
 31
0.0
  0
ARC
  5
2CA3
  8
0
 10
480.050000000005582
 20
172.9999999999998863
 30
0.0
 40
6.5000000000000151
 50
233.7602340103265988
 51
126.2397659896733018
  0
LINE
  5
2CA4
  8
0
 10
480.0500000396340852
 20
180.505553522344286
 30
0.0
 11
476.179234185524308
 21
178.2707658145045002
 31
0.0
  0
LINE
  5
2CA5
  8
0
 10
486.550000000005582
 20
176.7527766531038083
 30
0.0
 11
480.0500000836887011
 21
180.5055534511508881
 31
0.0
  0
LINE
  5
2CA6
  8
0
 10
480.0499999163229745
 20
165.4944465488493108
 30
0.0
 11
486.5499999163229745
 21
169.2472232019530907
 31
0.0
  0
LINE
  5
2CA7
  8
0
 10
476.179234185524308
 20
167.7292341854956987
 30
0.0
 11
480.0499999163229745
 21
165.4944465488493108
 31
0.0
  0
LINE
  5
2CA8
  8
1
 10
408.8999999999998067
 20
220.8055535051908009
 30
0.0
 11
442.375
 21
220.8055535051909999
 31
0.0
  0
LINE
  5
2CA9
  8
1
 10
433.4999999999998863
 20
197.5055535051849063
 30
0.0
 11
433.4999999999998863
 21
227.6805535051909999
 31
0.0
  0
LINE
  5
2CAA
  8
1
 10
408.8999999999998067
 20
172.9999999999998863
 30
0.0
 11
442.75
 21
172.9999999999998863
 31
0.0
  0
LINE
  5
2CAB
  8
1
 10
433.4999999999998863
 20
163.75
 30
0.0
 11
433.4999999999998863
 21
182.2499999999998863
 31
0.0
  0
LINE
  5
2CAC
  8
1
 10
480.050000000005582
 20
183.5055534511508881
 30
0.0
 11
480.050000000005582
 21
162.4944465488493108
 31
0.0
  0
LINE
  5
2CAD
  8
1
 10
489.550000000005582
 20
172.9999999999998863
 30
0.0
 11
456.7499999999998863
 21
172.9999999999998863
 31
0.0
  0
LINE
  5
2CAE
  8
0
 10
412.4809999999999945
 20
215.9415535051909103
 30
0.0
 11
412.4809999999999945
 21
225.6695535051908905
 31
0.0
  0
LINE
  5
2CAF
  8
0
 10
411.8999999999998067
 20
216.5225535051908139
 30
0.0
 11
411.8999999999998067
 21
225.0885535051909017
 31
0.0
  0
LINE
  5
2CB0
  8
0
 10
416.0999999999999091
 20
214.8055535051909999
 30
0.0
 11
416.0999999999999091
 21
226.8055535051909999
 31
0.0
  0
LINE
  5
2CB1
  8
0
 10
412.4809999999999945
 20
215.9415535051909103
 30
0.0
 11
416.0999999999999091
 21
215.9415535051909103
 31
0.0
  0
LINE
  5
2CB2
  8
0
 10
416.0999999999999091
 20
225.6695535051908905
 30
0.0
 11
412.4809999999999945
 21
225.6695535051908905
 31
0.0
  0
LINE
  5
2CB3
  8
0
 10
412.4809999999999945
 20
225.6695535051908905
 30
0.0
 11
411.8999999999998067
 21
225.0885535051909017
 31
0.0
  0
LINE
  5
2CB4
  8
0
 10
411.8999999999998067
 20
216.5225535051908139
 30
0.0
 11
412.4809999999999945
 21
215.9415535051909103
 31
0.0
  0
LINE
  5
2CB5
  8
0
 10
417.6999999999999886
 20
179.4999999999998863
 30
0.0
 11
416.3999999999999773
 21
179.4999999999998863
 31
0.0
  0
LINE
  5
2CB6
  8
0
 10
416.3999999999999773
 20
166.5
 30
0.0
 11
417.6999999999999886
 21
166.5
 31
0.0
  0
LINE
  5
2CB7
  8
0
 10
416.3999999999999773
 20
178.9999999999998863
 30
0.0
 11
416.0999999999999091
 21
178.9999999999998863
 31
0.0
  0
LINE
  5
2CB8
  8
0
 10
416.0999999999999091
 20
167.0
 30
0.0
 11
416.3999999999999773
 21
167.0
 31
0.0
  0
LINE
  5
2CB9
  8
0
 10
416.3999999999999773
 20
179.4999999999998863
 30
0.0
 11
416.4000000000003183
 21
166.5
 31
0.0
  0
LINE
  5
2CBA
  8
0
 10
412.4809999999999945
 20
168.1359999999999104
 30
0.0
 11
412.4809999999999945
 21
177.8640000000000043
 31
0.0
  0
LINE
  5
2CBB
  8
0
 10
411.8999999999998067
 20
168.717000000000013
 30
0.0
 11
411.8999999999998067
 21
177.282999999999987
 31
0.0
  0
LINE
  5
2CBC
  8
0
 10
416.0999999999999091
 20
167.0
 30
0.0
 11
416.0999999999999091
 21
178.9999999999998863
 31
0.0
  0
LINE
  5
2CBD
  8
0
 10
412.4809999999999945
 20
168.1359999999999104
 30
0.0
 11
416.0999999999999091
 21
168.1359999999999104
 31
0.0
  0
LINE
  5
2CBE
  8
0
 10
416.0999999999999091
 20
177.8640000000000043
 30
0.0
 11
412.4809999999999945
 21
177.8640000000000043
 31
0.0
  0
LINE
  5
2CBF
  8
0
 10
412.4809999999999945
 20
177.8640000000000043
 30
0.0
 11
411.8999999999998067
 21
177.282999999999987
 31
0.0
  0
LINE
  5
2CC0
  8
0
 10
411.8999999999998067
 20
168.717000000000013
 30
0.0
 11
412.4809999999999945
 21
168.1359999999999104
 31
0.0
  0
LINE
  5
2CC1
  8
1
 10
433.4999999999998863
 20
101.4944464948150937
 30
0.0
 11
433.4999999999998863
 21
113.4944464948150937
 31
0.0
  0
LINE
  5
2CC2
  8
1
 10
433.4999999999998863
 20
117.4944464948150937
 30
0.0
 11
433.4999999999998863
 21
138.4944464948150937
 31
0.0
  0
CIRCLE
  5
2CC3
  8
0
 10
433.4999999999998863
 20
107.4944464948150937
 30
0.0
 40
3.0
  0
LINE
  5
2CC4
  8
0
 10
430.4999999999998863
 20
135.4944464948150937
 30
0.0
 11
430.4999999999998863
 21
120.4944464948150937
 31
0.0
  0
LINE
  5
2CC5
  8
0
 10
436.5
 20
135.4944464948150937
 30
0.0
 11
436.5
 21
120.4944464948150937
 31
0.0
  0
LINE
  5
2CC6
  8
1
 10
427.5
 20
107.4944464948150937
 30
0.0
 11
439.5
 21
107.4944464948150937
 31
0.0
  0
LINE
  5
2CC7
  8
0
 10
436.5
 20
120.4944464948150937
 30
0.0
 11
430.4999999999998863
 21
120.4944464948150937
 31
0.0
  0
LINE
  5
2CC8
  8
0
 10
436.5
 20
135.4944464948150937
 30
0.0
 11
430.4999999999998863
 21
135.4944464948150937
 31
0.0
  0
LINE
  5
2CC9
  8
0
 10
542.9500000000062983
 20
179.4999999999998863
 30
0.0
 11
542.65000000000623
 21
179.4999999999998863
 31
0.0
  0
LINE
  5
2CCA
  8
0
 10
542.65000000000623
 20
166.5
 30
0.0
 11
542.9500000000062983
 21
166.5
 31
0.0
  0
LINE
  5
2CCB
  8
0
 10
542.65000000000623
 20
178.9999999999998863
 30
0.0
 11
542.3500000000060481
 21
178.9999999999998863
 31
0.0
  0
LINE
  5
2CCC
  8
0
 10
542.3500000000060481
 20
167.0
 30
0.0
 11
542.65000000000623
 21
167.0
 31
0.0
  0
LINE
  5
2CCD
  8
0
 10
547.9500000000064119
 20
178.25000000006861
 30
0.0
 11
547.6499999999798547
 21
177.7250000000076113
 31
0.0
  0
LINE
  5
2CCE
  8
0
 10
547.6499999999798547
 20
168.2749999999923034
 30
0.0
 11
547.9500000000064119
 21
167.74999999993139
 31
0.0
  0
LINE
  5
2CCF
  8
0
 10
553.7100000000057207
 20
178.2499999999998863
 30
0.0
 11
547.9500000000064119
 21
178.2499999999998863
 31
0.0
  0
LINE
  5
2CD0
  8
0
 10
547.9500000000064119
 20
167.75
 30
0.0
 11
553.7100000000057207
 21
167.75
 31
0.0
  0
LINE
  5
2CD1
  8
0
 10
553.7100000000057207
 20
167.7499999999326974
 30
0.0
 11
554.1541790539015437
 21
168.1941790538276962
 31
0.0
  0
LINE
  5
2CD2
  8
0
 10
554.1541790539015437
 20
177.8058209461723038
 30
0.0
 11
553.7100000000057207
 21
178.2500000000673026
 31
0.0
  0
LINE
  5
2CD3
  8
0
 10
547.65000000000623
 20
179.4999999999998863
 30
0.0
 11
547.3805627488128493
 21
180.50555351090469
 31
0.0
  0
LINE
  5
2CD4
  8
0
 10
547.3805627488128493
 20
165.4944464890951963
 30
0.0
 11
547.65000000000623
 21
166.5
 31
0.0
  0
CIRCLE
  5
2CD5
  8
0
 10
558.15000000000623
 20
172.9999999999998863
 30
0.0
 40
3.0
  0
CIRCLE
  5
2CD6
  8
0
 10
558.15000000000623
 20
172.9999999999998863
 30
0.0
 40
5.9000000000000048
  0
CIRCLE
  5
2CD7
  8
0
 10
558.15000000000623
 20
172.9999999999998863
 30
0.0
 40
6.2499999999999707
  0
LINE
  5
2CD8
  8
0
 10
551.9805186603799712
 20
171.9999999999998863
 30
0.0
 11
550.5538820320282412
 21
171.9999999999998863
 31
0.0
  0
ARC
  5
2CD9
  8
0
 10
545.40000000000623
 20
172.9999999999998863
 30
0.0
 40
5.249999999999992
 50
349.0194245723865833
 51
10.9805754276133598
  0
LINE
  5
2CDA
  8
0
 10
550.5538820320282412
 20
173.9999999999998863
 30
0.0
 11
551.9805186603799712
 21
173.9999999999998863
 31
0.0
  0
LINE
  5
2CDB
  8
0
 10
542.9500000000062983
 20
176.7527767497325897
 30
0.0
 11
547.3805627488128493
 21
176.75277677261181
 31
0.0
  0
POLYLINE
  5
2CDC
  8
0
 66
     1
 10
0.0
 20
0.0
 30
0.0
 70
   128
  0
VERTEX
  5
3369
  8
0
 10
547.380562712732285
 20
176.752776791067987
 30
0.0
  0
VERTEX
  5
336A
  8
0
 10
547.5782541140598596
 20
174.8848251454286924
 30
0.0
  0
VERTEX
  5
336B
  8
0
 10
547.65000000000623
 20
172.9999999999998863
 30
0.0
  0
SEQEND
  5
336C
  8
0
  0
POLYLINE
  5
2CDD
  8
0
 66
     1
 10
0.0
 20
0.0
 30
0.0
 70
   128
  0
VERTEX
  5
336D
  8
0
 10
547.65000000000623
 20
172.9999999999998863
 30
0.0
  0
VERTEX
  5
336E
  8
0
 10
547.5788824031271815
 20
171.1236116734480106
 30
0.0
  0
VERTEX
  5
336F
  8
0
 10
547.3805627648235941
 20
169.2472233468961065
 30
0.0
  0
SEQEND
  5
3370
  8
0
  0
LINE
  5
2CDE
  8
0
 10
542.9500000000062983
 20
169.2472232502674103
 30
0.0
 11
547.3805627488128493
 21
169.2472232617070063
 31
0.0
  0
LINE
  5
2CDF
  8
0
 10
547.3805627488128493
 20
180.50555351090469
 30
0.0
 11
542.9500000000062983
 21
180.5055534994650088
 31
0.0
  0
POLYLINE
  5
2CE0
  8
0
 66
     1
 10
0.0
 20
0.0
 30
0.0
 70
   128
  0
VERTEX
  5
3371
  8
0
 10
547.3805627457478522
 20
180.505553522344286
 30
0.0
  0
VERTEX
  5
3372
  8
0
 10
547.5782541140627018
 20
179.5715776972967035
 30
0.0
  0
VERTEX
  5
3373
  8
0
 10
547.65000000000623
 20
178.6291651245988987
 30
0.0
  0
SEQEND
  5
3374
  8
0
  0
POLYLINE
  5
2CE1
  8
0
 66
     1
 10
0.0
 20
0.0
 30
0.0
 70
   128
  0
VERTEX
  5
3375
  8
0
 10
547.65000000000623
 20
178.6291651245988987
 30
0.0
  0
VERTEX
  5
3376
  8
0
 10
547.5788824031271815
 20
177.6909709613229893
 30
0.0
  0
VERTEX
  5
3377
  8
0
 10
547.3805627648235941
 20
176.7527767980469946
 30
0.0
  0
SEQEND
  5
3378
  8
0
  0
POLYLINE
  5
2CE2
  8
0
 66
     1
 10
0.0
 20
0.0
 30
0.0
 70
   128
  0
VERTEX
  5
3379
  8
0
 10
547.380562712732285
 20
169.2472233071709127
 30
0.0
  0
VERTEX
  5
337A
  8
0
 10
547.5782541140598596
 20
168.3132474481155043
 30
0.0
  0
VERTEX
  5
337B
  8
0
 10
547.65000000000623
 20
167.3708348754011013
 30
0.0
  0
SEQEND
  5
337C
  8
0
  0
POLYLINE
  5
2CE3
  8
0
 66
     1
 10
0.0
 20
0.0
 30
0.0
 70
   128
  0
VERTEX
  5
337D
  8
0
 10
547.65000000000623
 20
167.3708348754011013
 30
0.0
  0
VERTEX
  5
337E
  8
0
 10
547.5788824031271815
 20
166.4326407121251918
 30
0.0
  0
VERTEX
  5
337F
  8
0
 10
547.3805627648235941
 20
165.4944465488493108
 30
0.0
  0
SEQEND
  5
3380
  8
0
  0
LINE
  5
2CE4
  8
0
 10
547.3805627488128493
 20
165.4944464890951963
 30
0.0
 11
542.9500000000062983
 21
165.4944465005349059
 31
0.0
  0
LINE
  5
2CE5
  8
0
 10
542.9500000000062983
 20
165.4944465005349059
 30
0.0
 11
542.9500000000062983
 21
180.5055534994650088
 31
0.0
  0
LINE
  5
2CE6
  8
0
 10
542.3500000000060481
 20
166.5
 30
0.0
 11
542.3500000000060481
 21
179.4999999999998863
 31
0.0
  0
LINE
  5
2CE7
  8
0
 10
542.65000000000623
 20
179.5
 30
0.0
 11
542.65000000000623
 21
166.5
 31
0.0
  0
LINE
  5
2CE8
  8
0
 10
547.9500000000064119
 20
178.25000000006861
 30
0.0
 11
547.9500000000064119
 21
167.75
 31
0.0
  0
LINE
  5
2CE9
  8
0
 10
553.7100000000057207
 20
177.3987384555119888
 30
0.0
 11
553.7100000000057207
 21
178.2499999999998863
 31
0.0
  0
LINE
  5
2CEA
  8
0
 10
553.7100000000057207
 20
167.75
 30
0.0
 11
553.7100000000057207
 21
168.6012615444880112
 31
0.0
  0
CIRCLE
  5
2CEB
  8
0
 10
558.15000000000623
 20
172.9999999999998863
 30
0.0
 40
2.0999999999995111
  0
LINE
  5
2CEC
  8
0
 10
547.65000000000623
 20
166.5
 30
0.0
 11
547.65000000000623
 21
179.4999999999996874
 31
0.0
  0
LINE
  5
2CED
  8
0
 10
547.65000000000623
 20
227.3055535051908862
 30
0.0
 11
542.65000000000623
 21
227.3055535051909999
 31
0.0
  0
LINE
  5
2CEE
  8
0
 10
542.65000000000623
 20
214.3055535051909999
 30
0.0
 11
547.65000000000623
 21
214.3055535051909999
 31
0.0
  0
LINE
  5
2CEF
  8
0
 10
542.3500000000060481
 20
227.3055535051909999
 30
0.0
 11
541.0500000000057526
 21
227.3055535051909999
 31
0.0
  0
LINE
  5
2CF0
  8
0
 10
541.0500000000057526
 20
214.3055535051909999
 30
0.0
 11
542.3500000000060481
 21
214.3055535051909999
 31
0.0
  0
LINE
  5
2CF1
  8
0
 10
564.4000000000525006
 20
215.9555535051908066
 30
0.0
 11
562.0249999999997499
 21
218.3305535051869981
 31
0.0
  0
LINE
  5
2CF2
  8
0
 10
564.40000000000623
 20
206.5055535051909033
 30
0.0
 11
564.40000000000623
 21
215.9555535051908066
 31
0.0
  0
LINE
  5
2CF3
  8
0
 10
551.90000000000623
 20
214.3055535051909999
 30
0.0
 11
551.90000000000623
 21
206.5055535051909033
 31
0.0
  0
LINE
  5
2CF4
  8
0
 10
551.9000000000053205
 20
206.5055535051909033
 30
0.0
 11
552.0048155585739096
 21
204.5055535051899085
 31
0.0
  0
LINE
  5
2CF5
  8
0
 10
564.2951844414385505
 20
204.5055535051899085
 30
0.0
 11
564.40000000000623
 21
206.5055535051909033
 31
0.0
  0
LINE
  5
2CF6
  8
0
 10
541.0500000000057526
 20
226.8055535051909999
 30
0.0
 11
540.7500000000055707
 21
226.8055535051909999
 31
0.0
  0
LINE
  5
2CF7
  8
0
 10
540.7500000000055707
 20
214.8055535051909999
 30
0.0
 11
541.0500000000057526
 21
214.8055535051909999
 31
0.0
  0
LINE
  5
2CF8
  8
0
 10
542.65000000000623
 20
226.8055535051909999
 30
0.0
 11
542.3500000000060481
 21
226.8055535051909999
 31
0.0
  0
LINE
  5
2CF9
  8
0
 10
542.3500000000060481
 20
214.8055535051909999
 30
0.0
 11
542.65000000000623
 21
214.8055535051909999
 31
0.0
  0
LINE
  5
2CFA
  8
0
 10
564.0500000000057526
 20
201.131823581267696
 30
0.0
 11
564.0500000000057526
 21
202.0055535051909885
 31
0.0
  0
LINE
  5
2CFB
  8
0
 10
552.2500000000064801
 20
202.0055535051909885
 30
0.0
 11
552.2500000000064801
 21
201.131823581267696
 31
0.0
  0
ARC
  5
2CFC
  8
0
 10
563.8500000000068439
 20
201.131823581267696
 30
0.0
 40
0.1999999999990565
 50
280.0000000000051728
 51
0.0
  0
ARC
  5
2CFD
  8
0
 10
552.4500000000053888
 20
201.131823581267696
 30
0.0
 40
0.1999999999990791
 50
180.0
 51
259.9999999999815259
  0
LINE
  5
2CFE
  8
0
 10
563.9000000000406772
 20
203.7555535052075868
 30
0.0
 11
563.8000000000085947
 21
203.8555535052394134
 31
0.0
  0
LINE
  5
2CFF
  8
0
 10
552.5000000000029559
 20
203.8555535052394134
 30
0.0
 11
552.3999999999715556
 21
203.7555535052075868
 31
0.0
  0
LINE
  5
2D00
  8
0
 10
563.90000000000623
 20
203.3055535051909999
 30
0.0
 11
563.90000000000623
 21
203.7555535052075868
 31
0.0
  0
LINE
  5
2D01
  8
0
 10
552.40000000000623
 20
203.7555535052075868
 30
0.0
 11
552.40000000000623
 21
203.3055535051909999
 31
0.0
  0
LINE
  5
2D02
  8
0
 10
552.4000000000515911
 20
203.9555535051910908
 30
0.0
 11
552.5000000000029559
 21
203.8555535052394134
 31
0.0
  0
LINE
  5
2D03
  8
0
 10
563.8000000000085947
 20
203.8555535052394134
 30
0.0
 11
563.8999999999607553
 21
203.9555535051910908
 31
0.0
  0
LINE
  5
2D04
  8
0
 10
563.90000000000623
 20
203.9555535051910908
 30
0.0
 11
563.90000000000623
 21
204.4055535052150105
 31
0.0
  0
LINE
  5
2D05
  8
0
 10
552.40000000000623
 20
204.4055535052150105
 30
0.0
 11
552.40000000000623
 21
203.9555535051910908
 31
0.0
  0
LINE
  5
2D06
  8
0
 10
552.4000000000444288
 20
203.3055535051909999
 30
0.0
 11
552.7000000000100499
 21
203.0055535052254072
 31
0.0
  0
LINE
  5
2D07
  8
0
 10
563.6000000000024102
 20
203.0055535052254072
 30
0.0
 11
563.8999999999680313
 21
203.3055535051909999
 31
0.0
  0
LINE
  5
2D08
  8
0
 10
563.8999999999834927
 20
204.4055535052150105
 30
0.0
 11
563.8000000000085947
 21
204.5055535051899085
 31
0.0
  0
LINE
  5
2D09
  8
0
 10
552.5000000000029559
 20
204.5055535051899085
 30
0.0
 11
552.4000000000279442
 21
204.4055535052150105
 31
0.0
  0
LINE
  5
2D0A
  8
0
 10
552.4152703643633231
 20
200.9348620306660962
 30
0.0
 11
554.8499999999814918
 21
200.5055535051849063
 31
0.0
  0
LINE
  5
2D0B
  8
0
 10
561.4500000000299451
 20
200.5055535051849063
 30
0.0
 11
563.884729635649137
 21
200.9348620306660962
 31
0.0
  0
LINE
  5
2D0C
  8
0
 10
555.0850000000792761
 20
224.680553505184605
 30
0.0
 11
553.7100000000057207
 21
226.0555535052583025
 31
0.0
  0
LINE
  5
2D0D
  8
0
 10
547.9500000000064119
 20
226.0555535052596099
 30
0.0
 11
547.6499999999789452
 21
225.5305535051986112
 31
0.0
  0
LINE
  5
2D0E
  8
0
 10
547.6499999999789452
 20
216.0805535051833033
 30
0.0
 11
547.9500000000064119
 21
215.5555535051223046
 31
0.0
  0
LINE
  5
2D0F
  8
0
 10
553.7100000000057207
 20
226.0555535051909999
 30
0.0
 11
547.9500000000064119
 21
226.0555535051909999
 31
0.0
  0
LINE
  5
2D10
  8
0
 10
547.9500000000064119
 20
215.5555535051908862
 30
0.0
 11
550.65000000000623
 21
215.5555535051908862
 31
0.0
  0
ARC
  5
2D11
  8
0
 10
562.2000000000062983
 20
202.3055535051906872
 30
0.0
 40
0.2999999999998977
 50
179.9999999999772058
 51
270.0
  0
ARC
  5
2D12
  8
0
 10
554.1000000000060481
 20
202.3055535051906872
 30
0.0
 40
0.2999999999998977
 50
270.0
 51
0.0000000000195413
  0
LINE
  5
2D13
  8
0
 10
558.1499999853660938
 20
224.6805535051909999
 30
0.0
 11
555.0850000000792761
 21
224.6805535051909999
 31
0.0
  0
LINE
  5
2D14
  8
0
 10
562.02500000000623
 20
218.3305535051869981
 30
0.0
 11
562.02500000000623
 21
220.8055535051909999
 31
0.0
  0
ARC
  5
2D15
  8
0
 10
558.15000000000623
 20
220.8055535051909999
 30
0.0
 40
3.8749999999997722
 50
0.0
 51
90.0000002164658071
  0
LINE
  5
2D16
  8
0
 10
561.90000000000623
 20
202.3055535051909999
 30
0.0
 11
561.90000000000623
 21
203.0055535051909885
 31
0.0
  0
LINE
  5
2D17
  8
0
 10
554.40000000000623
 20
203.0055535051909885
 30
0.0
 11
554.40000000000623
 21
202.3055535051909999
 31
0.0
  0
POLYLINE
  5
2D18
  8
0
 66
     1
 10
0.0
 20
0.0
 30
0.0
 70
   128
  0
VERTEX
  5
3381
  8
0
 10
547.380562712732285
 20
227.30555352006769
 30
0.0
  0
VERTEX
  5
3382
  8
0
 10
547.5782541140598596
 20
225.6878599628238078
 30
0.0
  0
VERTEX
  5
3383
  8
0
 10
547.65000000000623
 20
224.0555535051908862
 30
0.0
  0
SEQEND
  5
3384
  8
0
  0
POLYLINE
  5
2D19
  8
0
 66
     1
 10
0.0
 20
0.0
 30
0.0
 70
   128
  0
VERTEX
  5
3385
  8
0
 10
547.65000000000623
 20
224.0555535051908862
 30
0.0
  0
VERTEX
  5
3386
  8
0
 10
547.5788824031271815
 20
222.4305535470323036
 30
0.0
  0
VERTEX
  5
3387
  8
0
 10
547.3805627648235941
 20
220.8055535888738063
 30
0.0
  0
SEQEND
  5
3388
  8
0
  0
LINE
  5
2D1A
  8
0
 10
547.3805627488128493
 20
220.8055535250049957
 30
0.0
 11
542.9500000000062983
 21
220.8055535051909999
 31
0.0
  0
POLYLINE
  5
2D1B
  8
0
 66
     1
 10
0.0
 20
0.0
 30
0.0
 70
   128
  0
VERTEX
  5
3389
  8
0
 10
547.3805627457478522
 20
220.8055535448189914
 30
0.0
  0
VERTEX
  5
338A
  8
0
 10
547.5782541140627018
 20
219.1878599627953008
 30
0.0
  0
VERTEX
  5
338B
  8
0
 10
547.65000000000623
 20
217.5555535051909999
 30
0.0
  0
SEQEND
  5
338C
  8
0
  0
POLYLINE
  5
2D1C
  8
0
 66
     1
 10
0.0
 20
0.0
 30
0.0
 70
   128
  0
VERTEX
  5
338D
  8
0
 10
547.65000000000623
 20
217.5555535051909999
 30
0.0
  0
VERTEX
  5
338E
  8
0
 10
547.5788824031271815
 20
215.9305535470323889
 30
0.0
  0
VERTEX
  5
338F
  8
0
 10
547.3805627648235941
 20
214.3055535888736927
 30
0.0
  0
SEQEND
  5
3390
  8
0
  0
LINE
  5
2D1D
  8
0
 10
542.9500000000062983
 20
214.3055535051908009
 30
0.0
 11
542.9500000000062983
 21
227.3055535051909999
 31
0.0
  0
LINE
  5
2D1E
  8
0
 10
542.65000000000623
 20
227.3055535051909999
 30
0.0
 11
542.65000000000623
 21
214.3055535051909999
 31
0.0
  0
LINE
  5
2D1F
  8
0
 10
541.0500000000057526
 20
227.3055535051909999
 30
0.0
 11
541.0500000000067757
 21
214.3055535051909999
 31
0.0
  0
LINE
  5
2D20
  8
0
 10
542.3500000000060481
 20
214.3055535051909999
 30
0.0
 11
542.3500000000060481
 21
227.3055535051909999
 31
0.0
  0
ARC
  5
2D21
  8
0
 10
563.2808671226314345
 20
195.6342788491228077
 30
0.0
 40
23.1307425331530894
 50
110.7587642861832933
 51
118.5332979846158992
  0
ARC
  5
2D22
  8
0
 10
558.4681944574788304
 20
212.4737723870073864
 30
0.0
 40
5.8654183805556288
 50
93.1097787913044357
 51
125.2554152072061981
  0
LINE
  5
2D23
  8
0
 10
562.0249999999997499
 20
218.3305535051869981
 30
0.0
 11
558.15000000000623
 21
218.3305535051839001
 31
0.0
  0
LINE
  5
2D24
  8
0
 10
564.4000000000525006
 20
215.9555535051908066
 30
0.0
 11
552.2320189253333638
 21
215.9555535051956952
 31
0.0
  0
LINE
  5
2D25
  8
0
 10
551.9805186603790617
 20
214.2250348448174009
 30
0.0
 11
551.9805186603790617
 21
215.6516714731687898
 31
0.0
  0
LINE
  5
2D26
  8
0
 10
551.9805186603790617
 20
215.6516714731687898
 30
0.0
 11
552.2320189253498484
 21
215.9555535051914887
 31
0.0
  0
LINE
  5
2D27
  8
0
 10
551.90000000000623
 20
206.5055535051909033
 30
0.0
 11
564.40000000000623
 21
206.5055535051909033
 31
0.0
  0
LINE
  5
2D28
  8
0
 10
552.0048155585739096
 20
204.5055535051899085
 30
0.0
 11
564.2951844414385505
 21
204.5055535051899085
 31
0.0
  0
LINE
  5
2D29
  8
0
 10
564.0500000000057526
 20
202.0055535051909885
 30
0.0
 11
552.2500000000064801
 21
202.0055535051909885
 31
0.0
  0
LINE
  5
2D2A
  8
0
 10
552.5000000000029559
 20
203.8555535052394134
 30
0.0
 11
563.8000000000085947
 21
203.8555535052394134
 31
0.0
  0
LINE
  5
2D2B
  8
0
 10
552.7000000000100499
 20
203.0055535052254072
 30
0.0
 11
563.6000000000024102
 21
203.0055535052254072
 31
0.0
  0
LINE
  5
2D2C
  8
0
 10
554.8499999999814918
 20
200.5055535051849063
 30
0.0
 11
561.4500000000299451
 21
200.5055535051849063
 31
0.0
  0
LINE
  5
2D2D
  8
0
 10
547.65000000000623
 20
214.3055535051908009
 30
0.0
 11
547.65000000000623
 21
227.3055535051908862
 31
0.0
  0
LINE
  5
2D2E
  8
0
 10
555.0850000000392583
 20
220.8055535051909999
 30
0.0
 11
555.0850000000792761
 21
224.680553505184605
 31
0.0
  0
ARC
  5
2D2F
  8
0
 10
548.7322071280824503
 20
221.2336373739225905
 30
0.0
 40
6.367199782715339
 50
321.4244673644590762
 51
356.1449435011717242
  0
LINE
  5
2D30
  8
0
 10
553.7100000000330056
 20
217.2633966763542901
 30
0.0
 11
553.7100000000057207
 21
226.0555535052583025
 31
0.0
  0
LINE
  5
2D31
  8
0
 10
547.9500000000064119
 20
226.0555535051908862
 30
0.0
 11
547.9500000000064119
 21
215.5555535051908862
 31
0.0
  0
LINE
  5
2D32
  8
0
 10
551.9805186603790617
 20
215.6516714731687898
 30
0.0
 11
550.5538820320282412
 21
215.6516714731687898
 31
0.0
  0
LINE
  5
2D33
  8
0
 10
555.0825436466268457
 20
217.2633967141391906
 30
0.0
 11
553.7100000000330056
 21
217.2633966763542901
 31
0.0
  0
LINE
  5
2D34
  8
0
 10
550.5538820320282412
 20
215.6516714731687898
 30
0.0
 11
551.9805186603790617
 21
214.2250348448174009
 31
0.0
  0
LINE
  5
2D35
  8
0
 10
599.8500000000115051
 20
166.7499999999535021
 30
0.0
 11
602.2250000000077534
 21
169.1250000000063949
 31
0.0
  0
LINE
  5
2D36
  8
0
 10
602.2250000000051386
 20
176.8749999999965894
 30
0.0
 11
599.8500000000115051
 21
179.2500000000464979
 31
0.0
  0
LINE
  5
2D37
  8
0
 10
590.400000000011687
 20
166.75
 30
0.0
 11
599.8500000000115051
 21
166.75
 31
0.0
  0
LINE
  5
2D38
  8
0
 10
599.8500000000115051
 20
179.2499999999998863
 30
0.0
 11
590.400000000011687
 21
179.2499999999998863
 31
0.0
  0
LINE
  5
2D39
  8
0
 10
590.400000000011687
 20
179.2500000000003979
 30
0.0
 11
588.4000000000106638
 21
179.1451844414322068
 31
0.0
  0
LINE
  5
2D3A
  8
0
 10
588.4000000000106638
 20
166.854815558567708
 30
0.0
 11
590.400000000011687
 21
166.7499999999996021
 31
0.0
  0
LINE
  5
2D3B
  8
0
 10
585.0262700760888492
 20
167.0999999999999943
 30
0.0
 11
585.900000000011687
 21
167.0999999999999943
 31
0.0
  0
LINE
  5
2D3C
  8
0
 10
585.900000000011687
 20
178.9000000000000057
 30
0.0
 11
585.0262700760888492
 21
178.9000000000000057
 31
0.0
  0
ARC
  5
2D3D
  8
0
 10
585.0262700760888492
 20
167.2999999999991019
 30
0.0
 40
0.1999999999990791
 50
190.0000000000067928
 51
270.0
  0
ARC
  5
2D3E
  8
0
 10
585.0262700760888492
 20
178.7000000000008981
 30
0.0
 40
0.1999999999990791
 50
90.0
 51
169.9999999999930935
  0
LINE
  5
2D3F
  8
0
 10
587.6500000000288537
 20
167.2499999999654108
 30
0.0
 11
587.750000000060254
 21
167.349999999997209
 31
0.0
  0
LINE
  5
2D40
  8
0
 10
587.750000000060254
 20
178.6500000000027057
 30
0.0
 11
587.6500000000288537
 21
178.750000000034504
 31
0.0
  0
LINE
  5
2D41
  8
0
 10
587.2000000000117552
 20
167.25
 30
0.0
 11
587.6500000000288537
 21
167.25
 31
0.0
  0
LINE
  5
2D42
  8
0
 10
587.6500000000288537
 20
178.7499999999998863
 30
0.0
 11
587.2000000000117552
 21
178.7499999999998863
 31
0.0
  0
LINE
  5
2D43
  8
0
 10
587.8500000000124146
 20
178.7499999999544116
 30
0.0
 11
587.750000000060254
 21
178.6500000000027057
 31
0.0
  0
LINE
  5
2D44
  8
0
 10
587.750000000060254
 20
167.349999999997209
 30
0.0
 11
587.8500000000124146
 21
167.2500000000455884
 31
0.0
  0
LINE
  5
2D45
  8
0
 10
587.8500000000124146
 20
167.25
 30
0.0
 11
588.3000000000357659
 21
167.25
 31
0.0
  0
LINE
  5
2D46
  8
0
 10
588.3000000000357659
 20
178.7499999999998863
 30
0.0
 11
587.8500000000124146
 21
178.7499999999998863
 31
0.0
  0
LINE
  5
2D47
  8
0
 10
587.2000000000117552
 20
178.7499999999616875
 30
0.0
 11
586.9000000000462478
 21
178.4499999999960949
 31
0.0
  0
LINE
  5
2D48
  8
0
 10
586.9000000000462478
 20
167.5500000000037915
 30
0.0
 11
587.2000000000117552
 21
167.2500000000381988
 31
0.0
  0
LINE
  5
2D49
  8
0
 10
588.3000000000357659
 20
167.250000000022311
 30
0.0
 11
588.4000000000106638
 21
167.349999999997209
 31
0.0
  0
LINE
  5
2D4A
  8
0
 10
588.4000000000106638
 20
178.6500000000027057
 30
0.0
 11
588.3000000000357659
 21
178.7499999999776037
 31
0.0
  0
LINE
  5
2D4B
  8
0
 10
584.8293085254874768
 20
178.7347296356429922
 30
0.0
 11
584.40000000000623
 21
176.3000000000241982
 31
0.0
  0
LINE
  5
2D4C
  8
0
 10
584.40000000000623
 20
169.6999999999756028
 30
0.0
 11
584.8293085254874768
 21
167.2652703643568941
 31
0.0
  0
ARC
  5
2D4D
  8
0
 10
586.2000000000118689
 20
168.9500000000001023
 30
0.0
 40
0.2999999999998977
 50
89.9999999999739515
 51
180.0
  0
ARC
  5
2D4E
  8
0
 10
586.2000000000118689
 20
177.0499999999998977
 30
0.0
 40
0.2999999999998977
 50
180.0
 51
270.0000000000130171
  0
LINE
  5
2D4F
  8
0
 10
586.2000000000118689
 20
169.25
 30
0.0
 11
586.900000000011687
 21
169.25
 31
0.0
  0
LINE
  5
2D50
  8
0
 10
586.900000000011687
 20
176.7499999999998863
 30
0.0
 11
586.2000000000118689
 21
176.7499999999998863
 31
0.0
  0
LINE
  5
2D51
  8
0
 10
602.2250000000051386
 20
169.1250000000032117
 30
0.0
 11
602.2250000000051386
 21
176.8749999999967031
 31
0.0
  0
LINE
  5
2D52
  8
0
 10
599.8500000000115051
 20
166.7499999999535021
 30
0.0
 11
599.8500000000115051
 21
179.2500000000464979
 31
0.0
  0
LINE
  5
2D53
  8
0
 10
590.400000000011687
 20
179.2499999999998863
 30
0.0
 11
590.400000000011687
 21
166.75
 31
0.0
  0
LINE
  5
2D54
  8
0
 10
588.4000000000106638
 20
179.1451844414322068
 30
0.0
 11
588.4000000000106638
 21
166.854815558567708
 31
0.0
  0
LINE
  5
2D55
  8
0
 10
585.900000000011687
 20
167.0999999999999943
 30
0.0
 11
585.900000000011687
 21
178.9000000000000057
 31
0.0
  0
LINE
  5
2D56
  8
0
 10
587.750000000060254
 20
178.6500000000027057
 30
0.0
 11
587.750000000060254
 21
167.349999999997209
 31
0.0
  0
LINE
  5
2D57
  8
0
 10
586.9000000000462478
 20
178.4499999999960949
 30
0.0
 11
586.9000000000462478
 21
167.5500000000037915
 31
0.0
  0
LINE
  5
2D58
  8
0
 10
584.40000000000623
 20
176.3000000000241982
 30
0.0
 11
584.40000000000623
 21
169.6999999999756028
 31
0.0
  0
LINE
  5
2D59
  8
0
 10
604.7000000000117552
 20
176.8749999999998863
 30
0.0
 11
602.2250000000051386
 21
176.8749999999967031
 31
0.0
  0
LINE
  5
2D5A
  8
0
 10
602.2250000000051386
 20
169.1250000000032117
 30
0.0
 11
604.7000000000117552
 21
169.125
 31
0.0
  0
ARC
  5
2D5B
  8
0
 10
604.7000000000117552
 20
172.9999999999996874
 30
0.0
 40
3.8749999999997442
 50
270.0
 51
90.0
  0
ARC
  5
2D5C
  8
0
 10
604.7000000000117552
 20
172.9999999999998863
 30
0.0
 40
5.2499999999999867
 50
235.8688648656707016
 51
124.1311351343291989
  0
LINE
  5
2D5D
  8
0
 10
611.2000000000118689
 20
169.2472232502674103
 30
0.0
 11
611.2000000000118689
 21
176.7527766531038083
 31
0.0
  0
ARC
  5
2D5E
  8
0
 10
604.7000000000117552
 20
172.9999999999998863
 30
0.0
 40
6.5000000000000151
 50
233.7602340103265988
 51
126.2397659896733018
  0
LINE
  5
2D5F
  8
0
 10
604.7000000396402584
 20
180.505553522344286
 30
0.0
 11
600.8292341855304812
 21
178.2707658145045002
 31
0.0
  0
LINE
  5
2D60
  8
0
 10
611.2000000000118689
 20
176.7527766531038083
 30
0.0
 11
604.7000000836944764
 21
180.5055534511508881
 31
0.0
  0
LINE
  5
2D61
  8
0
 10
604.6999999163292614
 20
165.4944465488493108
 30
0.0
 11
611.1999999163291477
 21
169.2472232019530907
 31
0.0
  0
LINE
  5
2D62
  8
0
 10
600.8292341855304812
 20
167.7292341854956987
 30
0.0
 11
604.6999999163292614
 21
165.4944465488493108
 31
0.0
  0
LINE
  5
2D63
  8
1
 10
533.5500000000058662
 20
220.8055535051908009
 30
0.0
 11
567.02500000000623
 21
220.8055535051909999
 31
0.0
  0
LINE
  5
2D64
  8
1
 10
558.15000000000623
 20
197.5055535051849063
 30
0.0
 11
558.15000000000623
 21
227.6805535051909999
 31
0.0
  0
LINE
  5
2D65
  8
1
 10
533.5500000000058662
 20
172.9999999999998863
 30
0.0
 11
567.40000000000623
 21
172.9999999999998863
 31
0.0
  0
LINE
  5
2D66
  8
1
 10
558.15000000000623
 20
163.75
 30
0.0
 11
558.15000000000623
 21
182.2499999999998863
 31
0.0
  0
LINE
  5
2D67
  8
1
 10
604.7000000000117552
 20
183.5055534511508881
 30
0.0
 11
604.7000000000117552
 21
162.4944465488493108
 31
0.0
  0
LINE
  5
2D68
  8
1
 10
614.2000000000117552
 20
172.9999999999998863
 30
0.0
 11
581.40000000000623
 21
172.9999999999998863
 31
0.0
  0
LINE
  5
2D69
  8
0
 10
537.1310000000058835
 20
215.9415535051909103
 30
0.0
 11
537.1310000000058835
 21
225.6695535051908905
 31
0.0
  0
LINE
  5
2D6A
  8
0
 10
536.5500000000057526
 20
216.5225535051908139
 30
0.0
 11
536.5500000000057526
 21
225.0885535051909017
 31
0.0
  0
LINE
  5
2D6B
  8
0
 10
540.7500000000055707
 20
214.8055535051909999
 30
0.0
 11
540.7500000000055707
 21
226.8055535051909999
 31
0.0
  0
LINE
  5
2D6C
  8
0
 10
537.1310000000058835
 20
215.9415535051909103
 30
0.0
 11
540.7500000000055707
 21
215.9415535051909103
 31
0.0
  0
LINE
  5
2D6D
  8
0
 10
540.7500000000055707
 20
225.6695535051908905
 30
0.0
 11
537.1310000000058835
 21
225.6695535051908905
 31
0.0
  0
LINE
  5
2D6E
  8
0
 10
537.1310000000058835
 20
225.6695535051908905
 30
0.0
 11
536.5500000000057526
 21
225.0885535051909017
 31
0.0
  0
LINE
  5
2D6F
  8
0
 10
536.5500000000057526
 20
216.5225535051908139
 30
0.0
 11
537.1310000000058835
 21
215.9415535051909103
 31
0.0
  0
LINE
  5
2D70
  8
0
 10
542.3500000000060481
 20
179.4999999999998863
 30
0.0
 11
541.0500000000057526
 21
179.4999999999998863
 31
0.0
  0
LINE
  5
2D71
  8
0
 10
541.0500000000057526
 20
166.5
 30
0.0
 11
542.3500000000060481
 21
166.5
 31
0.0
  0
LINE
  5
2D72
  8
0
 10
541.0500000000057526
 20
178.9999999999998863
 30
0.0
 11
540.7500000000055707
 21
178.9999999999998863
 31
0.0
  0
LINE
  5
2D73
  8
0
 10
540.7500000000055707
 20
167.0
 30
0.0
 11
541.0500000000057526
 21
167.0
 31
0.0
  0
LINE
  5
2D74
  8
0
 10
541.0500000000057526
 20
179.4999999999998863
 30
0.0
 11
541.0500000000067757
 21
166.5
 31
0.0
  0
LINE
  5
2D75
  8
0
 10
537.1310000000058835
 20
168.1359999999999104
 30
0.0
 11
537.1310000000058835
 21
177.8640000000000043
 31
0.0
  0
LINE
  5
2D76
  8
0
 10
536.5500000000057526
 20
168.717000000000013
 30
0.0
 11
536.5500000000057526
 21
177.282999999999987
 31
0.0
  0
LINE
  5
2D77
  8
0
 10
540.7500000000055707
 20
167.0
 30
0.0
 11
540.7500000000055707
 21
178.9999999999998863
 31
0.0
  0
LINE
  5
2D78
  8
0
 10
537.1310000000058835
 20
168.1359999999999104
 30
0.0
 11
540.7500000000055707
 21
168.1359999999999104
 31
0.0
  0
LINE
  5
2D79
  8
0
 10
540.7500000000055707
 20
177.8640000000000043
 30
0.0
 11
537.1310000000058835
 21
177.8640000000000043
 31
0.0
  0
LINE
  5
2D7A
  8
0
 10
537.1310000000058835
 20
177.8640000000000043
 30
0.0
 11
536.5500000000057526
 21
177.282999999999987
 31
0.0
  0
LINE
  5
2D7B
  8
0
 10
536.5500000000057526
 20
168.717000000000013
 30
0.0
 11
537.1310000000058835
 21
168.1359999999999104
 31
0.0
  0
LINE
  5
2D7C
  8
3
 10
411.8999999999998067
 20
225.0885535051909017
 30
0.0
 11
416.0999999999999091
 21
225.0885535051909017
 31
0.0
  0
LINE
  5
2D7D
  8
3
 10
536.5500000000057526
 20
225.0885535051909017
 30
0.0
 11
540.7500000000055707
 21
225.0885535051909017
 31
0.0
  0
LINE
  5
2D7E
  8
3
 10
411.8999999999998067
 20
216.5225535051908139
 30
0.0
 11
416.0999999999999091
 21
216.5225535051908139
 31
0.0
  0
LINE
  5
2D7F
  8
3
 10
536.5500000000057526
 20
216.5225535051908139
 30
0.0
 11
540.7500000000055707
 21
216.5225535051908139
 31
0.0
  0
LINE
  5
2D80
  8
3
 10
411.8999999999998067
 20
177.2830000000001007
 30
0.0
 11
416.0999999999999091
 21
177.2830000000001007
 31
0.0
  0
LINE
  5
2D81
  8
3
 10
411.8999999999998067
 20
168.717000000000013
 30
0.0
 11
416.0999999999999091
 21
168.717000000000013
 31
0.0
  0
LINE
  5
2D82
  8
3
 10
536.5500000000057526
 20
177.2830000000001007
 30
0.0
 11
540.7500000000059117
 21
177.2830000000001007
 31
0.0
  0
LINE
  5
2D83
  8
3
 10
536.5500000000057526
 20
168.717000000000013
 30
0.0
 11
540.7500000000059117
 21
168.717000000000013
 31
0.0
  0
LINE
  5
32B2
  8
0
 10
210.5671748156416925
 20
171.4793099038672892
 30
0.0
 11
210.5671748156416925
 21
174.5206911690164873
 31
0.0
  0
ARC
  5
32B3
  8
0
 10
217.4000000000000057
 20
173.0000005364420019
 30
0.0
 40
7.0000000000000338
 50
192.5470656040432118
 51
347.4529343959587209
  0
LINE
  5
32B4
  8
0
 10
224.2328251843582052
 20
174.520691169016402
 30
0.0
 11
224.2328251843582052
 21
171.4793099038674029
 31
0.0
  0
ARC
  5
32B5
  8
0
 10
217.4000000000000057
 20
173.0000005364418882
 30
0.0
 40
7.0000000000000311
 50
12.5470656040428601
 51
167.4529343959571008
  0
CIRCLE
  5
32B6
  8
0
 10
217.4000000000000057
 20
173.0000005364418882
 30
0.0
 40
4.3999999999999906
  0
CIRCLE
  5
32B7
  8
3
 10
217.4000000000000909
 20
173.0
 30
0.0
 40
4.8639999999999191
  0
LINE
  5
32B9
  8
1
 10
207.4000000000000909
 20
173.0
 30
0.0
 11
227.4000000000000909
 21
173.0
 31
0.0
  0
ENDSEC
  0
EOF
