  0
SECTION
  2
HEADER
  9
$ACADVER
  1
AC1009
  9
$INSBASE
 10
0.0
 20
0.0
 30
0.0
  9
$EXTMIN
 10
0.0
 20
-2.960436562073669
 30
0.0
  9
$EXTMAX
 10
481.50000000000023
 20
397.0
 30
0.0
  9
$LIMMIN
 10
0.0
 20
0.0
  9
$LIMMAX
 10
1155.0
 20
810.0
  9
$ORTHOMODE
 70
     1
  9
$REGENMODE
 70
     1
  9
$FILLMODE
 70
     1
  9
$QTEXTMODE
 70
     0
  9
$MIRRTEXT
 70
     1
  9
$DRAGMODE
 70
     2
  9
$LTSCALE
 40
20.0
  9
$OSMODE
 70
    37
  9
$ATTMODE
 70
     1
  9
$TEXTSIZE
 40
4.0
  9
$TRACEWID
 40
0.05
  9
$TEXTSTYLE
  7
STANDARD
  9
$CLAYER
  8
0
  9
$CELTYPE
  6
BYLAYER
  9
$CECOLOR
 62
   256
  9
$DIMSCALE
 40
3.0
  9
$DIMASZ
 40
3.0
  9
$DIMEXO
 40
2.0
  9
$DIMDLI
 40
0.38
  9
$DIMRND
 40
0.0
  9
$DIMDLE
 40
0.0
  9
$DIMEXE
 40
2.0
  9
$DIMTP
 40
0.0
  9
$DIMTM
 40
0.0
  9
$DIMTXT
 40
3.0
  9
$DIMCEN
 40
0.0
  9
$DIMTSZ
 40
0.0
  9
$DIMTOL
 70
     0
  9
$DIMLIM
 70
     0
  9
$DIMTIH
 70
     0
  9
$DIMTOH
 70
     0
  9
$DIMSE1
 70
     0
  9
$DIMSE2
 70
     0
  9
$DIMTAD
 70
     1
  9
$DIMZIN
 70
     8
  9
$DIMBLK
  1

  9
$DIMASO
 70
     0
  9
$DIMSHO
 70
     0
  9
$DIMPOST
  1

  9
$DIMAPOST
  1

  9
$DIMALT
 70
     0
  9
$DIMALTD
 70
     2
  9
$DIMALTF
 40
25.399999999999999
  9
$DIMLFAC
 40
1.0
  9
$DIMTOFL
 70
     0
  9
$DIMTVP
 40
1.6000000000000001
  9
$DIMTIX
 70
     1
  9
$DIMSOXD
 70
     0
  9
$DIMSAH
 70
     0
  9
$DIMBLK1
  1

  9
$DIMBLK2
  1

  9
$DIMSTYLE
  2
STANDARD
  9
$DIMCLRD
 70
     4
  9
$DIMCLRE
 70
     4
  9
$DIMCLRT
 70
     4
  9
$DIMTFAC
 40
1.0
  9
$DIMGAP
 40
0.09
  9
$LUNITS
 70
     2
  9
$LUPREC
 70
     1
  9
$SKETCHINC
 40
0.1
  9
$FILLETRAD
 40
3.0
  9
$AUNITS
 70
     0
  9
$AUPREC
 70
     0
  9
$MENU
  1
E:\r13\win\SUPPORT\ACAD
  9
$ELEVATION
 40
0.0
  9
$PELEVATION
 40
0.0
  9
$THICKNESS
 40
0.0
  9
$LIMCHECK
 70
     0
  9
$BLIPMODE
 70
     0
  9
$CHAMFERA
 40
1.1999999999999991
  9
$CHAMFERB
 40
1.1999999999999991
  9
$SKPOLY
 70
     0
  9
$TDCREATE
 40
2450059.5671413201
  9
$TDUPDATE
 40
2459657.6535161701
  9
$TDINDWG
 40
0.3524935417
  9
$TDUSRTIMER
 40
0.3524935417
  9
$USRTIMER
 70
     1
  9
$ANGBASE
 50
0.0
  9
$ANGDIR
 70
     0
  9
$PDMODE
 70
     0
  9
$PDSIZE
 40
0.0
  9
$PLINEWID
 40
0.0
  9
$COORDS
 70
     1
  9
$SPLFRAME
 70
     0
  9
$SPLINETYPE
 70
     6
  9
$SPLINESEGS
 70
     8
  9
$ATTDIA
 70
     0
  9
$ATTREQ
 70
     1
  9
$HANDLING
 70
     1
  9
$HANDSEED
  5
37A9
  9
$SURFTAB1
 70
     6
  9
$SURFTAB2
 70
     6
  9
$SURFTYPE
 70
     6
  9
$SURFU
 70
     6
  9
$SURFV
 70
     6
  9
$UCSNAME
  2

  9
$UCSORG
 10
0.0
 20
0.0
 30
0.0
  9
$UCSXDIR
 10
1.0
 20
0.0
 30
0.0
  9
$UCSYDIR
 10
0.0
 20
1.0
 30
0.0
  9
$PUCSNAME
  2

  9
$PUCSORG
 10
0.0
 20
0.0
 30
0.0
  9
$PUCSXDIR
 10
1.0
 20
0.0
 30
0.0
  9
$PUCSYDIR
 10
0.0
 20
1.0
 30
0.0
  9
$USERI1
 70
     3
  9
$USERI2
 70
     1
  9
$USERI3
 70
     1
  9
$USERI4
 70
     0
  9
$USERI5
 70
     0
  9
$USERR1
 40
3.0
  9
$USERR2
 40
3.0
  9
$USERR3
 40
3.0
  9
$USERR4
 40
3.0
  9
$USERR5
 40
10.0
  9
$WORLDVIEW
 70
     1
  9
$SHADEDGE
 70
     3
  9
$SHADEDIF
 70
    70
  9
$TILEMODE
 70
     1
  9
$MAXACTVP
 70
    16
  9
$PLIMCHECK
 70
     0
  9
$PEXTMIN
 10
1.0000000000000000E+020
 20
1.0000000000000000E+020
 30
1.0000000000000000E+020
  9
$PEXTMAX
 10
-1.0000000000000000E+020
 20
-1.0000000000000000E+020
 30
-1.0000000000000000E+020
  9
$PLIMMIN
 10
0.0
 20
0.0
  9
$PLIMMAX
 10
12.0
 20
9.0
  9
$UNITMODE
 70
     0
  9
$VISRETAIN
 70
     0
  9
$PLINEGEN
 70
     0
  9
$PSLTSCALE
 70
     0
  0
ENDSEC
  0
SECTION
  2
TABLES
  0
TABLE
  2
VPORT
 70
     1
  0
VPORT
  2
*ACTIVE
 70
     0
 10
0.0
 20
0.0
 11
1.0
 21
1.0
 12
965.952080706179
 22
400.0
 13
0.0
 23
0.0
 14
15.0
 24
15.0
 15
10.0
 25
10.0
 16
0.0
 26
0.0
 36
1.0
 17
0.0
 27
0.0
 37
0.0
 40
800.0
 41
2.4148802017654472
 42
50.0
 43
0.0
 44
0.0
 50
0.0
 51
0.0
 71
     0
 72
 10000
 73
     1
 74
     1
 75
     0
 76
     0
 77
     0
 78
     2
  0
ENDTAB
  0
TABLE
  2
LTYPE
 70
     4
  0
LTYPE
  2
CONTINUOUS
 70
     0
  3
実線
 72
    65
 73
     0
 40
0.0
  0
LTYPE
  2
CENTER
 70
     0
  3
____ _ ____ _ ____ _ ____ _ ____ _ ____ _ ____
 72
    65
 73
     4
 40
2.0
 49
1.25
 49
-0.25
 49
0.25
 49
-0.25
  0
LTYPE
  2
HIDDEN
 70
     0
  3
_ _ _ _ _ _ _ _ _ _ _ _ _ _ _ _ _ _ _ _ _ _ _
 72
    65
 73
     2
 40
0.375
 49
0.25
 49
-0.125
  0
LTYPE
  2
PHANTOM2
 70
     0
  3
___ _ _ ___ _ _ ___ _ _ ___ _ _
 72
    65
 73
     6
 40
1.25
 49
0.625
 49
-0.125
 49
0.125
 49
-0.125
 49
0.125
 49
-0.125
  0
ENDTAB
  0
TABLE
  2
LAYER
 70
     5
  0
LAYER
  2
0
 70
     0
 62
     7
  6
CONTINUOUS
  0
LAYER
  2
1
 70
     0
 62
     1
  6
CENTER
  0
LAYER
  2
DEFPOINTS
 70
     0
 62
     7
  6
CONTINUOUS
  0
LAYER
  2
2
 70
     0
 62
     2
  6
HIDDEN
  0
LAYER
  2
3
 70
     0
 62
     3
  6
CONTINUOUS
  0
ENDTAB
  0
TABLE
  2
STYLE
 70
     2
  0
STYLE
  2
STANDARD
 70
     0
 40
0.0
 41
1.0
 50
0.0
 71
     0
 42
4.0
  3
SIMPLEX
  4
BIGFONT
  0
STYLE
  2
STANDARD1
 70
     0
 40
0.0
 41
1.0
 50
0.0
 71
     0
 42
3.0
  3
txt
  4

  0
ENDTAB
  0
TABLE
  2
VIEW
 70
     1
  0
VIEW
  2
ALL
 70
     0
 40
270.0
 10
220.59941989218049
 20
135.0
 41
441.19883978436093
 11
0.0
 21
0.0
 31
1.0
 12
0.0
 22
0.0
 32
0.0
 42
50.0
 43
0.0
 44
0.0
 50
0.0
 71
     0
  0
ENDTAB
  0
TABLE
  2
UCS
 70
     0
  0
ENDTAB
  0
TABLE
  2
APPID
 70
     4
  0
APPID
  2
ACAD
 70
     0
  0
APPID
  2
ACAD_MLEADERVER
 70
     0
  0
APPID
  2
ACAD_EXEMPT_FROM_CAD_STANDARDS
 70
     0
  0
APPID
  2
ACAD_NAV_VCDISPLAY
 70
     0
  0
ENDTAB
  0
TABLE
  2
DIMSTYLE
 70
     1
  0
DIMSTYLE
  2
STANDARD
 70
     0
  3

  4

  5

  6

  7

 40
1.0
 41
0.18
 42
0.0625
 43
0.38
 44
0.18
 45
0.0
 46
0.0
 47
0.0
 48
0.0
140
0.18
141
0.09
142
0.0
143
25.399999999999999
144
1.0
145
0.0
146
1.0
147
0.09
 71
     0
 72
     0
 73
     1
 74
     1
 75
     0
 76
     0
 77
     0
 78
     0
170
     0
171
     2
172
     0
173
     0
174
     0
175
     0
176
     0
177
     0
178
     0
  0
ENDTAB
  0
ENDSEC
  0
SECTION
  2
BLOCKS
  0
BLOCK
  8
0
  2
$MODEL_SPACE
 70
     0
 10
0.0
 20
0.0
 30
0.0
  3
$MODEL_SPACE
  1

  0
ENDBLK
  5
11D9
  8
0
  0
BLOCK
 67
     1
  8
0
  2
$PAPER_SPACE
 70
     0
 10
0.0
 20
0.0
 30
0.0
  3
$PAPER_SPACE
  1

  0
ENDBLK
  5
11D7
 67
     1
  8
0
  0
ENDSEC
  0
SECTION
  2
ENTITIES
  0
TEXT
  5
1F8C
  8
0
 62
     3
 10
0.0
 20
0.0
 30
0.0
 40
10.0
  1
SSR-MH4911
  7
STANDARD1
  0
LINE
  5
35C8
  8
0
 10
238.0
 20
353.5
 30
0.0
 11
238.0
 21
271.5
 31
0.0
  0
ARC
  5
35C9
  8
0
 10
257.0
 20
353.5
 30
0.0
 40
19.000000000000028
 50
90.0
 51
180.0
  0
ARC
  5
35CA
  8
0
 10
257.00000000000023
 20
271.5
 30
0.0
 40
19.000000000000028
 50
180.0
 51
270.0
  0
LINE
  5
35CB
  8
0
 10
278.5
 20
267.5
 30
0.0
 11
278.5
 21
357.5
 31
0.0
  0
LINE
  5
35CC
  8
0
 10
312.0
 20
357.5
 30
0.0
 11
312.0
 21
267.5
 31
0.0
  0
LINE
  5
35CD
  8
0
 10
297.0
 20
252.5
 30
0.0
 11
293.5
 21
252.5
 31
0.0
  0
LINE
  5
35CE
  8
0
 10
293.5
 20
372.5
 30
0.0
 11
297.0
 21
372.5
 31
0.0
  0
ARC
  5
35CF
  8
0
 10
297.0
 20
267.5
 30
0.0
 40
15.0
 50
270.0
 51
0.0
  0
ARC
  5
35D0
  8
0
 10
293.5
 20
267.5
 30
0.0
 40
15.00000000000003
 50
180.0
 51
270.0
  0
ARC
  5
35D1
  8
0
 10
293.5
 20
357.5
 30
0.0
 40
15.00000000000003
 50
90.0
 51
180.0
  0
ARC
  5
35D2
  8
0
 10
297.0
 20
357.5
 30
0.0
 40
15.0
 50
0.0
 51
90.0
  0
LINE
  5
35D3
  8
0
 10
275.8348082018374
 20
271.5
 30
0.0
 11
275.8348082018374
 21
353.5
 31
0.0
  0
ARC
  5
35D4
  8
0
 10
256.99785533979463
 20
353.49785533979463
 30
0.0
 40
18.836952984131841
 50
0.0065233468751754
 51
89.993476653111799
  0
ARC
  5
35D5
  8
0
 10
256.99639043201267
 20
271.5036095679875
 30
0.0
 40
18.838418115633459
 50
270.01097825791641
 51
359.98902174208359
  0
CIRCLE
  5
35D6
  8
0
 10
350.33095244168788
 20
382.0
 30
0.0
 40
2.5
  0
CIRCLE
  5
35D7
  8
0
 10
315.33095244168788
 20
382.0
 30
0.0
 40
2.5
  0
CIRCLE
  5
35D8
  8
0
 10
315.33095244168788
 20
243.0
 30
0.0
 40
2.5
  0
CIRCLE
  5
35D9
  8
0
 10
350.33095244168788
 20
243.0
 30
0.0
 40
2.5
  0
ARC
  5
35DA
  8
0
 10
446.85729635670191
 20
338.0
 30
0.0
 40
10.0
 50
207.08791578169129
 51
270.0
  0
ARC
  5
35DB
  8
0
 10
397.0
 20
312.5
 30
0.0
 40
46.000000000000043
 50
27.08791578169124
 51
62.912084218308493
  0
ARC
  5
35DC
  8
0
 10
422.49999999999989
 20
362.35729635670208
 30
0.0
 40
10.0
 50
180.0
 51
242.91208421830851
  0
LINE
  5
35DD
  8
0
 10
412.5
 20
372.5
 30
0.0
 11
412.5
 21
362.35729635670208
 31
0.0
  0
ARC
  5
35DE
  8
0
 10
407.00000000000023
 20
372.5
 30
0.0
 40
5.5
 50
0.0
 51
90.0
  0
LINE
  5
35DF
  8
0
 10
387.0
 20
378.0
 30
0.0
 11
407.00000000000023
 21
378.0
 31
0.0
  0
ARC
  5
35E0
  8
0
 10
387.0
 20
372.5
 30
0.0
 40
5.5
 50
90.0
 51
180.0
  0
LINE
  5
35E1
  8
0
 10
381.5
 20
362.35729635670208
 30
0.0
 11
381.5
 21
372.5
 31
0.0
  0
ARC
  5
35E2
  8
0
 10
371.5
 20
362.35729635670208
 30
0.0
 40
10.0
 50
297.08791578169149
 51
0.0
  0
ARC
  5
35E3
  8
0
 10
397.0
 20
312.5
 30
0.0
 40
46.000000000000057
 50
117.08791578169151
 51
152.91208421830871
  0
ARC
  5
35E4
  8
0
 10
347.14270364329809
 20
338.0
 30
0.0
 40
10.0
 50
270.0
 51
332.91208421830868
  0
LINE
  5
35E5
  8
0
 10
337.00000000000023
 20
328.0
 30
0.0
 11
347.14270364329809
 21
328.0
 31
0.0
  0
ARC
  5
35E6
  8
0
 10
337.00000000000023
 20
322.5
 30
0.0
 40
5.5
 50
90.0
 51
180.0
  0
LINE
  5
35E7
  8
0
 10
331.5
 20
302.5
 30
0.0
 11
331.50000000000023
 21
322.5
 31
0.0
  0
ARC
  5
35E8
  8
0
 10
337.0
 20
302.5
 30
0.0
 40
5.5
 50
180.0
 51
270.0
  0
LINE
  5
35E9
  8
0
 10
347.14270364329809
 20
297.0
 30
0.0
 11
337.0
 21
297.0
 31
0.0
  0
ARC
  5
35EA
  8
0
 10
347.14270364329809
 20
287.00000000000023
 30
0.0
 40
9.9999999999999982
 50
27.08791578169124
 51
90.0
  0
ARC
  5
35EB
  8
0
 10
397.0
 20
312.5
 30
0.0
 40
46.000000000000057
 50
207.08791578169129
 51
242.91208421830851
  0
ARC
  5
35EC
  8
0
 10
371.5
 20
262.64270364329832
 30
0.0
 40
10.0
 50
0.0
 51
62.912084218308493
  0
LINE
  5
35ED
  8
0
 10
381.5
 20
252.5
 30
0.0
 11
381.5
 21
262.64270364329832
 31
0.0
  0
ARC
  5
35EE
  8
0
 10
387.0
 20
252.5
 30
0.0
 40
5.5
 50
180.0
 51
270.0
  0
LINE
  5
35EF
  8
0
 10
407.0
 20
247.0
 30
0.0
 11
387.0
 21
247.0
 31
0.0
  0
ARC
  5
35F0
  8
0
 10
407.0
 20
252.5
 30
0.0
 40
5.5
 50
270.0
 51
0.0
  0
LINE
  5
35F1
  8
0
 10
412.5
 20
262.64270364329832
 30
0.0
 11
412.5
 21
252.5
 31
0.0
  0
ARC
  5
35F2
  8
0
 10
422.49999999999989
 20
262.64270364329832
 30
0.0
 40
10.0
 50
117.08791578169151
 51
180.0
  0
ARC
  5
35F3
  8
0
 10
397.0
 20
312.5
 30
0.0
 40
46.000000000000007
 50
297.08791578169149
 51
332.91208421830868
  0
ARC
  5
35F4
  8
0
 10
446.85729635670191
 20
287.0
 30
0.0
 40
10.0
 50
90.0
 51
152.91208421830871
  0
LINE
  5
35F5
  8
0
 10
457.0
 20
297.0
 30
0.0
 11
446.85729635670191
 21
297.0
 31
0.0
  0
ARC
  5
35F6
  8
0
 10
457.0
 20
302.5
 30
0.0
 40
5.5
 50
270.0
 51
0.0
  0
LINE
  5
35F7
  8
0
 10
462.50000000000023
 20
322.5
 30
0.0
 11
462.5
 21
302.5
 31
0.0
  0
ARC
  5
35F8
  8
0
 10
457.00000000000023
 20
322.5
 30
0.0
 40
5.5
 50
0.0
 51
90.0
  0
LINE
  5
35F9
  8
0
 10
446.85729635670191
 20
328.0
 30
0.0
 11
457.00000000000023
 21
328.0
 31
0.0
  0
CIRCLE
  5
35FA
  8
0
 10
443.669047558312
 20
265.83095244168788
 30
0.0
 40
4.250000000000056
  0
CIRCLE
  5
35FB
  8
0
 10
350.33095244168788
 20
265.83095244168788
 30
0.0
 40
4.250000000000056
  0
CIRCLE
  5
35FC
  8
0
 10
350.33095244168788
 20
359.16904755831229
 30
0.0
 40
4.25
  0
CIRCLE
  5
35FD
  8
0
 10
443.66904755831217
 20
359.16904755831229
 30
0.0
 40
4.25
  0
ARC
  5
35FE
  8
0
 10
397.0
 20
312.5
 30
0.0
 40
74.5
 50
270.0
 51
90.0
  0
LINE
  5
35FF
  8
0
 10
397.0
 20
238.0
 30
0.0
 11
270.00000000000023
 21
238.0
 31
0.0
  0
ARC
  5
3600
  8
0
 10
270.00000000000023
 20
251.0
 30
0.0
 40
13.0
 50
180.0
 51
270.0
  0
LINE
  5
3601
  8
0
 10
257.00000000000023
 20
251.0
 30
0.0
 11
257.00000000000023
 21
252.66519179816279
 31
0.0
  0
LINE
  5
3602
  8
0
 10
257.0
 20
372.3348082018374
 30
0.0
 11
257.0
 21
374.0
 31
0.0
  0
ARC
  5
3603
  8
0
 10
270.0
 20
374.0
 30
0.0
 40
13.0
 50
90.0
 51
180.0
  0
LINE
  5
3604
  8
0
 10
270.0
 20
387.0
 30
0.0
 11
397.00000000000023
 21
387.0
 31
0.0
  0
LINE
  5
3605
  8
0
 10
100.0
 20
353.5
 30
0.0
 11
100.0
 21
271.5
 31
0.0
  0
LINE
  5
3606
  8
0
 10
138.0
 20
271.5
 30
0.0
 11
138.0
 21
353.5
 31
0.0
  0
ARC
  5
3608
  8
0
 10
119.0
 20
353.5
 30
0.0
 40
18.999999999999979
 50
0.0
 51
180.0
  0
ARC
  5
3609
  8
0
 10
119.0
 20
271.5
 30
0.0
 40
19.000000000000011
 50
180.0
 51
0.0
  0
LINE
  5
3611
  8
0
 10
121.5
 20
387.0
 30
0.0
 11
116.5
 21
387.0
 31
0.0
  0
LINE
  5
3612
  8
0
 10
121.5
 20
372.33480820183729
 30
0.0
 11
121.5
 21
387.0
 31
0.0
  0
LINE
  5
3613
  8
0
 10
116.5
 20
387.0
 30
0.0
 11
116.5
 21
372.33480820183729
 31
0.0
  0
LINE
  5
3614
  8
0
 10
121.5
 20
238.0
 30
0.0
 11
121.5
 21
252.6651917981626
 31
0.0
  0
LINE
  5
3615
  8
0
 10
121.5
 20
238.0
 30
0.0
 11
116.5
 21
238.0
 31
0.0
  0
LINE
  5
3616
  8
0
 10
116.5
 20
252.6651917981626
 30
0.0
 11
116.5
 21
238.0
 31
0.0
  0
LINE
  5
3621
  8
0
 10
471.50000000000023
 20
116.5
 30
0.0
 11
471.50000000000023
 21
121.5
 31
0.0
  0
ARC
  5
3622
  8
0
 10
257.0
 20
119.0
 30
0.0
 40
18.999999999999979
 50
7.5608431766718738
 51
352.4391568233338
  0
LINE
  5
3628
  8
0
 10
257.0
 20
116.5
 30
0.0
 11
471.50000000000023
 21
116.5
 31
0.0
  0
LINE
  5
3629
  8
0
 10
257.0
 20
116.5
 30
0.0
 11
257.0
 21
121.5
 31
0.0
  0
LINE
  5
362A
  8
0
 10
471.50000000000023
 20
121.5
 30
0.0
 11
257.0
 21
121.5
 31
0.0
  0
LINE
  5
36FD
  8
1
 10
119.0
 20
228.0
 30
0.0
 11
119.0
 21
396.99999999999989
 31
0.0
  0
LINE
  5
3709
  8
1
 10
481.50000000000023
 20
119.0
 30
0.0
 11
228.0
 21
119.0
 31
0.0
  0
LINE
  5
370A
  8
1
 10
257.0
 20
147.99999999999989
 30
0.0
 11
257.0
 21
89.999999999999986
 31
0.0
  0
LINE
  5
3714
  8
1
 10
481.5
 20
312.5
 30
0.0
 11
228.0
 21
312.5
 31
0.0
  0
LINE
  5
3715
  8
1
 10
397.0
 20
397.0
 30
0.0
 11
397.0
 21
228.0
 31
0.0
  0
CIRCLE
  5
371F
  8
1
 10
397.0
 20
312.5
 30
0.0
 40
65.999999999999886
  0
LINE
  5
3720
  8
1
 10
450.20978528428759
 20
259.2902147157123
 30
0.0
 11
437.12830983233653
 21
272.37169016766347
 31
0.0
  0
LINE
  5
3721
  8
1
 10
450.20978528428782
 20
365.70978528428782
 30
0.0
 11
437.1283098323367
 21
352.6283098323367
 31
0.0
  0
LINE
  5
3726
  8
1
 10
356.87169016766347
 20
272.37169016766347
 30
0.0
 11
343.79021471571241
 21
259.29021471571241
 31
0.0
  0
LINE
  5
3727
  8
1
 10
356.87169016766347
 20
352.62830983233653
 30
0.0
 11
343.79021471571218
 21
365.7097852842877
 31
0.0
  0
ENDSEC
  0
EOF
